  0
SECTION
  2
HEADER
  9
$ACADVER
  1
AC1014
  9
$ACADMAINTVER
 70
     0
  9
$DWGCODEPAGE
  3
ANSI_932
  9
$INSBASE
 10
0.0
 20
0.0
 30
0.0
  9
$EXTMIN
 10
46.628495
 20
3.99115
 30
-0.001526
  9
$EXTMAX
 10
281.016312
 20
144.59784
 30
0.0
  9
$LIMMIN
 10
-6.0
 20
-6.0
  9
$LIMMAX
 10
291.0
 20
204.0
  9
$ORTHOMODE
 70
     0
  9
$REGENMODE
 70
     1
  9
$FILLMODE
 70
     1
  9
$QTEXTMODE
 70
     0
  9
$MIRRTEXT
 70
     1
  9
$DRAGMODE
 70
     2
  9
$LTSCALE
 40
1.0
  9
$OSMODE
 70
     3
  9
$ATTMODE
 70
     1
  9
$TEXTSIZE
 40
1.411111
  9
$TRACEWID
 40
0.05
  9
$TEXTSTYLE
  7
STANDARD
  9
$CLAYER
  8
1
  9
$CELTYPE
  6
BYLAYER
  9
$CECOLOR
 62
   256
  9
$CELTSCALE
 40
1.0
  9
$DELOBJ
 70
     1
  9
$DISPSILH
 70
     0
  9
$DIMSCALE
 40
0.0
  9
$DIMASZ
 40
1.0
  9
$DIMEXO
 40
0.0
  9
$DIMDLI
 40
0.5
  9
$DIMRND
 40
0.0
  9
$DIMDLE
 40
0.0
  9
$DIMEXE
 40
0.0
  9
$DIMTP
 40
0.0
  9
$DIMTM
 40
0.0
  9
$DIMTXT
 40
2.116667
  9
$DIMCEN
 40
0.0
  9
$DIMTSZ
 40
0.0
  9
$DIMTOL
 70
     0
  9
$DIMLIM
 70
     0
  9
$DIMTIH
 70
     1
  9
$DIMTOH
 70
     1
  9
$DIMSE1
 70
     0
  9
$DIMSE2
 70
     0
  9
$DIMTAD
 70
     1
  9
$DIMZIN
 70
     0
  9
$DIMBLK
  1

  9
$DIMASO
 70
     0
  9
$DIMSHO
 70
     0
  9
$DIMPOST
  1

  9
$DIMAPOST
  1

  9
$DIMALT
 70
     0
  9
$DIMALTD
 70
     0
  9
$DIMALTF
 40
1.0
  9
$DIMLFAC
 40
1.0
  9
$DIMTOFL
 70
     0
  9
$DIMTVP
 40
0.0
  9
$DIMTIX
 70
     0
  9
$DIMSOXD
 70
     0
  9
$DIMSAH
 70
     1
  9
$DIMBLK1
  1
_OPEN30
  9
$DIMBLK2
  1
_OPEN30
  9
$DIMSTYLE
  2
STANDARD
  9
$DIMCLRD
 70
     0
  9
$DIMCLRE
 70
     0
  9
$DIMCLRT
 70
     0
  9
$DIMTFAC
 40
1.0
  9
$DIMGAP
 40
0.09
  9
$DIMJUST
 70
     0
  9
$DIMSD1
 70
     0
  9
$DIMSD2
 70
     0
  9
$DIMTOLJ
 70
     1
  9
$DIMTZIN
 70
     0
  9
$DIMALTZ
 70
     0
  9
$DIMALTTZ
 70
     0
  9
$DIMFIT
 70
     3
  9
$DIMUPT
 70
     0
  9
$DIMUNIT
 70
     2
  9
$DIMDEC
 70
     4
  9
$DIMTDEC
 70
     4
  9
$DIMALTU
 70
     2
  9
$DIMALTTD
 70
     2
  9
$DIMTXSTY
  7
STANDARD
  9
$DIMAUNIT
 70
     0
  9
$LUNITS
 70
     2
  9
$LUPREC
 70
     2
  9
$SKETCHINC
 40
1.0
  9
$FILLETRAD
 40
0.0
  9
$AUNITS
 70
     1
  9
$AUPREC
 70
     2
  9
$MENU
  1
ACAD
  9
$ELEVATION
 40
0.0
  9
$PELEVATION
 40
0.0
  9
$THICKNESS
 40
0.0
  9
$LIMCHECK
 70
     1
  9
$BLIPMODE
 70
     1
  9
$CHAMFERA
 40
0.0
  9
$CHAMFERB
 40
0.0
  9
$CHAMFERC
 40
0.0
  9
$CHAMFERD
 40
0.0
  9
$SKPOLY
 70
     0
  9
$TDCREATE
 40
0.0000000000
  9
$TDUPDATE
 40
0.0000000000
  9
$TDINDWG
 40
0.0000000000
  9
$TDUSRTIMER
 40
0.0000000000
  9
$USRTIMER
 70
     1
  9
$ANGBASE
 50
0.0
  9
$ANGDIR
 70
     0
  9
$PDMODE
 70
     0
  9
$PDSIZE
 40
0.4
  9
$PLINEWID
 40
0.0
  9
$COORDS
 70
     2
  9
$SPLFRAME
 70
     0
  9
$SPLINETYPE
 70
     6
  9
$SPLINESEGS
 70
     8
  9
$ATTDIA
 70
     0
  9
$ATTREQ
 70
     1
  9
$HANDLING
 70
     1
  9
$HANDSEED
  5
25B
  9
$SURFTAB1
 70
     6
  9
$SURFTAB2
 70
     6
  9
$SURFTYPE
 70
     6
  9
$SURFU
 70
     6
  9
$SURFV
 70
     6
  9
$UCSNAME
  2

  9
$UCSORG
 10
0.0
 20
0.0
 30
0.0
  9
$UCSXDIR
 10
1.0
 20
0.0
 30
0.0
  9
$UCSYDIR
 10
0.0
 20
1.0
 30
0.0
  9
$PUCSNAME
  2

  9
$PUCSORG
 10
0.0
 20
0.0
 30
0.0
  9
$PUCSXDIR
 10
1.0
 20
0.0
 30
0.0
  9
$PUCSYDIR
 10
0.0
 20
1.0
 30
0.0
  9
$USERI1
 70
     0
  9
$USERI2
 70
     0
  9
$USERI3
 70
     0
  9
$USERI4
 70
     0
  9
$USERI5
 70
     0
  9
$USERR1
 40
0.0
  9
$USERR2
 40
0.0
  9
$USERR3
 40
0.0
  9
$USERR4
 40
0.0
  9
$USERR5
 40
0.0
  9
$WORLDVIEW
 70
     1
  9
$SHADEDGE
 70
     3
  9
$SHADEDIF
 70
    70
  9
$TILEMODE
 70
     1
  9
$MAXACTVP
 70
    48
  9
$PINSBASE
 10
0.0
 20
0.0
 30
0.0
  9
$PLIMCHECK
 70
     0
  9
$PEXTMIN
 10
1.000000E+20
 20
1.000000E+20
 30
1.000000E+20
  9
$PEXTMAX
 10
-1.000000E+20
 20
-1.000000E+20
 30
-1.000000E+20
  9
$PLIMMIN
 10
0.0
 20
0.0
  9
$PLIMMAX
 10
12.0
 20
9.0
  9
$UNITMODE
 70
     0
  9
$VISRETAIN
 70
     1
  9
$PLINEGEN
 70
     0
  9
$PSLTSCALE
 70
     1
  9
$TREEDEPTH
 70
  3020
  9
$PICKSTYLE
 70
     1
  9
$CMLSTYLE
  2
STANDARD
  9
$CMLJUST
 70
     0
  9
$CMLSCALE
 40
1.0
  9
$PROXYGRAPHICS
 70
     1
  9
$MEASUREMENT
 70
     0
  0
ENDSEC
  0
SECTION
  2
CLASSES
  0
ENDSEC
  0
SECTION
  2
TABLES
  0
TABLE
  2
VPORT
  5
8
100
AcDbSymbolTable
 70
     3
  0
VPORT
  5
25A
100
AcDbSymbolTableRecord
100
AcDbViewportTableRecord
  2
*ACTIVE
 70
     0
 10
0.0
 20
0.0
 11
1.0
 21
1.0
 12
186.15415
 22
99.0
 13
0.0
 23
0.0
 14
1.0
 24
1.0
 15
0.0
 25
0.0
 16
0.0
 26
0.0
 36
1.0
 17
0.0
 27
0.0
 37
0.0
 40
210.0
 41
1.83004
 42
50.0
 43
0.0
 44
0.0
 50
0.0
 51
0.0
 71
     0
 72
   100
 73
     1
 74
     1
 75
     0
 76
     0
 77
     0
 78
     0
  0
ENDTAB
  0
TABLE
  2
LTYPE
  5
5
100
AcDbSymbolTable
 70
     6
  0
LTYPE
  5
12
100
AcDbSymbolTableRecord
100
AcDbLinetypeTableRecord
  2
BYBLOCK
 70
     0
  3

 72
    65
 73
     0
 40
0.0
  0
LTYPE
  5
13
100
AcDbSymbolTableRecord
100
AcDbLinetypeTableRecord
  2
BYLAYER
 70
     0
  3

 72
    65
 73
     0
 40
0.0
  0
LTYPE
  5
14
100
AcDbSymbolTableRecord
100
AcDbLinetypeTableRecord
  2
CONTINUOUS
 70
     0
  3
SolidLine
 72
    65
 73
     0
 40
0.0
  0
LTYPE
  5
20
100
AcDbSymbolTableRecord
100
AcDbLinetypeTableRecord
  2
HIDDEN
 70
     0
  3
- - - - - - - - - -
 72
    65
 73
     2
 40
3.0
 49
2.0
 74
     0
 49
-1.0
 74
     0
  0
LTYPE
  5
21
100
AcDbSymbolTableRecord
100
AcDbLinetypeTableRecord
  2
DOT
 70
     0
  3
･･･････････････････
 72
    65
 73
     2
 40
2.0
 49
0.5
 74
     0
 49
-1.5
 74
     0
  0
LTYPE
  5
22
100
AcDbSymbolTableRecord
100
AcDbLinetypeTableRecord
  2
DASHDOT
 70
     0
  3
-･-･-･-･-･-･-･-･-･-
 72
    65
 73
     4
 40
20.0
 49
15.0
 74
     0
 49
-2.0
 74
     0
 49
1.0
 74
     0
 49
-2.0
 74
     0
  0
LTYPE
  5
23
100
AcDbSymbolTableRecord
100
AcDbLinetypeTableRecord
  2
DIVIDE
 70
     0
  3
-･･-･･-･･-･･-･･-･･-
 72
    65
 73
     6
 40
20.0
 49
15.0
 74
     0
 49
-1.0
 74
     0
 49
1.0
 74
     0
 49
-1.0
 74
     0
 49
1.0
 74
     0
 49
-1.0
 74
     0
  0
LTYPE
  5
235
100
AcDbSymbolTableRecord
100
AcDbLinetypeTableRecord
  2
CENTER
 70
     0
  3
Center ____ _ ____ _ ____ _ ____ _ ____ _ ____
 72
    65
 73
     4
 40
2.0
 49
1.25
 74
     0
 49
-0.25
 74
     0
 49
0.25
 74
     0
 49
-0.25
 74
     0
  0
ENDTAB
  0
TABLE
  2
LAYER
  5
2
100
AcDbSymbolTable
 70
    31
  0
LAYER
  5
E
100
AcDbSymbolTableRecord
100
AcDbLayerTableRecord
  2
0
 70
     0
 62
     7
  6
CONTINUOUS
  0
LAYER
  5
1F
100
AcDbSymbolTableRecord
100
AcDbLayerTableRecord
  2
1
 70
     0
 62
     7
  6
CONTINUOUS
  0
LAYER
  5
24
100
AcDbSymbolTableRecord
100
AcDbLayerTableRecord
  2
CONTINUOUS
 70
     0
 62
     7
  6
CONTINUOUS
  0
LAYER
  5
25
100
AcDbSymbolTableRecord
100
AcDbLayerTableRecord
  2
HIDDEN
 70
     0
 62
     2
  6
HIDDEN
  0
LAYER
  5
26
100
AcDbSymbolTableRecord
100
AcDbLayerTableRecord
  2
DOT
 70
     0
 62
     7
  6
DOT
  0
LAYER
  5
27
100
AcDbSymbolTableRecord
100
AcDbLayerTableRecord
  2
DASHDOT
 70
     0
 62
     6
  6
DASHDOT
  0
LAYER
  5
28
100
AcDbSymbolTableRecord
100
AcDbLayerTableRecord
  2
DIVIDE
 70
     0
 62
     5
  6
DIVIDE
  0
LAYER
  5
29
100
AcDbSymbolTableRecord
100
AcDbLayerTableRecord
  2
DIMENSION
 70
     0
 62
     7
  6
CONTINUOUS
  0
LAYER
  5
2A
100
AcDbSymbolTableRecord
100
AcDbLayerTableRecord
  2
2
 70
     0
 62
     7
  6
CONTINUOUS
  0
LAYER
  5
2B
100
AcDbSymbolTableRecord
100
AcDbLayerTableRecord
  2
3
 70
     0
 62
     7
  6
CONTINUOUS
  0
LAYER
  5
2C
100
AcDbSymbolTableRecord
100
AcDbLayerTableRecord
  2
4
 70
     0
 62
     7
  6
CONTINUOUS
  0
LAYER
  5
2D
100
AcDbSymbolTableRecord
100
AcDbLayerTableRecord
  2
5
 70
     0
 62
     7
  6
CONTINUOUS
  0
LAYER
  5
2E
100
AcDbSymbolTableRecord
100
AcDbLayerTableRecord
  2
6
 70
     0
 62
     7
  6
CONTINUOUS
  0
LAYER
  5
2F
100
AcDbSymbolTableRecord
100
AcDbLayerTableRecord
  2
7
 70
     0
 62
     7
  6
CONTINUOUS
  0
LAYER
  5
30
100
AcDbSymbolTableRecord
100
AcDbLayerTableRecord
  2
8
 70
     0
 62
     7
  6
CONTINUOUS
  0
LAYER
  5
31
100
AcDbSymbolTableRecord
100
AcDbLayerTableRecord
  2
9
 70
     0
 62
     7
  6
CONTINUOUS
  0
LAYER
  5
32
100
AcDbSymbolTableRecord
100
AcDbLayerTableRecord
  2
10
 70
     0
 62
     7
  6
CONTINUOUS
  0
LAYER
  5
33
100
AcDbSymbolTableRecord
100
AcDbLayerTableRecord
  2
11
 70
     0
 62
     7
  6
CONTINUOUS
  0
LAYER
  5
34
100
AcDbSymbolTableRecord
100
AcDbLayerTableRecord
  2
12
 70
     0
 62
     7
  6
CONTINUOUS
  0
LAYER
  5
35
100
AcDbSymbolTableRecord
100
AcDbLayerTableRecord
  2
13
 70
     0
 62
     7
  6
CONTINUOUS
  0
LAYER
  5
36
100
AcDbSymbolTableRecord
100
AcDbLayerTableRecord
  2
14
 70
     0
 62
     7
  6
CONTINUOUS
  0
LAYER
  5
37
100
AcDbSymbolTableRecord
100
AcDbLayerTableRecord
  2
15
 70
     0
 62
     7
  6
CONTINUOUS
  0
LAYER
  5
38
100
AcDbSymbolTableRecord
100
AcDbLayerTableRecord
  2
16
 70
     0
 62
     7
  6
CONTINUOUS
  0
LAYER
  5
39
100
AcDbSymbolTableRecord
100
AcDbLayerTableRecord
  2
17
 70
     0
 62
     7
  6
CONTINUOUS
  0
LAYER
  5
3A
100
AcDbSymbolTableRecord
100
AcDbLayerTableRecord
  2
18
 70
     0
 62
     7
  6
CONTINUOUS
  0
LAYER
  5
3B
100
AcDbSymbolTableRecord
100
AcDbLayerTableRecord
  2
19
 70
     0
 62
     7
  6
CONTINUOUS
  0
LAYER
  5
3C
100
AcDbSymbolTableRecord
100
AcDbLayerTableRecord
  2
HATCH
 70
     0
 62
     7
  6
CONTINUOUS
  0
LAYER
  5
3D
100
AcDbSymbolTableRecord
100
AcDbLayerTableRecord
  2
GUIDE1
 70
     0
 62
     4
  6
DASHDOT
  0
LAYER
  5
3E
100
AcDbSymbolTableRecord
100
AcDbLayerTableRecord
  2
GUIDE2
 70
     0
 62
     4
  6
DASHDOT
  0
LAYER
  5
3F
100
AcDbSymbolTableRecord
100
AcDbLayerTableRecord
  2
GUIDE3
 70
     0
 62
     4
  6
DASHDOT
  0
LAYER
  5
40
100
AcDbSymbolTableRecord
100
AcDbLayerTableRecord
  2
GUIDE4
 70
     0
 62
     4
  6
DASHDOT
  0
ENDTAB
  0
TABLE
  2
STYLE
  5
3
100
AcDbSymbolTable
 70
     4
  0
STYLE
  5
F
100
AcDbSymbolTableRecord
100
AcDbTextStyleTableRecord
  2
STANDARD
 70
     0
 40
0.0
 41
1.0
 50
0.0
 71
     0
 42
3.0
  3
TXT
  4

  0
STYLE
  5
41
100
AcDbSymbolTableRecord
100
AcDbTextStyleTableRecord
  2
KANJI
 70
     0
 40
0.0
 41
1.0
 50
0.0
 71
     0
 42
3.0
  3
TXT
  4
BIGFONT
  0
STYLE
  5
1CF
100
AcDbSymbolTableRecord
100
AcDbTextStyleTableRecord
  2
STANDARD1
 70
     0
 40
0.0
 41
1.0
 50
0.0
 71
     0
 42
4.0
  3
monotxt.shx
  4
bigfont.shx
  0
STYLE
  5
234
100
AcDbSymbolTableRecord
100
AcDbTextStyleTableRecord
  2

 70
     1
 40
0.0
 41
1.0
 50
0.0
 71
     0
 42
1.411111
  3
ltypeshp.shx
  4

  0
ENDTAB
  0
TABLE
  2
VIEW
  5
6
100
AcDbSymbolTable
 70
     0
  0
ENDTAB
  0
TABLE
  2
UCS
  5
7
100
AcDbSymbolTable
 70
     0
  0
ENDTAB
  0
TABLE
  2
APPID
  5
9
100
AcDbSymbolTable
 70
     5
  0
APPID
  5
10
100
AcDbSymbolTableRecord
100
AcDbRegAppTableRecord
  2
ACAD
 70
     0
  0
APPID
  5
1D0
100
AcDbSymbolTableRecord
100
AcDbRegAppTableRecord
  2
CONTENTTABDATA
 70
     0
  0
APPID
  5
1D1
100
AcDbSymbolTableRecord
100
AcDbRegAppTableRecord
  2
CONTENTCURRENTTAB
 70
     0
  0
APPID
  5
1D2
100
AcDbSymbolTableRecord
100
AcDbRegAppTableRecord
  2
CONTENTBLOCKDESCRIPTION
 70
     0
  0
APPID
  5
1D3
100
AcDbSymbolTableRecord
100
AcDbRegAppTableRecord
  2
CONTENTBLOCKICON
 70
     0
  0
ENDTAB
  0
TABLE
  2
DIMSTYLE
  5
A
100
AcDbSymbolTable
 70
     1
  0
DIMSTYLE
105
1A7
100
AcDbSymbolTableRecord
100
AcDbDimStyleTableRecord
  2
STANDARD
 70
     0
  3

  4

  5

  6

  7

 40
1.0
 41
0.18
 42
0.0625
 43
0.38
 44
0.18
 45
0.0
 46
0.0
 47
0.0
 48
0.0
140
0.18
141
0.09
142
0.0
143
25.4
144
1.0
145
0.0
146
1.0
147
0.09
 71
     0
 72
     0
 73
     1
 74
     1
 75
     0
 76
     0
 77
     0
 78
     0
170
     0
171
     2
172
     0
173
     0
174
     0
175
     0
176
     0
177
     0
178
     0
270
     2
271
     4
272
     4
273
     2
274
     2
340
F
275
     0
280
     0
281
     0
282
     0
283
     1
284
     0
285
     0
286
     0
287
     3
288
     0
  0
ENDTAB
  0
TABLE
  2
BLOCK_RECORD
  5
1
100
AcDbSymbolTable
 70
     4
  0
BLOCK_RECORD
  5
18
100
AcDbSymbolTableRecord
100
AcDbBlockTableRecord
  2
*MODEL_SPACE
  0
BLOCK_RECORD
  5
15
100
AcDbSymbolTableRecord
100
AcDbBlockTableRecord
  2
*PAPER_SPACE
  0
BLOCK_RECORD
  5
1BA
100
AcDbSymbolTableRecord
100
AcDbBlockTableRecord
  2
外形枠
1001
CONTENTBLOCKICON
1071
        0
1004
2800000020000000200000000100040000000000000200000000000000000000000000000000000000000000000080000080000000808000800000008000800080800000C0C0C000808080000000FF0000FF000000FFFF00FF000000FF00FF00FFFF0000FFFFFF00FFFFFFFFFFFFFFFFFFFFFFFFFFFFFFFF
1004
FFFFFFFFFFFFFFFFFFFFFFFFFFFFFFFFFFFFFFFFFFFFFFFFFFFFFFFFFFFFFFFFFFFFFFFFFFFFFFFFFFFFFFFFFFFFFFFFFFFFFFFFFFFFFFFFFFFFFFFFFFFFFFFFFFFFFFFFFFFFFFFFFFFFFFFFFFFFFFFFFFFFFFFFFFFFFFFFFFFFFFFFFFFFFFFFFFFFFFFFFFFFFFFFFFFFFFFFFFFFFFFFFFFFFFFFFFFFFFFF
1004
FFFFFFFFFFFFFFFFFFFFFFFFFFFFFFFFFFFFFFFFFFFFFFFFFFFFFFFFFFFFFFFFFFFFFFFFFFFFFFFFFFFFFFFFFFFFFFFFFFFFFFFFFFFFFFFFFFFFFFFFFFFFFFFFFFFFFFFFFFFFFFFFFFFFFFFFFFFFFFFFFFFFFFFFFFFFFFFFFFFFFFFFFFFFFFFFFFFFFFFFFFFFFFFFFFFFFFFFFFFFFFFFFFFFFFFFFFFFFFFF
1004
FFFFFFFFFFFFFFFFFFFFFFFFFFFFFFFFFFFFFFFFFFFFFFFFFFFFFFFFFFFFFFFFFFFFFFFFFFFFFFFFFFFFFFFFFFFFFFFFFFFFFFFFFFFFFFFFFFFFFFFFFFFFFFFFFFFFFFFFFFFFFFFFFFFFFFFFFFFFFFFFFFFFFFFFFFFFFFFFFFFFFFFFFFFFFFFFFFFFFFFFFFFFFFFFFFFFFFFFFFFFFFFFFFFFFFFFFFFFFFFF
1004
FFFFFFFFFFFFFFFFFFFFFFFFFFFFFFFFFFFFFFFFFFFFFFFFFFFFFFFFFFFFFFFFFFFFFFFFFFFFFFFFFFFFFFFFFFFFFFFFFFFFFFFFFFFFFFFFFFFFFFFFFFFFFFFFFFFFFFFFFFFFFFFFFFFFFFFFFFFFFFFFFFFFFFFFFFFFFFFFFFFFFFFFFFFFFFFFFFFFFFFFFFFFFFFFFFFFFFFFFFFFFFFFFFFFFFFFFFFFFFFF
1004
FFFFFFFFFFFFFFFFFFFFFFFFFFFFFFFF
  0
BLOCK_RECORD
  5
1D9
100
AcDbSymbolTableRecord
100
AcDbBlockTableRecord
  2
外形枠２
1001
CONTENTBLOCKICON
1071
        0
1004
2800000020000000200000000100040000000000000200000000000000000000000000000000000000000000000080000080000000808000800000008000800080800000C0C0C000808080000000FF0000FF000000FFFF00FF000000FF00FF00FFFF0000FFFFFF00FFFFFFFFFFFFFFFFFFFFFFFFFFFFFFFF
1004
FFFFFFFFFFFFFFFFFFFFFFFFFFFFFFFFFFFFFFFFFFFFFFFFFFFFFFFFFFFFFFFFFFFFFFFFFFFFFFFFFFFFFFFFFFFFFFFFFFFFFFFFFFFFFFFFFFFFFFFFFFFFFFFFFFFFFFFFFFFFFFFFFFFFFFFFFFFFFFFFFFFFFFFFFFFFFFFFFFFFFFFFFFFFFFFFFFFFFFFFFFFFFFFFFFFFFFFFFFFFFFFFFFFFFFFFFFFFFFFF
1004
FFFFFFFFFFFFFFFFFFFFFFFFFFFFFFFFFFFFFFFFFFFFFFFFFFFFFFFFFFFFFFFFFFFFFFFFFFFFFFFFFFFFFFFFFFFFFFFFFFFFFFFFFFFFFFFFFFFFFFFFFFFFFFFFFFFFFFFFFFFFFFFFFFFFFFFFFFFFFFFFFFFFFFFFFFFFFFFFFFFFFFFFFFFFFFFFFFFFFFFFFFFFFFFFFFFFFFFFFFFFFFFFFFFFFFFFFFFFFFFF
1004
FFFFFFFFFFFFFFFFFFFFFFFFFFFFFFFFFFFFFFFFFFFFFFFFFFFFFFFFFFFFFFFFFFFFFFFFFFFFFFFFFFFFFFFFFFFFFFFFFFFFFFFFFFFFFFFFFFFFFFFFFFFFFFFFFFFFFFFFFFFFFFFFFFFFFFFFFFFFFFFFFFFFFFFFFFFFFFFFFFFFFFFFFFFFFFFFFFFFFFFFFFFFFFFFFFFFFFFFFFFFFFFFFFFFFFFFFFFFFFFF
1004
FFFFFFFFFFFFFFFFFFFFFFFFFFFFFFFFFFFFFFFFFFFFFFFFFFFFFFFFFFFFFFFFFFFFFFFFFFFFFFFFFFFFFFFFFFFFFFFFFFFFFFFFFFFFFFFFFFFFFFFFFFFFFFFFFFFFFFFFFFFFFFFFFFFFFFFFFFFFFFFFFFFFFFFFFFFFFFFFFFFFFFFFFFFFFFFFFFFFFFFFFFFFFFFFFFFFFFFFFFFFFFFFFFFFFFFFFFFFFFFF
1004
FFFFFFFFFFFFFFFFFFFFFFFFFFFFFFFF
  0
BLOCK_RECORD
  5
217
100
AcDbSymbolTableRecord
100
AcDbBlockTableRecord
  2
_OPEN30
  0
BLOCK_RECORD
  5
225
100
AcDbSymbolTableRecord
100
AcDbBlockTableRecord
  2
A$C3110388C
  0
ENDTAB
  0
ENDSEC
  0
SECTION
  2
BLOCKS
  0
BLOCK
  5
19
100
AcDbEntity
  8
0
100
AcDbBlockBegin
  2
*MODEL_SPACE
 70
     0
 10
0.0
 20
0.0
 30
0.0
  3
*MODEL_SPACE
  1

  0
ENDBLK
  5
1A
100
AcDbEntity
  8
0
100
AcDbBlockEnd
  0
BLOCK
  5
16
100
AcDbEntity
 67
     1
  8
0
100
AcDbBlockBegin
  2
*PAPER_SPACE
 70
     0
 10
0.0
 20
0.0
 30
0.0
  3
*PAPER_SPACE
  1

  0
ENDBLK
  5
17
100
AcDbEntity
 67
     1
  8
0
100
AcDbBlockEnd
  0
BLOCK
  5
1CD
100
AcDbEntity
  8
0
100
AcDbBlockBegin
  2
外形枠
 70
     0
 10
0.0
 20
0.0
 30
0.0
  3
外形枠
  1

  0
LINE
  5
1BB
102
{ACAD_REACTORS
330
1D5
102
}
100
AcDbEntity
  8
0
100
AcDbLine
 10
0.0
 20
0.0
 30
0.0
 11
0.0
 21
210.0
 31
0.0
  0
LINE
  5
1BC
102
{ACAD_REACTORS
330
1D5
102
}
100
AcDbEntity
  8
0
100
AcDbLine
 10
0.0
 20
210.0
 30
0.0
 11
297.0
 21
210.0
 31
0.0
  0
LINE
  5
1BD
102
{ACAD_REACTORS
330
1D5
102
}
100
AcDbEntity
  8
0
100
AcDbLine
 10
297.0
 20
210.0
 30
0.0
 11
297.0
 21
0.0
 31
0.0
  0
LINE
  5
1BE
102
{ACAD_REACTORS
330
1D5
102
}
100
AcDbEntity
  8
0
100
AcDbLine
 10
297.0
 20
0.0
 30
0.0
 11
0.0
 21
0.0
 31
0.0
  0
LINE
  5
1BF
102
{ACAD_REACTORS
330
1D4
102
}
100
AcDbEntity
  8
0
100
AcDbLine
 10
6.0
 20
6.0
 30
0.0
 11
6.0
 21
204.0
 31
0.0
  0
LINE
  5
1C0
102
{ACAD_REACTORS
330
1D4
102
}
100
AcDbEntity
  8
0
100
AcDbLine
 10
6.0
 20
204.0
 30
0.0
 11
292.0
 21
204.0
 31
0.0
  0
LINE
  5
1C1
102
{ACAD_REACTORS
330
1D4
102
}
100
AcDbEntity
  8
0
100
AcDbLine
 10
292.0
 20
204.0
 30
0.0
 11
292.0
 21
6.0
 31
0.0
  0
LINE
  5
1C2
102
{ACAD_REACTORS
330
1D4
102
}
100
AcDbEntity
  8
0
100
AcDbLine
 10
292.0
 20
6.0
 30
0.0
 11
6.0
 21
6.0
 31
0.0
  0
LINE
  5
1C3
100
AcDbEntity
  8
0
100
AcDbLine
 10
287.0
 20
10.0
 30
0.0
 11
207.0
 21
10.0
 31
0.0
  0
LINE
  5
1C4
100
AcDbEntity
  8
0
100
AcDbLine
 10
287.0
 20
26.0
 30
0.0
 11
287.0
 21
10.0
 31
0.0
  0
LINE
  5
1C5
100
AcDbEntity
  8
0
100
AcDbLine
 10
287.0
 20
18.0
 30
0.0
 11
207.0
 21
18.0
 31
0.0
  0
LINE
  5
1C6
100
AcDbEntity
  8
0
100
AcDbLine
 10
287.0
 20
26.0
 30
0.0
 11
207.0
 21
26.0
 31
0.0
  0
LINE
  5
1C7
100
AcDbEntity
  8
0
100
AcDbLine
 10
227.0
 20
26.0
 30
0.0
 11
227.0
 21
10.0
 31
0.0
  0
LINE
  5
1C8
100
AcDbEntity
  8
0
100
AcDbLine
 10
207.0
 20
26.0
 30
0.0
 11
207.0
 21
10.0
 31
0.0
  0
TEXT
  5
1C9
100
AcDbEntity
  8
0
100
AcDbText
 10
212.93529
 20
19.671686
 30
0.0
 40
4.0
  1
品名
  7
STANDARD1
100
AcDbText
  0
TEXT
  5
1CA
100
AcDbEntity
  8
0
100
AcDbText
 10
212.93529
 20
11.671686
 30
0.0
 40
4.0
  1
型名
  7
STANDARD1
100
AcDbText
  0
TEXT
  5
1CB
100
AcDbEntity
  8
0
100
AcDbText
 10
228.93529
 20
19.671686
 30
0.0
 40
4.0
  1
カラーカメラ
  7
STANDARD1
100
AcDbText
  0
TEXT
  5
1CC
100
AcDbEntity
  8
0
100
AcDbText
 10
228.93529
 20
11.671686
 30
0.0
 40
4.0
  1
CIT-771
  7
STANDARD1
100
AcDbText
  0
ENDBLK
  5
1CE
100
AcDbEntity
  8
0
100
AcDbBlockEnd
  0
BLOCK
  5
1EE
100
AcDbEntity
  8
0
100
AcDbBlockBegin
  2
外形枠２
 70
     0
 10
0.0
 20
0.0
 30
0.0
  3
外形枠２
  1

  0
TEXT
  5
1DA
100
AcDbEntity
  8
1
  6
CONTINUOUS
 62
     7
100
AcDbText
 10
6.531
 20
42.913
 30
0.0
 40
2.304
  1
　
 41
0.573
  7
KANJI
100
AcDbText
  0
LINE
  5
1DB
102
{ACAD_REACTORS
330
1D7
102
}
100
AcDbEntity
  8
0
100
AcDbLine
 10
-6.0
 20
-6.0
 30
0.0
 11
-6.0
 21
204.0
 31
0.0
  0
LINE
  5
1DC
102
{ACAD_REACTORS
330
1D7
102
}
100
AcDbEntity
  8
0
100
AcDbLine
 10
-6.0
 20
204.0
 30
0.0
 11
291.0
 21
204.0
 31
0.0
  0
LINE
  5
1DD
102
{ACAD_REACTORS
330
1D7
102
}
100
AcDbEntity
  8
0
100
AcDbLine
 10
291.0
 20
204.0
 30
0.0
 11
291.0
 21
-6.0
 31
0.0
  0
LINE
  5
1DE
102
{ACAD_REACTORS
330
1D7
102
}
100
AcDbEntity
  8
0
100
AcDbLine
 10
291.0
 20
-6.0
 30
0.0
 11
-6.0
 21
-6.0
 31
0.0
  0
LINE
  5
1DF
102
{ACAD_REACTORS
330
1D6
330
1D8
102
}
100
AcDbEntity
  8
0
100
AcDbLine
 10
0.0
 20
0.0
 30
0.0
 11
0.0
 21
198.0
 31
0.0
  0
LINE
  5
1E0
102
{ACAD_REACTORS
330
1D6
330
1D8
102
}
100
AcDbEntity
  8
0
100
AcDbLine
 10
0.0
 20
198.0
 30
0.0
 11
286.0
 21
198.0
 31
0.0
  0
LINE
  5
1E1
102
{ACAD_REACTORS
330
1D6
330
1D8
102
}
100
AcDbEntity
  8
0
100
AcDbLine
 10
286.0
 20
198.0
 30
0.0
 11
286.0
 21
0.0
 31
0.0
  0
LINE
  5
1E2
102
{ACAD_REACTORS
330
1D6
330
1D8
102
}
100
AcDbEntity
  8
0
100
AcDbLine
 10
286.0
 20
0.0
 30
0.0
 11
0.0
 21
0.0
 31
0.0
  0
LINE
  5
1E3
100
AcDbEntity
  8
0
100
AcDbLine
 10
281.0
 20
4.0
 30
0.0
 11
201.0
 21
4.0
 31
0.0
  0
LINE
  5
1E4
100
AcDbEntity
  8
0
100
AcDbLine
 10
281.0
 20
20.0
 30
0.0
 11
281.0
 21
4.0
 31
0.0
  0
LINE
  5
1E5
100
AcDbEntity
  8
0
100
AcDbLine
 10
281.0
 20
12.0
 30
0.0
 11
201.0
 21
12.0
 31
0.0
  0
LINE
  5
1E6
100
AcDbEntity
  8
0
100
AcDbLine
 10
281.0
 20
20.0
 30
0.0
 11
201.0
 21
20.0
 31
0.0
  0
LINE
  5
1E7
100
AcDbEntity
  8
0
100
AcDbLine
 10
221.0
 20
20.0
 30
0.0
 11
221.0
 21
4.0
 31
0.0
  0
LINE
  5
1E8
100
AcDbEntity
  8
0
100
AcDbLine
 10
201.0
 20
20.0
 30
0.0
 11
201.0
 21
4.0
 31
0.0
  0
TEXT
  5
1E9
100
AcDbEntity
  8
0
100
AcDbText
 10
206.93529
 20
13.671686
 30
0.0
 40
4.0
  1
品名
  7
STANDARD1
100
AcDbText
  0
TEXT
  5
1EA
100
AcDbEntity
  8
0
100
AcDbText
 10
206.93529
 20
5.671686
 30
0.0
 40
4.0
  1
型名
  7
STANDARD1
100
AcDbText
  0
TEXT
  5
1EB
100
AcDbEntity
  8
0
100
AcDbText
 10
222.93529
 20
13.671686
 30
0.0
 40
4.0
  1
カラーカメラ
  7
STANDARD1
100
AcDbText
  0
TEXT
  5
1EC
100
AcDbEntity
  8
0
100
AcDbText
 10
222.93529
 20
5.671686
 30
0.0
 40
4.0
  1
CIT-7110
  7
STANDARD1
100
AcDbText
  0
LINE
  5
1ED
102
{ACAD_REACTORS
330
1D8
102
}
100
AcDbEntity
  8
0
100
AcDbLine
 10
0.0
 20
190.0
 30
0.0
 11
286.0
 21
190.0
 31
0.0
  0
ENDBLK
  5
1EF
100
AcDbEntity
  8
0
100
AcDbBlockEnd
  0
BLOCK
  5
218
100
AcDbEntity
  8
0
100
AcDbBlockBegin
  2
_OPEN30
 70
     0
 10
0.0
 20
0.0
 30
0.0
  3
_OPEN30
  1

  0
LINE
  5
219
100
AcDbEntity
  8
0
  6
BYBLOCK
 62
     0
100
AcDbLine
 10
-1.0
 20
0.267949
 30
0.0
 11
0.0
 21
0.0
 31
0.0
  0
LINE
  5
21A
100
AcDbEntity
  8
0
  6
BYBLOCK
 62
     0
100
AcDbLine
 10
0.0
 20
0.0
 30
0.0
 11
-1.0
 21
-0.267949
 31
0.0
  0
LINE
  5
21B
100
AcDbEntity
  8
0
  6
BYBLOCK
 62
     0
100
AcDbLine
 10
0.0
 20
0.0
 30
0.0
 11
-1.0
 21
0.0
 31
0.0
  0
ENDBLK
  5
21C
100
AcDbEntity
  8
0
100
AcDbBlockEnd
  0
BLOCK
  5
227
100
AcDbEntity
  8
0
100
AcDbBlockBegin
  2
A$C3110388C
 70
     0
 10
0.0
 20
0.0
 30
0.0
  3
A$C3110388C
  1

  0
TEXT
  5
226
100
AcDbEntity
  8
1
100
AcDbText
 10
2.8
 20
0.0
 30
0.0
 40
2.8
  1
30
 50
90.0
 41
0.43
  7
KANJI
100
AcDbText
  0
ENDBLK
  5
228
100
AcDbEntity
  8
0
100
AcDbBlockEnd
  0
ENDSEC
  0
SECTION
  2
ENTITIES
  0
LINE
  5
43
100
AcDbEntity
  8
1
  6
CONTINUOUS
100
AcDbLine
 10
60.356013
 20
100.953202
 30
0.0
 11
60.681013
 21
101.028202
 31
0.0
  0
LINE
  5
44
100
AcDbEntity
  8
1
  6
CONTINUOUS
100
AcDbLine
 10
60.356013
 20
100.803202
 30
0.0
 11
60.681013
 21
100.878202
 31
0.0
  0
LINE
  5
45
100
AcDbEntity
  8
1
  6
CONTINUOUS
100
AcDbLine
 10
60.356013
 20
102.028202
 30
0.0
 11
60.681013
 21
102.028202
 31
0.0
  0
LINE
  5
46
100
AcDbEntity
  8
1
  6
CONTINUOUS
100
AcDbLine
 10
60.356013
 20
99.728202
 30
0.0
 11
60.681013
 21
99.728202
 31
0.0
  0
LINE
  5
47
100
AcDbEntity
  8
1
  6
CONTINUOUS
100
AcDbLine
 10
60.931013
 20
102.128202
 30
0.0
 11
60.931013
 21
99.628202
 31
0.0
  0
LINE
  5
48
100
AcDbEntity
  8
1
  6
CONTINUOUS
100
AcDbLine
 10
60.681013
 20
102.128202
 30
0.0
 11
60.931013
 21
102.128202
 31
0.0
  0
LINE
  5
49
100
AcDbEntity
  8
1
  6
CONTINUOUS
100
AcDbLine
 10
60.681013
 20
99.628202
 30
0.0
 11
60.681013
 21
102.128202
 31
0.0
  0
LINE
  5
4A
100
AcDbEntity
  8
1
  6
CONTINUOUS
100
AcDbLine
 10
60.931013
 20
99.628202
 30
0.0
 11
60.681013
 21
99.628202
 31
0.0
  0
ARC
  5
4B
100
AcDbEntity
  8
1
  6
CONTINUOUS
100
AcDbCircle
 10
60.866013
 20
100.878202
 30
0.0
 40
1.385
100
AcDbArc
 50
155.47
 51
204.529
  0
ARC
  5
4C
100
AcDbEntity
  8
1
  6
CONTINUOUS
100
AcDbCircle
 10
59.874013
 20
101.740202
 30
0.0
 40
0.393
100
AcDbArc
 50
180.0
 51
227.1
  0
ARC
  5
4D
100
AcDbEntity
  8
1
  6
CONTINUOUS
100
AcDbCircle
 10
59.874013
 20
100.015202
 30
0.0
 40
0.393
100
AcDbArc
 50
132.9
 51
180.0
  0
LINE
  5
4E
100
AcDbEntity
  8
1
  6
CONTINUOUS
100
AcDbLine
 10
59.606013
 20
101.453202
 30
0.0
 11
60.356013
 21
101.453202
 31
0.0
  0
LINE
  5
4F
100
AcDbEntity
  8
1
  6
CONTINUOUS
100
AcDbLine
 10
59.606013
 20
100.303202
 30
0.0
 11
60.356013
 21
100.303202
 31
0.0
  0
LINE
  5
50
100
AcDbEntity
  8
1
  6
CONTINUOUS
100
AcDbLine
 10
60.356013
 20
102.028202
 30
0.0
 11
60.356013
 21
99.728202
 31
0.0
  0
LINE
  5
51
100
AcDbEntity
  8
1
  6
CONTINUOUS
100
AcDbLine
 10
59.606013
 20
102.028202
 30
0.0
 11
60.356013
 21
102.028202
 31
0.0
  0
LINE
  5
52
100
AcDbEntity
  8
1
  6
CONTINUOUS
100
AcDbLine
 10
59.481013
 20
101.853202
 30
0.0
 11
59.606013
 21
102.028202
 31
0.0
  0
LINE
  5
53
100
AcDbEntity
  8
1
  6
CONTINUOUS
100
AcDbLine
 10
59.481013
 20
99.903202
 30
0.0
 11
59.481013
 21
101.853202
 31
0.0
  0
LINE
  5
54
100
AcDbEntity
  8
1
  6
CONTINUOUS
100
AcDbLine
 10
59.606013
 20
99.728202
 30
0.0
 11
59.481013
 21
99.903202
 31
0.0
  0
LINE
  5
55
100
AcDbEntity
  8
1
  6
CONTINUOUS
100
AcDbLine
 10
60.356013
 20
99.728202
 30
0.0
 11
59.606013
 21
99.728202
 31
0.0
  0
POINT
  5
56
100
AcDbEntity
  8
1
100
AcDbPoint
 10
60.931013
 20
100.878202
 30
0.0
  0
LINE
  5
57
100
AcDbEntity
  8
1
  6
CONTINUOUS
100
AcDbLine
 10
64.706013
 20
97.028202
 30
0.0
 11
64.781013
 21
96.703202
 31
0.0
  0
LINE
  5
58
100
AcDbEntity
  8
1
  6
CONTINUOUS
100
AcDbLine
 10
64.556013
 20
97.028202
 30
0.0
 11
64.631013
 21
96.703202
 31
0.0
  0
LINE
  5
59
100
AcDbEntity
  8
1
  6
CONTINUOUS
100
AcDbLine
 10
65.781013
 20
97.028202
 30
0.0
 11
65.781013
 21
96.703202
 31
0.0
  0
LINE
  5
5A
100
AcDbEntity
  8
1
  6
CONTINUOUS
100
AcDbLine
 10
63.481013
 20
97.028202
 30
0.0
 11
63.481013
 21
96.703202
 31
0.0
  0
LINE
  5
5B
100
AcDbEntity
  8
1
  6
CONTINUOUS
100
AcDbLine
 10
65.881013
 20
96.453202
 30
0.0
 11
63.381013
 21
96.453202
 31
0.0
  0
LINE
  5
5C
100
AcDbEntity
  8
1
  6
CONTINUOUS
100
AcDbLine
 10
65.881013
 20
96.703202
 30
0.0
 11
65.881013
 21
96.453202
 31
0.0
  0
LINE
  5
5D
100
AcDbEntity
  8
1
  6
CONTINUOUS
100
AcDbLine
 10
63.381013
 20
96.703202
 30
0.0
 11
65.881013
 21
96.703202
 31
0.0
  0
LINE
  5
5E
100
AcDbEntity
  8
1
  6
CONTINUOUS
100
AcDbLine
 10
63.381013
 20
96.453202
 30
0.0
 11
63.381013
 21
96.703202
 31
0.0
  0
ARC
  5
5F
100
AcDbEntity
  8
1
  6
CONTINUOUS
100
AcDbCircle
 10
64.631013
 20
96.518202
 30
0.0
 40
1.385
100
AcDbArc
 50
65.47
 51
114.529
  0
ARC
  5
60
100
AcDbEntity
  8
1
  6
CONTINUOUS
100
AcDbCircle
 10
65.494013
 20
97.510202
 30
0.0
 40
0.393
100
AcDbArc
 50
90.0
 51
137.1
  0
ARC
  5
61
100
AcDbEntity
  8
1
  6
CONTINUOUS
100
AcDbCircle
 10
63.769013
 20
97.510202
 30
0.0
 40
0.393
100
AcDbArc
 50
42.9
 51
90.0
  0
LINE
  5
62
100
AcDbEntity
  8
1
  6
CONTINUOUS
100
AcDbLine
 10
65.206013
 20
97.778202
 30
0.0
 11
65.206013
 21
97.028202
 31
0.0
  0
LINE
  5
63
100
AcDbEntity
  8
1
  6
CONTINUOUS
100
AcDbLine
 10
64.056013
 20
97.778202
 30
0.0
 11
64.056013
 21
97.028202
 31
0.0
  0
LINE
  5
64
100
AcDbEntity
  8
1
  6
CONTINUOUS
100
AcDbLine
 10
65.781013
 20
97.028202
 30
0.0
 11
63.481013
 21
97.028202
 31
0.0
  0
LINE
  5
65
100
AcDbEntity
  8
1
  6
CONTINUOUS
100
AcDbLine
 10
65.781013
 20
97.778202
 30
0.0
 11
65.781013
 21
97.028202
 31
0.0
  0
LINE
  5
66
100
AcDbEntity
  8
1
  6
CONTINUOUS
100
AcDbLine
 10
65.606013
 20
97.903202
 30
0.0
 11
65.781013
 21
97.778202
 31
0.0
  0
LINE
  5
67
100
AcDbEntity
  8
1
  6
CONTINUOUS
100
AcDbLine
 10
63.656013
 20
97.903202
 30
0.0
 11
65.606013
 21
97.903202
 31
0.0
  0
LINE
  5
68
100
AcDbEntity
  8
1
  6
CONTINUOUS
100
AcDbLine
 10
63.481013
 20
97.778202
 30
0.0
 11
63.656013
 21
97.903202
 31
0.0
  0
LINE
  5
69
100
AcDbEntity
  8
1
  6
CONTINUOUS
100
AcDbLine
 10
63.481013
 20
97.028202
 30
0.0
 11
63.481013
 21
97.778202
 31
0.0
  0
POINT
  5
6A
100
AcDbEntity
  8
1
100
AcDbPoint
 10
64.631013
 20
96.453202
 30
0.0
  0
LINE
  5
6B
100
AcDbEntity
  8
1
  6
CONTINUOUS
100
AcDbLine
 10
90.033013
 20
97.028202
 30
0.0
 11
90.108013
 21
96.703202
 31
0.0
  0
LINE
  5
6C
100
AcDbEntity
  8
1
  6
CONTINUOUS
100
AcDbLine
 10
89.883013
 20
97.028202
 30
0.0
 11
89.958013
 21
96.703202
 31
0.0
  0
LINE
  5
6D
100
AcDbEntity
  8
1
  6
CONTINUOUS
100
AcDbLine
 10
91.108013
 20
97.028202
 30
0.0
 11
91.108013
 21
96.703202
 31
0.0
  0
LINE
  5
6E
100
AcDbEntity
  8
1
  6
CONTINUOUS
100
AcDbLine
 10
88.808013
 20
97.028202
 30
0.0
 11
88.808013
 21
96.703202
 31
0.0
  0
LINE
  5
6F
100
AcDbEntity
  8
1
  6
CONTINUOUS
100
AcDbLine
 10
91.208013
 20
96.453202
 30
0.0
 11
88.708013
 21
96.453202
 31
0.0
  0
LINE
  5
70
100
AcDbEntity
  8
1
  6
CONTINUOUS
100
AcDbLine
 10
91.208013
 20
96.703202
 30
0.0
 11
91.208013
 21
96.453202
 31
0.0
  0
LINE
  5
71
100
AcDbEntity
  8
1
  6
CONTINUOUS
100
AcDbLine
 10
88.708013
 20
96.703202
 30
0.0
 11
91.208013
 21
96.703202
 31
0.0
  0
LINE
  5
72
100
AcDbEntity
  8
1
  6
CONTINUOUS
100
AcDbLine
 10
88.708013
 20
96.453202
 30
0.0
 11
88.708013
 21
96.703202
 31
0.0
  0
ARC
  5
73
100
AcDbEntity
  8
1
  6
CONTINUOUS
100
AcDbCircle
 10
89.958013
 20
96.518202
 30
0.0
 40
1.385
100
AcDbArc
 50
65.47
 51
114.529
  0
ARC
  5
74
100
AcDbEntity
  8
1
  6
CONTINUOUS
100
AcDbCircle
 10
90.820013
 20
97.510202
 30
0.0
 40
0.393
100
AcDbArc
 50
90.0
 51
137.1
  0
ARC
  5
75
100
AcDbEntity
  8
1
  6
CONTINUOUS
100
AcDbCircle
 10
89.095013
 20
97.510202
 30
0.0
 40
0.393
100
AcDbArc
 50
42.9
 51
90.0
  0
LINE
  5
76
100
AcDbEntity
  8
1
  6
CONTINUOUS
100
AcDbLine
 10
90.533013
 20
97.778202
 30
0.0
 11
90.533013
 21
97.028202
 31
0.0
  0
LINE
  5
77
100
AcDbEntity
  8
1
  6
CONTINUOUS
100
AcDbLine
 10
89.383013
 20
97.778202
 30
0.0
 11
89.383013
 21
97.028202
 31
0.0
  0
LINE
  5
78
100
AcDbEntity
  8
1
  6
CONTINUOUS
100
AcDbLine
 10
91.108013
 20
97.028202
 30
0.0
 11
88.808013
 21
97.028202
 31
0.0
  0
LINE
  5
79
100
AcDbEntity
  8
1
  6
CONTINUOUS
100
AcDbLine
 10
91.108013
 20
97.778202
 30
0.0
 11
91.108013
 21
97.028202
 31
0.0
  0
LINE
  5
7A
100
AcDbEntity
  8
1
  6
CONTINUOUS
100
AcDbLine
 10
90.933013
 20
97.903202
 30
0.0
 11
91.108013
 21
97.778202
 31
0.0
  0
LINE
  5
7B
100
AcDbEntity
  8
1
  6
CONTINUOUS
100
AcDbLine
 10
88.983013
 20
97.903202
 30
0.0
 11
90.933013
 21
97.903202
 31
0.0
  0
LINE
  5
7C
100
AcDbEntity
  8
1
  6
CONTINUOUS
100
AcDbLine
 10
88.808013
 20
97.778202
 30
0.0
 11
88.983013
 21
97.903202
 31
0.0
  0
LINE
  5
7D
100
AcDbEntity
  8
1
  6
CONTINUOUS
100
AcDbLine
 10
88.808013
 20
97.028202
 30
0.0
 11
88.808013
 21
97.778202
 31
0.0
  0
POINT
  5
7E
100
AcDbEntity
  8
1
100
AcDbPoint
 10
89.958013
 20
96.453202
 30
0.0
  0
LINE
  5
7F
100
AcDbEntity
  8
1
  6
CONTINUOUS
100
AcDbLine
 10
90.033013
 20
135.100202
 30
0.0
 11
90.108013
 21
134.775202
 31
0.0
  0
LINE
  5
80
100
AcDbEntity
  8
1
  6
CONTINUOUS
100
AcDbLine
 10
89.883013
 20
135.100202
 30
0.0
 11
89.958013
 21
134.775202
 31
0.0
  0
LINE
  5
81
100
AcDbEntity
  8
1
  6
CONTINUOUS
100
AcDbLine
 10
91.108013
 20
135.100202
 30
0.0
 11
91.108013
 21
134.775202
 31
0.0
  0
LINE
  5
82
100
AcDbEntity
  8
1
  6
CONTINUOUS
100
AcDbLine
 10
88.808013
 20
135.100202
 30
0.0
 11
88.808013
 21
134.775202
 31
0.0
  0
LINE
  5
83
100
AcDbEntity
  8
1
  6
CONTINUOUS
100
AcDbLine
 10
91.208013
 20
134.525202
 30
0.0
 11
88.708013
 21
134.525202
 31
0.0
  0
LINE
  5
84
100
AcDbEntity
  8
1
  6
CONTINUOUS
100
AcDbLine
 10
91.208013
 20
134.775202
 30
0.0
 11
91.208013
 21
134.525202
 31
0.0
  0
LINE
  5
85
100
AcDbEntity
  8
1
  6
CONTINUOUS
100
AcDbLine
 10
88.708013
 20
134.775202
 30
0.0
 11
91.208013
 21
134.775202
 31
0.0
  0
LINE
  5
86
100
AcDbEntity
  8
1
  6
CONTINUOUS
100
AcDbLine
 10
88.708013
 20
134.525202
 30
0.0
 11
88.708013
 21
134.775202
 31
0.0
  0
ARC
  5
87
100
AcDbEntity
  8
1
  6
CONTINUOUS
100
AcDbCircle
 10
89.958013
 20
134.590202
 30
0.0
 40
1.385
100
AcDbArc
 50
65.47
 51
114.529
  0
ARC
  5
88
100
AcDbEntity
  8
1
  6
CONTINUOUS
100
AcDbCircle
 10
90.820013
 20
135.582202
 30
0.0
 40
0.393
100
AcDbArc
 50
90.0
 51
137.1
  0
ARC
  5
89
100
AcDbEntity
  8
1
  6
CONTINUOUS
100
AcDbCircle
 10
89.095013
 20
135.582202
 30
0.0
 40
0.393
100
AcDbArc
 50
42.9
 51
90.0
  0
LINE
  5
8A
100
AcDbEntity
  8
1
  6
CONTINUOUS
100
AcDbLine
 10
90.533013
 20
135.850202
 30
0.0
 11
90.533013
 21
135.100202
 31
0.0
  0
LINE
  5
8B
100
AcDbEntity
  8
1
  6
CONTINUOUS
100
AcDbLine
 10
89.383013
 20
135.850202
 30
0.0
 11
89.383013
 21
135.100202
 31
0.0
  0
LINE
  5
8C
100
AcDbEntity
  8
1
  6
CONTINUOUS
100
AcDbLine
 10
91.108013
 20
135.100202
 30
0.0
 11
88.808013
 21
135.100202
 31
0.0
  0
LINE
  5
8D
100
AcDbEntity
  8
1
  6
CONTINUOUS
100
AcDbLine
 10
91.108013
 20
135.850202
 30
0.0
 11
91.108013
 21
135.100202
 31
0.0
  0
LINE
  5
8E
100
AcDbEntity
  8
1
  6
CONTINUOUS
100
AcDbLine
 10
90.933013
 20
135.975202
 30
0.0
 11
91.108013
 21
135.850202
 31
0.0
  0
LINE
  5
8F
100
AcDbEntity
  8
1
  6
CONTINUOUS
100
AcDbLine
 10
88.983013
 20
135.975202
 30
0.0
 11
90.933013
 21
135.975202
 31
0.0
  0
LINE
  5
90
100
AcDbEntity
  8
1
  6
CONTINUOUS
100
AcDbLine
 10
88.808013
 20
135.850202
 30
0.0
 11
88.983013
 21
135.975202
 31
0.0
  0
LINE
  5
91
100
AcDbEntity
  8
1
  6
CONTINUOUS
100
AcDbLine
 10
88.808013
 20
135.100202
 30
0.0
 11
88.808013
 21
135.850202
 31
0.0
  0
POINT
  5
92
100
AcDbEntity
  8
1
100
AcDbPoint
 10
89.958013
 20
134.525202
 30
0.0
  0
LINE
  5
93
100
AcDbEntity
  8
1
  6
DASHDOT
100
AcDbLine
 10
66.256013
 20
92.753202
 30
0.0
 11
63.006013
 21
92.753202
 31
0.0
  0
LINE
  5
94
100
AcDbEntity
  8
1
  6
DASHDOT
100
AcDbLine
 10
64.631013
 20
94.378202
 30
0.0
 11
64.631013
 21
91.128202
 31
0.0
  0
CIRCLE
  5
95
100
AcDbEntity
  8
1
  6
CONTINUOUS
100
AcDbCircle
 10
64.631013
 20
92.753202
 30
0.0
 40
0.5
  0
CIRCLE
  5
96
100
AcDbEntity
  8
1
  6
CONTINUOUS
100
AcDbCircle
 10
64.631013
 20
92.753202
 30
0.0
 40
0.625
  0
LINE
  5
97
100
AcDbEntity
  8
1
  6
CONTINUOUS
100
AcDbLine
 10
63.331013
 20
100.878202
 30
0.0
 11
69.631013
 21
100.878202
 31
0.0
  0
LINE
  5
98
100
AcDbEntity
  8
1
  6
CONTINUOUS
100
AcDbLine
 10
63.331013
 20
101.503202
 30
0.0
 11
63.331013
 21
100.253202
 31
0.0
  0
ARC
  5
99
100
AcDbEntity
  8
1
  6
CONTINUOUS
100
AcDbCircle
 10
62.206013
 20
100.003202
 30
0.0
 40
0.125
100
AcDbArc
 50
90.0
 51
180.0
  0
ARC
  5
9A
100
AcDbEntity
  8
1
  6
CONTINUOUS
100
AcDbCircle
 10
62.206013
 20
101.753202
 30
0.0
 40
0.125
100
AcDbArc
 50
180.0
 51
270.0
  0
LINE
  5
9B
100
AcDbEntity
  8
1
  6
CONTINUOUS
100
AcDbLine
 10
62.581013
 20
101.628202
 30
0.0
 11
62.581013
 21
100.128202
 31
0.0
  0
LINE
  5
9C
100
AcDbEntity
  8
1
  6
CONTINUOUS
100
AcDbLine
 10
62.581013
 20
100.128202
 30
0.0
 11
62.206013
 21
100.128202
 31
0.0
  0
LINE
  5
9D
100
AcDbEntity
  8
1
  6
CONTINUOUS
100
AcDbLine
 10
62.581013
 20
101.628202
 30
0.0
 11
62.206013
 21
101.628202
 31
0.0
  0
LINE
  5
9E
100
AcDbEntity
  8
1
  6
CONTINUOUS
100
AcDbLine
 10
63.331013
 20
100.253202
 30
0.0
 11
62.581013
 21
100.253202
 31
0.0
  0
LINE
  5
9F
100
AcDbEntity
  8
1
  6
CONTINUOUS
100
AcDbLine
 10
63.331013
 20
101.503202
 30
0.0
 11
62.581013
 21
101.503202
 31
0.0
  0
LINE
  5
A0
100
AcDbEntity
  8
1
  6
CONTINUOUS
100
AcDbLine
 10
60.931013
 20
98.378202
 30
0.0
 11
61.506013
 21
98.378202
 31
0.0
  0
LINE
  5
A1
100
AcDbEntity
  8
1
  6
CONTINUOUS
100
AcDbLine
 10
67.756013
 20
95.878202
 30
0.0
 11
67.756013
 21
96.453202
 31
0.0
  0
ARC
  5
A2
100
AcDbEntity
  8
1
  6
CONTINUOUS
100
AcDbCircle
 10
62.006013
 20
96.378202
 30
0.0
 40
0.5
100
AcDbArc
 50
180.0
 51
270.0
  0
ARC
  5
A3
100
AcDbEntity
  8
1
  6
CONTINUOUS
100
AcDbCircle
 10
62.206013
 20
96.578202
 30
0.0
 40
0.125
100
AcDbArc
 50
180.0
 51
270.0
  0
LINE
  5
A4
100
AcDbEntity
  8
1
  6
CONTINUOUS
100
AcDbLine
 10
67.756013
 20
96.453202
 30
0.0
 11
62.206013
 21
96.453202
 31
0.0
  0
LINE
  5
A5
100
AcDbEntity
  8
1
  6
CONTINUOUS
100
AcDbLine
 10
59.631013
 20
95.878202
 30
0.0
 11
69.631013
 21
95.878202
 31
0.0
  0
LINE
  5
A6
100
AcDbEntity
  8
1
  6
CONTINUOUS
100
AcDbLine
 10
59.631013
 20
89.628202
 30
0.0
 11
69.631013
 21
89.628202
 31
0.0
  0
LINE
  5
A7
100
AcDbEntity
  8
1
  6
CONTINUOUS
100
AcDbLine
 10
60.931013
 20
105.953202
 30
0.0
 11
60.931013
 21
98.378202
 31
0.0
  0
LINE
  5
A8
100
AcDbEntity
  8
1
  6
CONTINUOUS
100
AcDbLine
 10
62.081013
 20
103.378202
 30
0.0
 11
62.081013
 21
96.578202
 31
0.0
  0
LINE
  5
A9
100
AcDbEntity
  8
1
  6
CONTINUOUS
100
AcDbLine
 10
61.506013
 20
105.753202
 30
0.0
 11
61.506013
 21
96.378202
 31
0.0
  0
LINE
  5
AA
100
AcDbEntity
  8
1
  6
CONTINUOUS
100
AcDbLine
 10
60.931013
 20
100.878202
 30
0.0
 11
60.931013
 21
102.128202
 31
0.0
  0
LINE
  5
AB
100
AcDbEntity
  8
1
  6
CONTINUOUS
100
AcDbLine
 10
62.081013
 20
103.378202
 30
0.0
 11
61.506013
 21
103.378202
 31
0.0
  0
LINE
  5
AC
100
AcDbEntity
  8
1
  6
CONTINUOUS
100
AcDbLine
 10
67.756013
 20
106.453202
 30
0.0
 11
67.756013
 21
105.878202
 31
0.0
  0
LINE
  5
AD
100
AcDbEntity
  8
1
  6
CONTINUOUS
100
AcDbLine
 10
61.631013
 20
105.878202
 30
0.0
 11
67.756013
 21
105.878202
 31
0.0
  0
ARC
  5
AE
100
AcDbEntity
  8
1
  6
CONTINUOUS
100
AcDbCircle
 10
61.631013
 20
105.753202
 30
0.0
 40
0.125
100
AcDbArc
 50
90.0
 51
180.0
  0
LINE
  5
AF
100
AcDbEntity
  8
1
  6
CONTINUOUS
100
AcDbLine
 10
61.431013
 20
106.453202
 30
0.0
 11
67.756013
 21
106.453202
 31
0.0
  0
ARC
  5
B0
100
AcDbEntity
  8
1
  6
CONTINUOUS
100
AcDbCircle
 10
61.431013
 20
105.953202
 30
0.0
 40
0.5
100
AcDbArc
 50
90.0
 51
180.0
  0
LINE
  5
B1
100
AcDbEntity
  8
1
  6
CONTINUOUS
100
AcDbLine
 10
62.756013
 20
89.628202
 30
0.0
 11
59.631013
 21
89.628202
 31
0.0
  0
LINE
  5
B2
100
AcDbEntity
  8
1
  6
CONTINUOUS
100
AcDbLine
 10
69.631013
 20
89.628202
 30
0.0
 11
63.156013
 21
89.628202
 31
0.0
  0
LINE
  5
B3
100
AcDbEntity
  8
1
  6
CONTINUOUS
100
AcDbLine
 10
59.631013
 20
83.378202
 30
0.0
 11
69.631013
 21
83.378202
 31
0.0
  0
CIRCLE
  5
B4
100
AcDbEntity
  8
1
  6
CONTINUOUS
100
AcDbCircle
 10
61.506013
 20
80.378202
 30
0.0
 40
0.75
  0
CIRCLE
  5
B5
100
AcDbEntity
  8
1
  6
CONTINUOUS
100
AcDbCircle
 10
67.756013
 20
80.378202
 30
0.0
 40
0.75
  0
CIRCLE
  5
B6
100
AcDbEntity
  8
1
  6
CONTINUOUS
100
AcDbCircle
 10
67.756013
 20
98.878202
 30
0.0
 40
0.75
  0
LINE
  5
B7
100
AcDbEntity
  8
1
  6
CONTINUOUS
100
AcDbLine
 10
59.631013
 20
78.378202
 30
0.0
 11
59.631013
 21
99.728202
 31
0.0
  0
LINE
  5
B8
100
AcDbEntity
  8
1
  6
CONTINUOUS
100
AcDbLine
 10
59.631013
 20
78.378202
 30
0.0
 11
69.631013
 21
78.378202
 31
0.0
  0
LINE
  5
B9
100
AcDbEntity
  8
1
  6
CONTINUOUS
100
AcDbLine
 10
69.631013
 20
78.378202
 30
0.0
 11
69.631013
 21
100.878202
 31
0.0
  0
TEXT
  5
BA
100
AcDbEntity
  8
1
100
AcDbText
 10
184.839013
 20
123.188202
 30
0.0
 40
1.9
  1
下向き
 41
0.775
  7
KANJI
100
AcDbText
  0
TEXT
  5
BB
100
AcDbEntity
  8
1
100
AcDbText
 10
184.816013
 20
125.805202
 30
0.0
 40
1.9
  1
上向き
 41
0.775
  7
KANJI
100
AcDbText
  0
LINE
  5
BC
100
AcDbEntity
  8
1
  6
CONTINUOUS
100
AcDbLine
 10
198.780013
 20
123.007202
 30
0.0
 11
176.280013
 21
123.007202
 31
0.0
  0
LINE
  5
BD
100
AcDbEntity
  8
1
  6
CONTINUOUS
100
AcDbLine
 10
191.280013
 20
123.007202
 30
0.0
 11
191.280013
 21
128.007202
 31
0.0
  0
TEXT
  5
BE
100
AcDbEntity
  8
1
100
AcDbText
 10
193.062013
 20
123.385202
 30
0.0
 40
1.9
  1
90゜
 41
0.701
  7
KANJI
100
AcDbText
  0
LINE
  5
BF
100
AcDbEntity
  8
1
  6
CONTINUOUS
100
AcDbLine
 10
183.780013
 20
123.007202
 30
0.0
 11
183.780013
 21
128.007202
 31
0.0
  0
LINE
  5
C0
100
AcDbEntity
  8
1
  6
CONTINUOUS
100
AcDbLine
 10
198.780013
 20
123.007202
 30
0.0
 11
198.780013
 21
135.507202
 31
0.0
  0
LINE
  5
C1
100
AcDbEntity
  8
1
  6
CONTINUOUS
100
AcDbLine
 10
183.780013
 20
128.007202
 30
0.0
 11
198.780013
 21
128.007202
 31
0.0
  0
LINE
  5
C2
100
AcDbEntity
  8
1
  6
CONTINUOUS
100
AcDbLine
 10
219.596013
 20
112.877202
 30
0.0
 11
188.696013
 21
112.877202
 31
0.0
  0
LINE
  5
C3
100
AcDbEntity
  8
1
  6
CONTINUOUS
100
AcDbLine
 10
188.696013
 20
112.877202
 30
0.0
 11
182.497013
 21
106.429202
 31
0.0
  0
LINE
  5
C4
100
AcDbEntity
  8
1
  6
CONTINUOUS
100
AcDbLine
 10
182.497013
 20
106.429202
 30
0.0
 11
183.463013
 21
108.180202
 31
0.0
  0
LINE
  5
C5
100
AcDbEntity
  8
1
  6
CONTINUOUS
100
AcDbLine
 10
182.497013
 20
106.429202
 30
0.0
 11
184.209013
 21
107.463202
 31
0.0
  0
TEXT
  5
C6
100
AcDbEntity
  8
1
100
AcDbText
 10
193.196013
 20
113.877202
 30
0.0
 40
2.8
  1
�ｴ�ﾐ�ﾕ�ｷ-�ｻ�ﾊ�ﾜ�ﾕ�ｷ�ｭ�ﾂ
 41
0.767
  7
KANJI
100
AcDbText
  0
LINE
  5
C7
100
AcDbEntity
  8
1
  6
CONTINUOUS
100
AcDbLine
 10
198.780013
 20
125.507202
 30
0.0
 11
183.780013
 21
125.507202
 31
0.0
  0
LINE
  5
C8
100
AcDbEntity
  8
1
  6
CONTINUOUS
100
AcDbLine
 10
176.280013
 20
130.507202
 30
0.0
 11
198.780013
 21
130.507202
 31
0.0
  0
LINE
  5
C9
100
AcDbEntity
  8
1
  6
CONTINUOUS
100
AcDbLine
 10
176.280013
 20
128.007202
 30
0.0
 11
191.280013
 21
128.007202
 31
0.0
  0
LINE
  5
CA
100
AcDbEntity
  8
1
  6
CONTINUOUS
100
AcDbLine
 10
183.780013
 20
125.507202
 30
0.0
 11
183.780013
 21
130.507202
 31
0.0
  0
TEXT
  5
CB
100
AcDbEntity
  8
1
100
AcDbText
 10
178.495013
 20
128.433202
 30
0.0
 40
1.9
  1
水平
 41
0.724
  7
KANJI
100
AcDbText
  0
TEXT
  5
CC
100
AcDbEntity
  8
1
100
AcDbText
 10
189.598013
 20
128.317202
 30
0.0
 40
1.9
  1
垂直
 41
0.724
  7
KANJI
100
AcDbText
  0
TEXT
  5
CD
100
AcDbEntity
  8
1
100
AcDbText
 10
178.206013
 20
124.592202
 30
0.0
 40
1.9
  1
360゜
 41
0.719
  7
KANJI
100
AcDbText
  0
TEXT
  5
CE
100
AcDbEntity
  8
1
100
AcDbText
 10
194.571013
 20
125.805202
 30
0.0
 40
1.9
  1
0゜
 41
0.665
  7
KANJI
100
AcDbText
  0
LINE
  5
CF
100
AcDbEntity
  8
1
  6
CONTINUOUS
100
AcDbLine
 10
191.280013
 20
125.507202
 30
0.0
 11
191.280013
 21
128.007202
 31
0.0
  0
LINE
  5
D0
100
AcDbEntity
  8
1
  6
CONTINUOUS
100
AcDbLine
 10
176.280013
 20
135.507202
 30
0.0
 11
198.780013
 21
135.507202
 31
0.0
  0
LINE
  5
D1
100
AcDbEntity
  8
1
  6
CONTINUOUS
100
AcDbLine
 10
176.280013
 20
123.007202
 30
0.0
 11
176.280013
 21
135.507202
 31
0.0
  0
TEXT
  5
D2
100
AcDbEntity
  8
1
100
AcDbText
 10
179.264013
 20
131.473202
 30
0.0
 40
2.8
  1
調整角度範囲
 41
0.843
  7
KANJI
100
AcDbText
  0
TEXT
  5
D3
100
AcDbEntity
  8
1
100
AcDbText
 10
171.770013
 20
101.625695
 30
0.0
 40
2.8
  1
30
 50
90.0
 41
0.43
  7
KANJI
100
AcDbText
  0
LINE
  5
D4
100
AcDbEntity
  8
1
  6
CONTINUOUS
100
AcDbLine
 10
177.362013
 20
106.453202
 30
0.0
 11
170.770013
 21
106.453202
 31
0.0
  0
LINE
  5
D5
100
AcDbEntity
  8
1
  6
CONTINUOUS
100
AcDbLine
 10
174.013013
 20
98.878202
 30
0.0
 11
170.770013
 21
98.878202
 31
0.0
  0
LINE
  5
D6
100
AcDbEntity
  8
1
  6
CONTINUOUS
100
AcDbLine
 10
172.770013
 20
106.453202
 30
0.0
 11
172.770013
 21
98.878202
 31
0.0
  0
LINE
  5
D7
100
AcDbEntity
  8
1
  6
CONTINUOUS
100
AcDbLine
 10
172.770013
 20
106.453202
 30
0.0
 11
173.288013
 21
104.521202
 31
0.0
  0
LINE
  5
D8
100
AcDbEntity
  8
1
  6
CONTINUOUS
100
AcDbLine
 10
172.770013
 20
106.453202
 30
0.0
 11
172.252013
 21
104.521202
 31
0.0
  0
LINE
  5
D9
100
AcDbEntity
  8
1
  6
CONTINUOUS
100
AcDbLine
 10
172.770013
 20
98.878202
 30
0.0
 11
172.252013
 21
100.809202
 31
0.0
  0
LINE
  5
DA
100
AcDbEntity
  8
1
  6
CONTINUOUS
100
AcDbLine
 10
172.770013
 20
98.878202
 30
0.0
 11
173.288013
 21
100.809202
 31
0.0
  0
TEXT
  5
DB
100
AcDbEntity
  8
1
100
AcDbText
 10
74.111234
 20
98.765202
 30
0.0
 40
2.8
  1
40
 50
90.0
 41
0.6
  7
KANJI
100
AcDbText
  0
LINE
  5
DC
100
AcDbEntity
  8
1
  6
CONTINUOUS
100
AcDbLine
 10
84.583013
 20
106.453202
 30
0.0
 11
72.565013
 21
106.453202
 31
0.0
  0
LINE
  5
DD
100
AcDbEntity
  8
1
  6
CONTINUOUS
100
AcDbLine
 10
84.458013
 20
95.878202
 30
0.0
 11
72.565013
 21
95.878202
 31
0.0
  0
LINE
  5
DE
100
AcDbEntity
  8
1
  6
CONTINUOUS
100
AcDbLine
 10
74.565013
 20
106.453202
 30
0.0
 11
74.565013
 21
95.878202
 31
0.0
  0
LINE
  5
DF
100
AcDbEntity
  8
1
  6
CONTINUOUS
100
AcDbLine
 10
74.565013
 20
106.453202
 30
0.0
 11
75.083013
 21
104.521202
 31
0.0
  0
LINE
  5
E0
100
AcDbEntity
  8
1
  6
CONTINUOUS
100
AcDbLine
 10
74.565013
 20
106.453202
 30
0.0
 11
74.047013
 21
104.521202
 31
0.0
  0
LINE
  5
E1
100
AcDbEntity
  8
1
  6
CONTINUOUS
100
AcDbLine
 10
74.565013
 20
95.878202
 30
0.0
 11
74.047013
 21
97.809202
 31
0.0
  0
LINE
  5
E2
100
AcDbEntity
  8
1
  6
CONTINUOUS
100
AcDbLine
 10
74.565013
 20
95.878202
 30
0.0
 11
75.083013
 21
97.809202
 31
0.0
  0
LINE
  5
E3
100
AcDbEntity
  8
1
  6
CONTINUOUS
100
AcDbLine
 10
184.037013
 20
103.378202
 30
0.0
 11
184.037013
 21
100.878202
 31
0.0
  0
LINE
  5
E4
100
AcDbEntity
  8
1
  6
CONTINUOUS
100
AcDbLine
 10
185.187013
 20
105.953202
 30
0.0
 11
185.187013
 21
100.878202
 31
0.0
  0
LINE
  5
E5
100
AcDbEntity
  8
1
  6
CONTINUOUS
100
AcDbLine
 10
185.762013
 20
100.953202
 30
0.0
 11
185.437013
 21
100.878202
 31
0.0
  0
LINE
  5
E6
100
AcDbEntity
  8
1
  6
CONTINUOUS
100
AcDbLine
 10
185.762013
 20
102.028202
 30
0.0
 11
185.437013
 21
102.028202
 31
0.0
  0
LINE
  5
E7
100
AcDbEntity
  8
1
  6
CONTINUOUS
100
AcDbLine
 10
185.187013
 20
100.878202
 30
0.0
 11
185.187013
 21
102.128202
 31
0.0
  0
LINE
  5
E8
100
AcDbEntity
  8
1
  6
CONTINUOUS
100
AcDbLine
 10
185.437013
 20
102.128202
 30
0.0
 11
185.437013
 21
100.878202
 31
0.0
  0
LINE
  5
E9
100
AcDbEntity
  8
1
  6
CONTINUOUS
100
AcDbLine
 10
185.187013
 20
102.128202
 30
0.0
 11
185.437013
 21
102.128202
 31
0.0
  0
ARC
  5
EA
100
AcDbEntity
  8
1
  6
CONTINUOUS
100
AcDbCircle
 10
185.252013
 20
100.878202
 30
0.0
 40
1.385
100
AcDbArc
 50
335.47
 51
24.529
  0
ARC
  5
EB
100
AcDbEntity
  8
1
  6
CONTINUOUS
100
AcDbCircle
 10
186.245013
 20
100.015202
 30
0.0
 40
0.393
100
AcDbArc
 50
0.0
 51
47.1
  0
ARC
  5
EC
100
AcDbEntity
  8
1
  6
CONTINUOUS
100
AcDbCircle
 10
186.245013
 20
101.740202
 30
0.0
 40
0.393
100
AcDbArc
 50
312.9
 51
0.0
  0
LINE
  5
ED
100
AcDbEntity
  8
1
  6
CONTINUOUS
100
AcDbLine
 10
186.512013
 20
101.453202
 30
0.0
 11
185.762013
 21
101.453202
 31
0.0
  0
LINE
  5
EE
100
AcDbEntity
  8
1
  6
CONTINUOUS
100
AcDbLine
 10
185.762013
 20
100.878202
 30
0.0
 11
185.762013
 21
102.028202
 31
0.0
  0
LINE
  5
EF
100
AcDbEntity
  8
1
  6
CONTINUOUS
100
AcDbLine
 10
186.637013
 20
99.903202
 30
0.0
 11
186.512013
 21
99.728202
 31
0.0
  0
LINE
  5
F0
100
AcDbEntity
  8
1
  6
CONTINUOUS
100
AcDbLine
 10
186.637013
 20
101.853202
 30
0.0
 11
186.637013
 21
99.903202
 31
0.0
  0
LINE
  5
F1
100
AcDbEntity
  8
1
  6
CONTINUOUS
100
AcDbLine
 10
186.512013
 20
102.028202
 30
0.0
 11
186.637013
 21
101.853202
 31
0.0
  0
LINE
  5
F2
100
AcDbEntity
  8
1
  6
CONTINUOUS
100
AcDbLine
 10
185.762013
 20
102.028202
 30
0.0
 11
186.512013
 21
102.028202
 31
0.0
  0
LINE
  5
F3
100
AcDbEntity
  8
1
  6
CONTINUOUS
100
AcDbLine
 10
84.458013
 20
95.878202
 30
0.0
 11
77.465013
 21
95.878202
 31
0.0
  0
LINE
  5
F4
100
AcDbEntity
  8
1
  6
DASHDOT
100
AcDbLine
 10
91.583013
 20
100.878202
 30
0.0
 11
88.333013
 21
100.878202
 31
0.0
  0
LINE
  5
F5
100
AcDbEntity
  8
1
  6
DASHDOT
100
AcDbLine
 10
89.958013
 20
102.503202
 30
0.0
 11
89.958013
 21
99.253202
 31
0.0
  0
TEXT
  5
F6
100
AcDbEntity
  8
1
100
AcDbText
 10
114.408013
 20
75.057202
 30
0.0
 40
2.8
  1
250
 41
0.429
  7
KANJI
100
AcDbText
  0
LINE
  5
F7
100
AcDbEntity
  8
1
  6
CONTINUOUS
100
AcDbLine
 10
84.958013
 20
89.080202
 30
0.0
 11
84.958013
 21
72.057202
 31
0.0
  0
LINE
  5
F8
100
AcDbEntity
  8
1
  6
CONTINUOUS
100
AcDbLine
 10
147.458013
 20
77.378202
 30
0.0
 11
147.458013
 21
72.057202
 31
0.0
  0
LINE
  5
F9
100
AcDbEntity
  8
1
  6
CONTINUOUS
100
AcDbLine
 10
84.958013
 20
74.057202
 30
0.0
 11
147.458013
 21
74.057202
 31
0.0
  0
LINE
  5
FA
100
AcDbEntity
  8
1
  6
CONTINUOUS
100
AcDbLine
 10
84.958013
 20
74.057202
 30
0.0
 11
86.890013
 21
74.575202
 31
0.0
  0
LINE
  5
FB
100
AcDbEntity
  8
1
  6
CONTINUOUS
100
AcDbLine
 10
84.958013
 20
74.057202
 30
0.0
 11
86.890013
 21
73.540202
 31
0.0
  0
LINE
  5
FC
100
AcDbEntity
  8
1
  6
CONTINUOUS
100
AcDbLine
 10
147.458013
 20
74.057202
 30
0.0
 11
145.526013
 21
73.540202
 31
0.0
  0
LINE
  5
FD
100
AcDbEntity
  8
1
  6
CONTINUOUS
100
AcDbLine
 10
147.458013
 20
74.057202
 30
0.0
 11
145.526013
 21
74.575202
 31
0.0
  0
LINE
  5
FE
100
AcDbEntity
  8
1
  6
CONTINUOUS
100
AcDbLine
 10
156.913013
 20
73.876202
 30
0.0
 11
170.763013
 21
73.876202
 31
0.0
  0
LINE
  5
FF
100
AcDbEntity
  8
1
  6
CONTINUOUS
100
AcDbLine
 10
170.763013
 20
73.876202
 30
0.0
 11
177.792013
 21
79.890202
 31
0.0
  0
LINE
  5
100
100
AcDbEntity
  8
1
  6
CONTINUOUS
100
AcDbLine
 10
177.792013
 20
79.890202
 30
0.0
 11
176.661013
 21
78.241202
 31
0.0
  0
LINE
  5
101
100
AcDbEntity
  8
1
  6
CONTINUOUS
100
AcDbLine
 10
177.792013
 20
79.890202
 30
0.0
 11
175.988013
 21
79.028202
 31
0.0
  0
TEXT
  5
102
100
AcDbEntity
  8
1
100
AcDbText
 10
157.393013
 20
74.876202
 30
0.0
 40
2.8
  1
4-φ6穴
 41
0.636
  7
KANJI
100
AcDbText
  0
TEXT
  5
103
100
AcDbEntity
  8
1
100
AcDbText
 10
202.925013
 20
88.428202
 30
0.0
 40
2.8
  1
90
 50
90.0
 41
0.429
  7
KANJI
100
AcDbText
  0
LINE
  5
104
100
AcDbEntity
  8
1
  6
CONTINUOUS
100
AcDbLine
 10
187.487013
 20
100.878202
 30
0.0
 11
205.925013
 21
100.878202
 31
0.0
  0
LINE
  5
105
100
AcDbEntity
  8
1
  6
CONTINUOUS
100
AcDbLine
 10
187.487013
 20
78.378202
 30
0.0
 11
205.925013
 21
78.378202
 31
0.0
  0
LINE
  5
106
100
AcDbEntity
  8
1
  6
CONTINUOUS
100
AcDbLine
 10
203.925013
 20
100.878202
 30
0.0
 11
203.925013
 21
78.378202
 31
0.0
  0
LINE
  5
107
100
AcDbEntity
  8
1
  6
CONTINUOUS
100
AcDbLine
 10
203.925013
 20
100.878202
 30
0.0
 11
204.443013
 21
98.946202
 31
0.0
  0
LINE
  5
108
100
AcDbEntity
  8
1
  6
CONTINUOUS
100
AcDbLine
 10
203.925013
 20
100.878202
 30
0.0
 11
203.408013
 21
98.946202
 31
0.0
  0
LINE
  5
109
100
AcDbEntity
  8
1
  6
CONTINUOUS
100
AcDbLine
 10
203.925013
 20
78.378202
 30
0.0
 11
203.408013
 21
80.309202
 31
0.0
  0
LINE
  5
10A
100
AcDbEntity
  8
1
  6
CONTINUOUS
100
AcDbLine
 10
203.925013
 20
78.378202
 30
0.0
 11
204.443013
 21
80.309202
 31
0.0
  0
TEXT
  5
10B
100
AcDbEntity
  8
1
100
AcDbText
 10
194.031013
 20
78.778202
 30
0.0
 40
2.8
  1
8
 50
90.0
 41
0.429
  7
KANJI
100
AcDbText
  0
LINE
  5
10C
100
AcDbEntity
  8
1
  6
CONTINUOUS
100
AcDbLine
 10
189.111013
 20
80.378202
 30
0.0
 11
197.031013
 21
80.378202
 31
0.0
  0
LINE
  5
10D
100
AcDbEntity
  8
1
  6
CONTINUOUS
100
AcDbLine
 10
187.487013
 20
78.378202
 30
0.0
 11
197.031013
 21
78.378202
 31
0.0
  0
LINE
  5
10E
100
AcDbEntity
  8
1
  6
CONTINUOUS
100
AcDbLine
 10
195.031013
 20
80.378202
 30
0.0
 11
195.031013
 21
78.378202
 31
0.0
  0
LINE
  5
10F
100
AcDbEntity
  8
1
  6
CONTINUOUS
100
AcDbLine
 10
195.031013
 20
80.378202
 30
0.0
 11
195.549013
 21
78.446202
 31
0.0
  0
LINE
  5
110
100
AcDbEntity
  8
1
  6
CONTINUOUS
100
AcDbLine
 10
195.031013
 20
80.378202
 30
0.0
 11
194.514013
 21
78.446202
 31
0.0
  0
LINE
  5
111
100
AcDbEntity
  8
1
  6
CONTINUOUS
100
AcDbLine
 10
195.031013
 20
78.378202
 30
0.0
 11
194.514013
 21
80.309202
 31
0.0
  0
LINE
  5
112
100
AcDbEntity
  8
1
  6
CONTINUOUS
100
AcDbLine
 10
195.031013
 20
78.378202
 30
0.0
 11
195.549013
 21
80.309202
 31
0.0
  0
TEXT
  5
113
100
AcDbEntity
  8
1
100
AcDbText
 10
194.031013
 20
88.428202
 30
0.0
 40
2.8
  1
74
 50
90.0
 41
0.429
  7
KANJI
100
AcDbText
  0
LINE
  5
114
100
AcDbEntity
  8
1
  6
CONTINUOUS
100
AcDbLine
 10
189.163013
 20
98.878202
 30
0.0
 11
197.031013
 21
98.878202
 31
0.0
  0
LINE
  5
115
100
AcDbEntity
  8
1
  6
CONTINUOUS
100
AcDbLine
 10
189.111013
 20
80.378202
 30
0.0
 11
197.031013
 21
80.378202
 31
0.0
  0
LINE
  5
116
100
AcDbEntity
  8
1
  6
CONTINUOUS
100
AcDbLine
 10
195.031013
 20
98.878202
 30
0.0
 11
195.031013
 21
80.378202
 31
0.0
  0
LINE
  5
117
100
AcDbEntity
  8
1
  6
CONTINUOUS
100
AcDbLine
 10
195.031013
 20
98.878202
 30
0.0
 11
195.549013
 21
96.946202
 31
0.0
  0
LINE
  5
118
100
AcDbEntity
  8
1
  6
CONTINUOUS
100
AcDbLine
 10
195.031013
 20
98.878202
 30
0.0
 11
194.514013
 21
96.946202
 31
0.0
  0
LINE
  5
119
100
AcDbEntity
  8
1
  6
CONTINUOUS
100
AcDbLine
 10
195.031013
 20
80.378202
 30
0.0
 11
194.514013
 21
82.309202
 31
0.0
  0
LINE
  5
11A
100
AcDbEntity
  8
1
  6
CONTINUOUS
100
AcDbLine
 10
195.031013
 20
80.378202
 30
0.0
 11
195.549013
 21
82.309202
 31
0.0
  0
TEXT
  5
11B
100
AcDbEntity
  8
1
100
AcDbText
 10
180.287013
 20
68.738202
 30
0.0
 40
2.8
  1
40
 41
0.429
  7
KANJI
100
AcDbText
  0
LINE
  5
11C
100
AcDbEntity
  8
1
  6
CONTINUOUS
100
AcDbLine
 10
186.487013
 20
77.378202
 30
0.0
 11
186.487013
 21
65.738202
 31
0.0
  0
LINE
  5
11D
100
AcDbEntity
  8
1
  6
CONTINUOUS
100
AcDbLine
 10
176.487013
 20
77.378202
 30
0.0
 11
176.487013
 21
65.738202
 31
0.0
  0
LINE
  5
11E
100
AcDbEntity
  8
1
  6
CONTINUOUS
100
AcDbLine
 10
186.487013
 20
67.738202
 30
0.0
 11
176.487013
 21
67.738202
 31
0.0
  0
LINE
  5
11F
100
AcDbEntity
  8
1
  6
CONTINUOUS
100
AcDbLine
 10
186.487013
 20
67.738202
 30
0.0
 11
184.555013
 21
67.220202
 31
0.0
  0
LINE
  5
120
100
AcDbEntity
  8
1
  6
CONTINUOUS
100
AcDbLine
 10
186.487013
 20
67.738202
 30
0.0
 11
184.555013
 21
68.255202
 31
0.0
  0
LINE
  5
121
100
AcDbEntity
  8
1
  6
CONTINUOUS
100
AcDbLine
 10
176.487013
 20
67.738202
 30
0.0
 11
178.419013
 21
68.255202
 31
0.0
  0
LINE
  5
122
100
AcDbEntity
  8
1
  6
CONTINUOUS
100
AcDbLine
 10
176.487013
 20
67.738202
 30
0.0
 11
178.419013
 21
67.220202
 31
0.0
  0
TEXT
  5
123
100
AcDbEntity
  8
1
100
AcDbText
 10
180.287013
 20
74.150202
 30
0.0
 40
2.8
  1
25
 41
0.429
  7
KANJI
100
AcDbText
  0
LINE
  5
124
100
AcDbEntity
  8
1
  6
CONTINUOUS
100
AcDbLine
 10
184.612013
 20
77.786202
 30
0.0
 11
184.612013
 21
71.150202
 31
0.0
  0
LINE
  5
125
100
AcDbEntity
  8
1
  6
CONTINUOUS
100
AcDbLine
 10
178.362013
 20
77.936202
 30
0.0
 11
178.362013
 21
71.150202
 31
0.0
  0
LINE
  5
126
100
AcDbEntity
  8
1
  6
CONTINUOUS
100
AcDbLine
 10
184.612013
 20
73.150202
 30
0.0
 11
178.362013
 21
73.150202
 31
0.0
  0
LINE
  5
127
100
AcDbEntity
  8
1
  6
CONTINUOUS
100
AcDbLine
 10
184.612013
 20
73.150202
 30
0.0
 11
182.680013
 21
72.633202
 31
0.0
  0
LINE
  5
128
100
AcDbEntity
  8
1
  6
CONTINUOUS
100
AcDbLine
 10
184.612013
 20
73.150202
 30
0.0
 11
182.680013
 21
73.668202
 31
0.0
  0
LINE
  5
129
100
AcDbEntity
  8
1
  6
CONTINUOUS
100
AcDbLine
 10
178.362013
 20
73.150202
 30
0.0
 11
180.294013
 21
73.668202
 31
0.0
  0
LINE
  5
12A
100
AcDbEntity
  8
1
  6
CONTINUOUS
100
AcDbLine
 10
178.362013
 20
73.150202
 30
0.0
 11
180.294013
 21
72.633202
 31
0.0
  0
LINE
  5
12B
100
AcDbEntity
  8
1
  6
DASHDOT
100
AcDbLine
 10
178.362013
 20
100.628202
 30
0.0
 11
178.362013
 21
78.936202
 31
0.0
  0
LINE
  5
12C
100
AcDbEntity
  8
1
  6
DASHDOT
100
AcDbLine
 10
184.612013
 20
100.628202
 30
0.0
 11
184.612013
 21
78.786202
 31
0.0
  0
ARC
  5
12D
100
AcDbEntity
  8
1
  6
CONTINUOUS
100
AcDbCircle
 10
184.687013
 20
105.953202
 30
0.0
 40
0.5
100
AcDbArc
 50
0.0
 51
90.0
  0
ARC
  5
12E
100
AcDbEntity
  8
1
  6
CONTINUOUS
100
AcDbCircle
 10
184.487013
 20
105.753202
 30
0.0
 40
0.125
100
AcDbArc
 50
0.0
 51
90.0
  0
LINE
  5
12F
100
AcDbEntity
  8
1
  6
CONTINUOUS
100
AcDbLine
 10
178.362013
 20
106.453202
 30
0.0
 11
178.362013
 21
105.878202
 31
0.0
  0
LINE
  5
130
100
AcDbEntity
  8
1
  6
CONTINUOUS
100
AcDbLine
 10
184.687013
 20
106.453202
 30
0.0
 11
178.362013
 21
106.453202
 31
0.0
  0
LINE
  5
131
100
AcDbEntity
  8
1
  6
CONTINUOUS
100
AcDbLine
 10
184.487013
 20
105.878202
 30
0.0
 11
178.362013
 21
105.878202
 31
0.0
  0
ARC
  5
132
100
AcDbEntity
  8
1
  6
CONTINUOUS
100
AcDbCircle
 10
183.912013
 20
102.003202
 30
0.0
 40
0.125
100
AcDbArc
 50
270.0
 51
0.0
  0
LINE
  5
133
100
AcDbEntity
  8
1
  6
CONTINUOUS
100
AcDbLine
 10
183.537013
 20
101.878202
 30
0.0
 11
183.537013
 21
100.878202
 31
0.0
  0
LINE
  5
134
100
AcDbEntity
  8
1
  6
CONTINUOUS
100
AcDbLine
 10
183.537013
 20
101.878202
 30
0.0
 11
183.912013
 21
101.878202
 31
0.0
  0
LINE
  5
135
100
AcDbEntity
  8
1
  6
CONTINUOUS
100
AcDbLine
 10
184.037013
 20
103.378202
 30
0.0
 11
184.612013
 21
103.378202
 31
0.0
  0
LINE
  5
136
100
AcDbEntity
  8
1
  6
CONTINUOUS
100
AcDbLine
 10
184.612013
 20
105.753202
 30
0.0
 11
184.612013
 21
100.878202
 31
0.0
  0
LINE
  5
137
100
AcDbEntity
  8
1
  6
CONTINUOUS
100
AcDbLine
 10
91.108013
 20
135.825202
 30
0.0
 11
147.458013
 21
135.825202
 31
0.0
  0
LINE
  5
138
100
AcDbEntity
  8
1
  6
CONTINUOUS
100
AcDbLine
 10
85.583013
 20
106.453202
 30
0.0
 11
94.333013
 21
106.453202
 31
0.0
  0
LINE
  5
139
100
AcDbEntity
  8
1
  6
CONTINUOUS
100
AcDbLine
 10
85.583013
 20
105.878202
 30
0.0
 11
94.333013
 21
105.878202
 31
0.0
  0
LINE
  5
13A
100
AcDbEntity
  8
1
  6
CONTINUOUS
100
AcDbLine
 10
85.583013
 20
134.525202
 30
0.0
 11
94.333013
 21
134.525202
 31
0.0
  0
CIRCLE
  5
13B
100
AcDbEntity
  8
1
  6
CONTINUOUS
100
AcDbCircle
 10
91.833013
 20
130.825202
 30
0.0
 40
0.575
  0
CIRCLE
  5
13C
100
AcDbEntity
  8
1
  6
CONTINUOUS
100
AcDbCircle
 10
88.083013
 20
130.825202
 30
0.0
 40
0.575
  0
LINE
  5
13D
100
AcDbEntity
  8
1
  6
DASHDOT
100
AcDbLine
 10
91.833013
 20
129.740202
 30
0.0
 11
91.833013
 21
131.845202
 31
0.0
  0
LINE
  5
13E
100
AcDbEntity
  8
1
  6
DASHDOT
100
AcDbLine
 10
88.083013
 20
129.786202
 30
0.0
 11
88.083013
 21
131.833202
 31
0.0
  0
LINE
  5
13F
100
AcDbEntity
  8
1
  6
CONTINUOUS
100
AcDbLine
 10
85.583013
 20
127.700202
 30
0.0
 11
94.333013
 21
127.700202
 31
0.0
  0
LINE
  5
140
100
AcDbEntity
  8
1
  6
DASHDOT
100
AcDbLine
 10
87.193013
 20
130.825202
 30
0.0
 11
92.832013
 21
130.825202
 31
0.0
  0
LINE
  5
141
100
AcDbEntity
  8
1
  6
CONTINUOUS
100
AcDbLine
 10
85.583013
 20
134.525202
 30
0.0
 11
85.583013
 21
127.700202
 31
0.0
  0
LINE
  5
142
100
AcDbEntity
  8
1
  6
CONTINUOUS
100
AcDbLine
 10
94.333013
 20
134.525202
 30
0.0
 11
94.333013
 21
127.700202
 31
0.0
  0
CIRCLE
  5
143
100
AcDbEntity
  8
1
  6
CONTINUOUS
100
AcDbCircle
 10
89.958013
 20
100.878202
 30
0.0
 40
0.875
  0
CIRCLE
  5
144
100
AcDbEntity
  8
1
  6
CONTINUOUS
100
AcDbCircle
 10
89.958013
 20
100.878202
 30
0.0
 40
0.625
  0
LINE
  5
145
100
AcDbEntity
  8
1
  6
CONTINUOUS
100
AcDbLine
 10
86.833013
 20
103.378202
 30
0.0
 11
85.583013
 21
102.128202
 31
0.0
  0
LINE
  5
146
100
AcDbEntity
  8
1
  6
CONTINUOUS
100
AcDbLine
 10
94.333013
 20
102.128202
 30
0.0
 11
93.083013
 21
103.378202
 31
0.0
  0
LINE
  5
147
100
AcDbEntity
  8
1
  6
CONTINUOUS
100
AcDbLine
 10
86.833013
 20
103.378202
 30
0.0
 11
93.083013
 21
103.378202
 31
0.0
  0
LINE
  5
148
100
AcDbEntity
  8
1
  6
CONTINUOUS
100
AcDbLine
 10
85.583013
 20
96.453202
 30
0.0
 11
94.333013
 21
96.453202
 31
0.0
  0
LINE
  5
149
100
AcDbEntity
  8
1
  6
CONTINUOUS
100
AcDbLine
 10
85.583013
 20
106.453202
 30
0.0
 11
85.583013
 21
95.878202
 31
0.0
  0
LINE
  5
14A
100
AcDbEntity
  8
1
  6
CONTINUOUS
100
AcDbLine
 10
94.333013
 20
106.453202
 30
0.0
 11
94.333013
 21
95.878202
 31
0.0
  0
ARC
  5
14B
100
AcDbEntity
  8
1
  6
CONTINUOUS
100
AcDbCircle
 10
88.833013
 20
94.953202
 30
0.0
 40
0.125
100
AcDbArc
 50
0.0
 51
90.0
  0
ARC
  5
14C
100
AcDbEntity
  8
1
  6
CONTINUOUS
100
AcDbCircle
 10
91.083013
 20
94.953202
 30
0.0
 40
0.125
100
AcDbArc
 50
90.0
 51
180.0
  0
LINE
  5
14D
100
AcDbEntity
  8
1
  6
CONTINUOUS
100
AcDbLine
 10
88.958013
 20
94.578202
 30
0.0
 11
90.958013
 21
94.578202
 31
0.0
  0
LINE
  5
14E
100
AcDbEntity
  8
1
  6
CONTINUOUS
100
AcDbLine
 10
88.958013
 20
94.578202
 30
0.0
 11
88.958013
 21
94.953202
 31
0.0
  0
LINE
  5
14F
100
AcDbEntity
  8
1
  6
CONTINUOUS
100
AcDbLine
 10
90.958013
 20
94.578202
 30
0.0
 11
90.958013
 21
94.953202
 31
0.0
  0
LINE
  5
150
100
AcDbEntity
  8
1
  6
CONTINUOUS
100
AcDbLine
 10
92.998013
 20
89.628202
 30
0.0
 11
92.998013
 21
91.451202
 31
0.0
  0
LINE
  5
151
100
AcDbEntity
  8
1
  6
CONTINUOUS
100
AcDbLine
 10
85.358013
 20
91.451202
 30
0.0
 11
92.998013
 21
91.451202
 31
0.0
  0
ARC
  5
152
100
AcDbEntity
  8
1
  6
CONTINUOUS
100
AcDbCircle
 10
85.483013
 20
91.753202
 30
0.0
 40
0.125
100
AcDbArc
 50
90.0
 51
180.0
  0
ARC
  5
153
100
AcDbEntity
  8
1
  6
CONTINUOUS
100
AcDbCircle
 10
85.483013
 20
93.753202
 30
0.0
 40
0.125
100
AcDbArc
 50
180.0
 51
270.0
  0
LINE
  5
154
100
AcDbEntity
  8
1
  6
CONTINUOUS
100
AcDbLine
 10
85.483013
 20
91.878202
 30
0.0
 11
85.758013
 21
91.878202
 31
0.0
  0
LINE
  5
155
100
AcDbEntity
  8
1
  6
CONTINUOUS
100
AcDbLine
 10
85.483013
 20
93.628202
 30
0.0
 11
85.758013
 21
93.628202
 31
0.0
  0
LINE
  5
156
100
AcDbEntity
  8
1
  6
CONTINUOUS
100
AcDbLine
 10
85.758013
 20
91.878202
 30
0.0
 11
85.758013
 21
93.628202
 31
0.0
  0
LINE
  5
157
100
AcDbEntity
  8
1
  6
CONTINUOUS
100
AcDbLine
 10
183.362013
 20
89.628202
 30
0.0
 11
186.487013
 21
89.628202
 31
0.0
  0
LINE
  5
158
100
AcDbEntity
  8
1
  6
CONTINUOUS
100
AcDbLine
 10
176.487013
 20
89.628202
 30
0.0
 11
182.962013
 21
89.628202
 31
0.0
  0
LINE
  5
159
100
AcDbEntity
  8
1
  6
CONTINUOUS
100
AcDbLine
 10
179.612013
 20
84.178202
 30
0.0
 11
179.612013
 21
89.228202
 31
0.0
  0
LINE
  5
15A
100
AcDbEntity
  8
1
  6
CONTINUOUS
100
AcDbLine
 10
182.962013
 20
89.228202
 30
0.0
 11
179.612013
 21
89.228202
 31
0.0
  0
ARC
  5
15B
100
AcDbEntity
  8
1
  6
CONTINUOUS
100
AcDbCircle
 10
182.862013
 20
84.278202
 30
0.0
 40
0.5
100
AcDbArc
 50
270.0
 51
0.0
  0
ARC
  5
15C
100
AcDbEntity
  8
1
  6
CONTINUOUS
100
AcDbCircle
 10
182.862013
 20
94.978202
 30
0.0
 40
0.5
100
AcDbArc
 50
0.0
 51
90.0
  0
LINE
  5
15D
100
AcDbEntity
  8
1
  6
CONTINUOUS
100
AcDbLine
 10
179.612013
 20
95.078202
 30
0.0
 11
179.612013
 21
95.478202
 31
0.0
  0
ARC
  5
15E
100
AcDbEntity
  8
1
  6
CONTINUOUS
100
AcDbCircle
 10
182.837013
 20
84.303202
 30
0.0
 40
0.125
100
AcDbArc
 50
270.0
 51
0.0
  0
ARC
  5
15F
100
AcDbEntity
  8
1
  6
CONTINUOUS
100
AcDbCircle
 10
182.837013
 20
94.953202
 30
0.0
 40
0.125
100
AcDbArc
 50
0.0
 51
90.0
  0
LINE
  5
160
100
AcDbEntity
  8
1
  6
CONTINUOUS
100
AcDbLine
 10
182.837013
 20
84.178202
 30
0.0
 11
179.612013
 21
84.178202
 31
0.0
  0
LINE
  5
161
100
AcDbEntity
  8
1
  6
CONTINUOUS
100
AcDbLine
 10
179.612013
 20
95.078202
 30
0.0
 11
182.837013
 21
95.078202
 31
0.0
  0
LINE
  5
162
100
AcDbEntity
  8
1
  6
CONTINUOUS
100
AcDbLine
 10
182.962013
 20
84.303202
 30
0.0
 11
182.962013
 21
94.953202
 31
0.0
  0
LINE
  5
163
100
AcDbEntity
  8
1
  6
CONTINUOUS
100
AcDbLine
 10
183.362013
 20
84.278202
 30
0.0
 11
183.362013
 21
94.978202
 31
0.0
  0
LINE
  5
164
100
AcDbEntity
  8
1
  6
CONTINUOUS
100
AcDbLine
 10
179.612013
 20
83.778202
 30
0.0
 11
179.612013
 21
84.178202
 31
0.0
  0
LINE
  5
165
100
AcDbEntity
  8
1
  6
CONTINUOUS
100
AcDbLine
 10
186.487013
 20
83.778202
 30
0.0
 11
176.487013
 21
83.778202
 31
0.0
  0
LINE
  5
166
100
AcDbEntity
  8
1
  6
CONTINUOUS
100
AcDbLine
 10
176.487013
 20
95.478202
 30
0.0
 11
186.487013
 21
95.478202
 31
0.0
  0
CIRCLE
  5
167
100
AcDbEntity
  8
1
  6
CONTINUOUS
100
AcDbCircle
 10
184.612013
 20
80.378202
 30
0.0
 40
0.75
  0
CIRCLE
  5
168
100
AcDbEntity
  8
1
  6
CONTINUOUS
100
AcDbCircle
 10
178.362013
 20
80.378202
 30
0.0
 40
0.75
  0
CIRCLE
  5
169
100
AcDbEntity
  8
1
  6
CONTINUOUS
100
AcDbCircle
 10
184.612013
 20
98.878202
 30
0.0
 40
0.75
  0
CIRCLE
  5
16A
100
AcDbEntity
  8
1
  6
CONTINUOUS
100
AcDbCircle
 10
178.362013
 20
98.878202
 30
0.0
 40
0.75
  0
LINE
  5
16B
100
AcDbEntity
  8
1
  6
DASHDOT
100
AcDbLine
 10
174.960013
 20
80.378202
 30
0.0
 11
188.111013
 21
80.378202
 31
0.0
  0
LINE
  5
16C
100
AcDbEntity
  8
1
  6
DASHDOT
100
AcDbLine
 10
175.013013
 20
98.878202
 30
0.0
 11
188.163013
 21
98.878202
 31
0.0
  0
LINE
  5
16D
100
AcDbEntity
  8
1
  6
CONTINUOUS
100
AcDbLine
 10
186.487013
 20
78.378202
 30
0.0
 11
186.487013
 21
100.878202
 31
0.0
  0
LINE
  5
16E
100
AcDbEntity
  8
1
  6
CONTINUOUS
100
AcDbLine
 10
176.487013
 20
78.378202
 30
0.0
 11
176.487013
 21
100.878202
 31
0.0
  0
LINE
  5
16F
100
AcDbEntity
  8
1
  6
CONTINUOUS
100
AcDbLine
 10
186.487013
 20
78.378202
 30
0.0
 11
176.487013
 21
78.378202
 31
0.0
  0
LINE
  5
170
100
AcDbEntity
  8
1
  6
CONTINUOUS
100
AcDbLine
 10
176.487013
 20
100.878202
 30
0.0
 11
186.487013
 21
100.878202
 31
0.0
  0
LINE
  5
171
100
AcDbEntity
  8
1
  6
CONTINUOUS
100
AcDbLine
 10
85.510013
 20
90.376202
 30
0.0
 11
134.958013
 21
85.432202
 31
0.0
  0
LINE
  5
172
100
AcDbEntity
  8
1
  6
CONTINUOUS
100
AcDbLine
 10
85.358013
 20
95.078202
 30
0.0
 11
134.958013
 21
95.078202
 31
0.0
  0
LINE
  5
173
100
AcDbEntity
  8
1
  6
CONTINUOUS
100
AcDbLine
 10
84.958013
 20
135.825202
 30
0.0
 11
88.808013
 21
135.825202
 31
0.0
  0
LINE
  5
174
100
AcDbEntity
  8
1
  6
CONTINUOUS
100
AcDbLine
 10
147.458013
 20
125.825202
 30
0.0
 11
147.458013
 21
135.825202
 31
0.0
  0
LINE
  5
175
100
AcDbEntity
  8
1
  6
CONTINUOUS
100
AcDbLine
 10
84.958013
 20
125.825202
 30
0.0
 11
84.958013
 21
135.825202
 31
0.0
  0
LINE
  5
176
100
AcDbEntity
  8
1
  6
CONTINUOUS
100
AcDbLine
 10
147.058013
 20
125.825202
 30
0.0
 11
147.058013
 21
135.825202
 31
0.0
  0
LINE
  5
177
100
AcDbEntity
  8
1
  6
CONTINUOUS
100
AcDbLine
 10
84.958013
 20
125.825202
 30
0.0
 11
147.458013
 21
125.825202
 31
0.0
  0
ARC
  5
178
100
AcDbEntity
  8
1
  6
CONTINUOUS
100
AcDbCircle
 10
85.458013
 20
90.080202
 30
0.0
 40
0.5
100
AcDbArc
 50
180.0
 51
264.289
  0
ARC
  5
179
100
AcDbEntity
  8
1
  6
CONTINUOUS
100
AcDbCircle
 10
85.458013
 20
95.378202
 30
0.0
 40
0.5
100
AcDbArc
 50
90.0
 51
180.0
  0
ARC
  5
17A
100
AcDbEntity
  8
1
  6
CONTINUOUS
100
AcDbCircle
 10
85.483013
 20
90.103202
 30
0.0
 40
0.125
100
AcDbArc
 50
180.0
 51
264.289
  0
ARC
  5
17B
100
AcDbEntity
  8
1
  6
CONTINUOUS
100
AcDbCircle
 10
85.483013
 20
95.353202
 30
0.0
 40
0.125
100
AcDbArc
 50
90.0
 51
180.0
  0
LINE
  5
17C
100
AcDbEntity
  8
1
  6
CONTINUOUS
100
AcDbLine
 10
134.958013
 20
85.030202
 30
0.0
 11
134.958013
 21
95.478202
 31
0.0
  0
ARC
  5
17D
100
AcDbEntity
  8
1
  6
CONTINUOUS
100
AcDbCircle
 10
146.933013
 20
83.305202
 30
0.0
 40
0.125
100
AcDbArc
 50
0.0
 51
84.289
  0
ARC
  5
17E
100
AcDbEntity
  8
1
  6
CONTINUOUS
100
AcDbCircle
 10
146.958013
 20
83.327202
 30
0.0
 40
0.5
100
AcDbArc
 50
0.0
 51
84.289
  0
ARC
  5
17F
100
AcDbEntity
  8
1
  6
CONTINUOUS
100
AcDbCircle
 10
146.958013
 20
95.978202
 30
0.0
 40
0.5
100
AcDbArc
 50
270.0
 51
0.0
  0
ARC
  5
180
100
AcDbEntity
  8
1
  6
CONTINUOUS
100
AcDbCircle
 10
146.933013
 20
96.003202
 30
0.0
 40
0.125
100
AcDbArc
 50
270.0
 51
0.0
  0
LINE
  5
181
100
AcDbEntity
  8
1
  6
CONTINUOUS
100
AcDbLine
 10
147.058013
 20
96.003202
 30
0.0
 11
147.058013
 21
100.878202
 31
0.0
  0
LINE
  5
182
100
AcDbEntity
  8
1
  6
CONTINUOUS
100
AcDbLine
 10
147.458013
 20
95.978202
 30
0.0
 11
147.458013
 21
100.878202
 31
0.0
  0
LINE
  5
183
100
AcDbEntity
  8
1
  6
CONTINUOUS
100
AcDbLine
 10
147.058013
 20
78.378202
 30
0.0
 11
147.458013
 21
78.378202
 31
0.0
  0
LINE
  5
184
100
AcDbEntity
  8
1
  6
CONTINUOUS
100
AcDbLine
 10
147.058013
 20
100.878202
 30
0.0
 11
147.458013
 21
100.878202
 31
0.0
  0
LINE
  5
185
100
AcDbEntity
  8
1
  6
CONTINUOUS
100
AcDbLine
 10
147.058013
 20
78.378202
 30
0.0
 11
147.058013
 21
83.305202
 31
0.0
  0
LINE
  5
186
100
AcDbEntity
  8
1
  6
CONTINUOUS
100
AcDbLine
 10
85.358013
 20
90.103202
 30
0.0
 11
85.358013
 21
95.353202
 31
0.0
  0
LINE
  5
187
100
AcDbEntity
  8
1
  6
CONTINUOUS
100
AcDbLine
 10
85.470013
 20
89.978202
 30
0.0
 11
147.007013
 21
83.825202
 31
0.0
  0
LINE
  5
188
100
AcDbEntity
  8
1
  6
CONTINUOUS
100
AcDbLine
 10
85.483013
 20
95.478202
 30
0.0
 11
146.958013
 21
95.478202
 31
0.0
  0
LINE
  5
189
100
AcDbEntity
  8
1
  6
CONTINUOUS
100
AcDbLine
 10
85.408013
 20
89.583202
 30
0.0
 11
146.945013
 21
83.429202
 31
0.0
  0
LINE
  5
18A
100
AcDbEntity
  8
1
  6
CONTINUOUS
100
AcDbLine
 10
84.958013
 20
90.080202
 30
0.0
 11
84.958013
 21
95.378202
 31
0.0
  0
LINE
  5
18B
100
AcDbEntity
  8
1
  6
CONTINUOUS
100
AcDbLine
 10
85.458013
 20
95.878202
 30
0.0
 11
146.933013
 21
95.878202
 31
0.0
  0
LINE
  5
18C
100
AcDbEntity
  8
1
  6
CONTINUOUS
100
AcDbLine
 10
147.458013
 20
78.378202
 30
0.0
 11
147.458013
 21
83.327202
 31
0.0
  0
TEXT
  5
1F2
100
AcDbEntity
  8
1
  6
CONTINUOUS
 62
     7
100
AcDbText
 10
6.531
 20
42.913
 30
0.0
 40
2.304
  1
　
 41
0.573
  7
KANJI
100
AcDbText
  0
LINE
  5
1FB
100
AcDbEntity
  8
0
100
AcDbLine
 10
281.0
 20
4.0
 30
0.0
 11
201.0
 21
4.0
 31
0.0
  0
LINE
  5
1FC
100
AcDbEntity
  8
0
100
AcDbLine
 10
281.0
 20
20.0
 30
0.0
 11
281.0
 21
4.0
 31
0.0
  0
LINE
  5
1FD
100
AcDbEntity
  8
0
100
AcDbLine
 10
281.0
 20
12.0
 30
0.0
 11
201.0
 21
12.0
 31
0.0
  0
LINE
  5
1FE
100
AcDbEntity
  8
0
100
AcDbLine
 10
281.0
 20
20.0
 30
0.0
 11
201.0
 21
20.0
 31
0.0
  0
LINE
  5
1FF
100
AcDbEntity
  8
0
100
AcDbLine
 10
221.0
 20
20.0
 30
0.0
 11
221.0
 21
4.0
 31
0.0
  0
LINE
  5
200
100
AcDbEntity
  8
0
100
AcDbLine
 10
201.0
 20
20.0
 30
0.0
 11
201.0
 21
4.0
 31
0.0
  0
TEXT
  5
201
100
AcDbEntity
  8
0
100
AcDbText
 10
206.93529
 20
13.671686
 30
0.0
 40
4.0
  1
品名
  7
STANDARD1
100
AcDbText
  0
TEXT
  5
202
100
AcDbEntity
  8
0
100
AcDbText
 10
206.93529
 20
5.671686
 30
0.0
 40
4.0
  1
型名
  7
STANDARD1
100
AcDbText
  0
TEXT
  5
203
100
AcDbEntity
  8
0
100
AcDbText
 10
222.93529
 20
13.671686
 30
0.0
 40
4.0
  1
カメラケース取付台
  7
STANDARD1
100
AcDbText
  0
TEXT
  5
204
100
AcDbEntity
  8
0
100
AcDbText
 10
222.93529
 20
5.671686
 30
0.0
 40
4.0
  1
A-5614
  7
STANDARD1
100
AcDbText
  0
LINE
  5
21D
100
AcDbEntity
  8
1
100
AcDbLine
 10
88.083013
 20
132.258857
 30
0.0
 11
88.083013
 21
141.108595
 31
0.0
  0
LINE
  5
21E
100
AcDbEntity
  8
1
100
AcDbLine
 10
91.833013
 20
132.274867
 30
0.0
 11
91.833013
 21
141.108595
 31
0.0
  0
LINE
  5
21F
100
AcDbEntity
  8
1
100
AcDbLine
 10
89.083013
 20
141.108595
 30
0.0
 11
90.833013
 21
141.108595
 31
0.0
  0
INSERT
  5
221
100
AcDbEntity
  8
1
100
AcDbBlockReference
  2
_OPEN30
 10
88.083013
 20
141.108595
 30
0.0
 50
180.0
  0
INSERT
  5
222
100
AcDbEntity
  8
1
100
AcDbBlockReference
  2
_OPEN30
 10
91.833013
 20
141.108595
 30
0.0
  0
TEXT
  5
229
100
AcDbEntity
  8
1
100
AcDbText
 10
89.213108
 20
141.787672
 30
0.0
 40
2.8
  1
15
 41
0.43
  7
KANJI
100
AcDbText
  0
LINE
  5
232
100
AcDbEntity
  8
1
  6
CENTER
 48
5.0
100
AcDbLine
 10
89.958013
 20
102.503202
 30
0.0
 11
89.958013
 21
132.127925
 31
0.0
  0
LINE
  5
236
100
AcDbEntity
  8
1
100
AcDbLine
 10
84.958013
 20
125.825202
 30
0.0
 11
84.958013
 21
121.071122
 31
0.0
  0
LINE
  5
237
100
AcDbEntity
  8
1
100
AcDbLine
 10
89.958013
 20
132.127925
 30
0.0
 11
89.958013
 21
121.071122
 31
0.0
  0
LINE
  5
238
100
AcDbEntity
  8
1
100
AcDbLine
 10
85.958013
 20
121.071122
 30
0.0
 11
88.958013
 21
121.071122
 31
0.0
  0
INSERT
  5
23A
100
AcDbEntity
  8
1
100
AcDbBlockReference
  2
_OPEN30
 10
84.958013
 20
121.071122
 30
0.0
 50
180.0
  0
INSERT
  5
23B
100
AcDbEntity
  8
1
100
AcDbBlockReference
  2
_OPEN30
 10
89.958013
 20
121.071122
 30
0.0
  0
TEXT
  5
23D
100
AcDbEntity
  8
1
100
AcDbText
 10
86.632459
 20
121.395412
 30
0.0
 40
2.8
  1
20
 41
0.43
  7
KANJI
100
AcDbText
  0
LINE
  5
23E
100
AcDbEntity
  8
1
100
AcDbLine
 10
84.458013
 20
95.878202
 30
0.0
 11
81.476968
 21
95.878202
 31
0.0
  0
LINE
  5
23F
100
AcDbEntity
  8
1
100
AcDbLine
 10
87.779824
 20
100.878202
 30
0.0
 11
81.476968
 21
100.878202
 31
0.0
  0
LINE
  5
241
100
AcDbEntity
  8
1
100
AcDbLine
 10
81.476968
 20
99.878202
 30
0.0
 11
81.476968
 21
96.878202
 31
0.0
  0
INSERT
  5
242
100
AcDbEntity
  8
1
100
AcDbBlockReference
  2
_OPEN30
 10
81.476968
 20
95.878202
 30
0.0
 50
270.0
  0
INSERT
  5
243
100
AcDbEntity
  8
1
100
AcDbBlockReference
  2
_OPEN30
 10
81.476968
 20
100.878202
 30
0.0
 50
90.0
  0
TEXT
  5
245
100
AcDbEntity
  8
1
100
AcDbText
 10
81.013711
 20
96.517608
 30
0.0
 40
2.8
  1
20
 50
90.0
 41
0.6
  7
KANJI
100
AcDbText
  0
LINE
  5
246
100
AcDbEntity
  8
1
100
AcDbLine
 10
64.631013
 20
90.691082
 30
0.0
 11
64.631013
 21
73.827657
 31
0.0
  0
LINE
  5
247
100
AcDbEntity
  8
1
100
AcDbLine
 10
69.631013
 20
77.897997
 30
0.0
 11
69.631013
 21
73.827657
 31
0.0
  0
LINE
  5
248
100
AcDbEntity
  8
1
100
AcDbLine
 10
65.631013
 20
73.827657
 30
0.0
 11
68.631013
 21
73.827657
 31
0.0
  0
INSERT
  5
24A
100
AcDbEntity
  8
1
100
AcDbBlockReference
  2
_OPEN30
 10
64.631013
 20
73.827657
 30
0.0
 50
180.0
  0
INSERT
  5
24B
100
AcDbEntity
  8
1
100
AcDbBlockReference
  2
_OPEN30
 10
69.631013
 20
73.827657
 30
0.0
  0
TEXT
  5
24D
100
AcDbEntity
  8
1
100
AcDbText
 10
66.255465
 20
74.158503
 30
0.0
 40
2.8
  1
20
 41
0.43
  7
KANJI
100
AcDbText
  0
LINE
  5
24E
100
AcDbEntity
  8
1
100
AcDbLine
 10
62.582271
 20
92.753202
 30
0.0
 11
49.898715
 21
92.753202
 31
0.0
  0
LINE
  5
24F
100
AcDbEntity
  8
1
100
AcDbLine
 10
59.120895
 20
95.878202
 30
0.0
 11
49.898715
 21
95.878202
 31
0.0
  0
LINE
  5
250
100
AcDbEntity
  8
1
100
AcDbLine
 10
49.898715
 20
91.753202
 30
0.0
 11
49.898715
 21
87.556255
 31
0.0
  0
LINE
  5
251
100
AcDbEntity
  8
1
100
AcDbLine
 10
49.898715
 20
92.753202
 30
0.0
 11
49.898715
 21
97.878202
 31
0.0
  0
INSERT
  5
252
100
AcDbEntity
  8
1
100
AcDbBlockReference
  2
_OPEN30
 10
49.898715
 20
92.753202
 30
0.0
 50
90.0
  0
INSERT
  5
253
100
AcDbEntity
  8
1
100
AcDbBlockReference
  2
_OPEN30
 10
49.898715
 20
95.878202
 30
0.0
 50
270.0
  0
TEXT
  5
255
100
AcDbEntity
  8
1
100
AcDbText
 10
49.433545
 20
88.291786
 30
0.0
 40
2.8
  1
12.5
 50
90.0
 41
0.43
  7
KANJI
100
AcDbText
  0
LEADER
  5
256
100
AcDbEntity
  8
1
100
AcDbLeader
  3
STANDARD
 40
5.644445
 41
2.822223
 76
     3
 10
64.137498
 20
92.108085
 30
0.0
 10
54.227017
 20
82.304506
 30
0.0
 10
47.212247
 20
82.318719
 30
0.0
 77
   256
213
3.386327466185662
223
2.836435017519931
233
0.0
1001
ACAD
1000
DSTYLE
1002
{
1070
   140
1040
2.116667
1070
    77
1070
     1
1070
   173
1070
     1
1070
    42
1040
0.0
1070
    44
1040
0.0
1070
    43
1040
0.5
1070
   141
1040
0.0
1070
     7
1000
_OPEN30
1070
     6
1000
_OPEN30
1070
    41
1040
1.0
1070
   143
1040
1.0
1070
   171
1070
     0
1002
}
  0
TEXT
  5
258
100
AcDbEntity
  8
1
100
AcDbText
 10
50.132041
 20
82.498313
 30
0.0
 40
2.8
  1
Ｍ５
 41
0.43
  7
KANJI
100
AcDbText
  0
ENDSEC
  0
SECTION
  2
OBJECTS
  0
DICTIONARY
  5
C
100
AcDbDictionary
  3
ACAD_GROUP
350
D
  3
ACAD_MLINESTYLE
350
1B
  0
DICTIONARY
  5
D
102
{ACAD_REACTORS
330
C
102
}
100
AcDbDictionary
  3
*A1
350
1D4
  3
*A2
350
1D5
  3
*A3
350
1D6
  3
*A4
350
1D7
  3
*A5
350
1D8
  3
*A6
350
206
  3
*A7
350
207
  3
*A8
350
208
  0
DICTIONARY
  5
1B
102
{ACAD_REACTORS
330
C
102
}
100
AcDbDictionary
  3
STANDARD
350
1C
  0
GROUP
  5
1D4
102
{ACAD_REACTORS
330
D
102
}
100
AcDbGroup
300

 70
     3
 71
     1
340
1C0
340
1BF
340
1C2
340
1C1
  0
GROUP
  5
1D5
102
{ACAD_REACTORS
330
D
102
}
100
AcDbGroup
300

 70
     3
 71
     1
340
1BC
340
1BB
340
1BE
340
1BD
  0
GROUP
  5
1D6
102
{ACAD_REACTORS
330
D
102
}
100
AcDbGroup
300

 70
     3
 71
     1
340
1E0
340
1DF
340
1E2
340
1E1
  0
GROUP
  5
1D7
102
{ACAD_REACTORS
330
D
102
}
100
AcDbGroup
300

 70
     3
 71
     1
340
1DB
340
1DC
340
1DD
340
1DE
  0
GROUP
  5
1D8
102
{ACAD_REACTORS
330
D
102
}
100
AcDbGroup
300

 70
     3
 71
     1
340
1ED
340
1E0
340
1DF
340
1E2
340
1E1
  0
GROUP
  5
206
102
{ACAD_REACTORS
330
D
102
}
100
AcDbGroup
300

 70
     1
 71
     1
  0
GROUP
  5
207
102
{ACAD_REACTORS
330
D
102
}
100
AcDbGroup
300

 70
     1
 71
     1
  0
GROUP
  5
208
102
{ACAD_REACTORS
330
D
102
}
100
AcDbGroup
300

 70
     1
 71
     1
  0
MLINESTYLE
  5
1C
102
{ACAD_REACTORS
330
1B
102
}
100
AcDbMlineStyle
  2
STANDARD
 70
     0
  3

 62
   256
 51
90.0
 52
90.0
 71
     2
 49
0.5
 62
   256
  6
BYLAYER
 49
-0.5
 62
   256
  6
BYLAYER
  0
ENDSEC
  0
EOF
