  0
SECTION
  2
HEADER
  9
$ACADVER
  1
AC1014
  9
$ACADMAINTVER
 70
     0
  9
$DWGCODEPAGE
  3
ANSI_932
  9
$INSBASE
 10
0.0
 20
0.0
 30
0.0
  9
$EXTMIN
 10
60.631944
 20
3.99115
 30
-0.001526
  9
$EXTMAX
 10
281.016312
 20
150.605988
 30
0.0
  9
$LIMMIN
 10
-6.0
 20
-6.0
  9
$LIMMAX
 10
291.0
 20
204.0
  9
$ORTHOMODE
 70
     1
  9
$REGENMODE
 70
     1
  9
$FILLMODE
 70
     1
  9
$QTEXTMODE
 70
     0
  9
$MIRRTEXT
 70
     1
  9
$DRAGMODE
 70
     2
  9
$LTSCALE
 40
1.0
  9
$OSMODE
 70
     7
  9
$ATTMODE
 70
     1
  9
$TEXTSIZE
 40
3.0
  9
$TRACEWID
 40
0.05
  9
$TEXTSTYLE
  7
STANDARD
  9
$CLAYER
  8
1
  9
$CELTYPE
  6
BYLAYER
  9
$CECOLOR
 62
   256
  9
$CELTSCALE
 40
1.0
  9
$DELOBJ
 70
     1
  9
$DISPSILH
 70
     0
  9
$DIMSCALE
 40
0.0
  9
$DIMASZ
 40
1.0
  9
$DIMEXO
 40
0.0
  9
$DIMDLI
 40
0.5
  9
$DIMRND
 40
0.0
  9
$DIMDLE
 40
0.0
  9
$DIMEXE
 40
0.0
  9
$DIMTP
 40
0.0
  9
$DIMTM
 40
0.0
  9
$DIMTXT
 40
2.116667
  9
$DIMCEN
 40
0.0
  9
$DIMTSZ
 40
0.0
  9
$DIMTOL
 70
     0
  9
$DIMLIM
 70
     0
  9
$DIMTIH
 70
     0
  9
$DIMTOH
 70
     0
  9
$DIMSE1
 70
     0
  9
$DIMSE2
 70
     0
  9
$DIMTAD
 70
     1
  9
$DIMZIN
 70
     0
  9
$DIMBLK
  1

  9
$DIMASO
 70
     0
  9
$DIMSHO
 70
     0
  9
$DIMPOST
  1

  9
$DIMAPOST
  1

  9
$DIMALT
 70
     0
  9
$DIMALTD
 70
     0
  9
$DIMALTF
 40
1.0
  9
$DIMLFAC
 40
1.0
  9
$DIMTOFL
 70
     0
  9
$DIMTVP
 40
0.0
  9
$DIMTIX
 70
     0
  9
$DIMSOXD
 70
     0
  9
$DIMSAH
 70
     1
  9
$DIMBLK1
  1
_OPEN30
  9
$DIMBLK2
  1
_OPEN30
  9
$DIMSTYLE
  2
STANDARD
  9
$DIMCLRD
 70
     0
  9
$DIMCLRE
 70
     0
  9
$DIMCLRT
 70
     0
  9
$DIMTFAC
 40
1.0
  9
$DIMGAP
 40
0.09
  9
$DIMJUST
 70
     0
  9
$DIMSD1
 70
     0
  9
$DIMSD2
 70
     0
  9
$DIMTOLJ
 70
     1
  9
$DIMTZIN
 70
     0
  9
$DIMALTZ
 70
     0
  9
$DIMALTTZ
 70
     0
  9
$DIMFIT
 70
     3
  9
$DIMUPT
 70
     0
  9
$DIMUNIT
 70
     2
  9
$DIMDEC
 70
     4
  9
$DIMTDEC
 70
     4
  9
$DIMALTU
 70
     2
  9
$DIMALTTD
 70
     2
  9
$DIMTXSTY
  7
STANDARD
  9
$DIMAUNIT
 70
     0
  9
$LUNITS
 70
     2
  9
$LUPREC
 70
     2
  9
$SKETCHINC
 40
1.0
  9
$FILLETRAD
 40
0.0
  9
$AUNITS
 70
     1
  9
$AUPREC
 70
     2
  9
$MENU
  1
ACAD
  9
$ELEVATION
 40
0.0
  9
$PELEVATION
 40
0.0
  9
$THICKNESS
 40
0.0
  9
$LIMCHECK
 70
     1
  9
$BLIPMODE
 70
     1
  9
$CHAMFERA
 40
0.0
  9
$CHAMFERB
 40
0.0
  9
$CHAMFERC
 40
0.0
  9
$CHAMFERD
 40
0.0
  9
$SKPOLY
 70
     0
  9
$TDCREATE
 40
0.0000000000
  9
$TDUPDATE
 40
0.0000000000
  9
$TDINDWG
 40
0.0000000000
  9
$TDUSRTIMER
 40
0.0000000000
  9
$USRTIMER
 70
     1
  9
$ANGBASE
 50
0.0
  9
$ANGDIR
 70
     0
  9
$PDMODE
 70
     0
  9
$PDSIZE
 40
0.4
  9
$PLINEWID
 40
0.0
  9
$COORDS
 70
     2
  9
$SPLFRAME
 70
     0
  9
$SPLINETYPE
 70
     6
  9
$SPLINESEGS
 70
     8
  9
$ATTDIA
 70
     0
  9
$ATTREQ
 70
     1
  9
$HANDLING
 70
     1
  9
$HANDSEED
  5
2B9
  9
$SURFTAB1
 70
     6
  9
$SURFTAB2
 70
     6
  9
$SURFTYPE
 70
     6
  9
$SURFU
 70
     6
  9
$SURFV
 70
     6
  9
$UCSNAME
  2

  9
$UCSORG
 10
0.0
 20
0.0
 30
0.0
  9
$UCSXDIR
 10
1.0
 20
0.0
 30
0.0
  9
$UCSYDIR
 10
0.0
 20
1.0
 30
0.0
  9
$PUCSNAME
  2

  9
$PUCSORG
 10
0.0
 20
0.0
 30
0.0
  9
$PUCSXDIR
 10
1.0
 20
0.0
 30
0.0
  9
$PUCSYDIR
 10
0.0
 20
1.0
 30
0.0
  9
$USERI1
 70
     0
  9
$USERI2
 70
     0
  9
$USERI3
 70
     0
  9
$USERI4
 70
     0
  9
$USERI5
 70
     0
  9
$USERR1
 40
0.0
  9
$USERR2
 40
0.0
  9
$USERR3
 40
0.0
  9
$USERR4
 40
0.0
  9
$USERR5
 40
0.0
  9
$WORLDVIEW
 70
     1
  9
$SHADEDGE
 70
     3
  9
$SHADEDIF
 70
    70
  9
$TILEMODE
 70
     1
  9
$MAXACTVP
 70
    48
  9
$PINSBASE
 10
0.0
 20
0.0
 30
0.0
  9
$PLIMCHECK
 70
     0
  9
$PEXTMIN
 10
1.000000E+20
 20
1.000000E+20
 30
1.000000E+20
  9
$PEXTMAX
 10
-1.000000E+20
 20
-1.000000E+20
 30
-1.000000E+20
  9
$PLIMMIN
 10
0.0
 20
0.0
  9
$PLIMMAX
 10
12.0
 20
9.0
  9
$UNITMODE
 70
     0
  9
$VISRETAIN
 70
     1
  9
$PLINEGEN
 70
     0
  9
$PSLTSCALE
 70
     1
  9
$TREEDEPTH
 70
  3020
  9
$PICKSTYLE
 70
     1
  9
$CMLSTYLE
  2
STANDARD
  9
$CMLJUST
 70
     0
  9
$CMLSCALE
 40
1.0
  9
$PROXYGRAPHICS
 70
     1
  9
$MEASUREMENT
 70
     0
  0
ENDSEC
  0
SECTION
  2
CLASSES
  0
ENDSEC
  0
SECTION
  2
TABLES
  0
TABLE
  2
VPORT
  5
8
100
AcDbSymbolTable
 70
     2
  0
VPORT
  5
2B8
100
AcDbSymbolTableRecord
100
AcDbViewportTableRecord
  2
*ACTIVE
 70
     0
 10
0.0
 20
0.0
 11
1.0
 21
1.0
 12
186.15415
 22
99.0
 13
0.0
 23
0.0
 14
1.0
 24
1.0
 15
0.0
 25
0.0
 16
0.0
 26
0.0
 36
1.0
 17
0.0
 27
0.0
 37
0.0
 40
210.0
 41
1.83004
 42
50.0
 43
0.0
 44
0.0
 50
0.0
 51
0.0
 71
     0
 72
   100
 73
     1
 74
     1
 75
     0
 76
     0
 77
     0
 78
     0
  0
ENDTAB
  0
TABLE
  2
LTYPE
  5
5
100
AcDbSymbolTable
 70
     6
  0
LTYPE
  5
12
100
AcDbSymbolTableRecord
100
AcDbLinetypeTableRecord
  2
BYBLOCK
 70
     0
  3

 72
    65
 73
     0
 40
0.0
  0
LTYPE
  5
13
100
AcDbSymbolTableRecord
100
AcDbLinetypeTableRecord
  2
BYLAYER
 70
     0
  3

 72
    65
 73
     0
 40
0.0
  0
LTYPE
  5
14
100
AcDbSymbolTableRecord
100
AcDbLinetypeTableRecord
  2
CONTINUOUS
 70
     0
  3
SolidLine
 72
    65
 73
     0
 40
0.0
  0
LTYPE
  5
20
100
AcDbSymbolTableRecord
100
AcDbLinetypeTableRecord
  2
HIDDEN
 70
     0
  3
- - - - - - - - - -
 72
    65
 73
     2
 40
3.0
 49
2.0
 74
     0
 49
-1.0
 74
     0
  0
LTYPE
  5
21
100
AcDbSymbolTableRecord
100
AcDbLinetypeTableRecord
  2
DOT
 70
     0
  3
･･･････････････････
 72
    65
 73
     2
 40
2.0
 49
0.5
 74
     0
 49
-1.5
 74
     0
  0
LTYPE
  5
22
100
AcDbSymbolTableRecord
100
AcDbLinetypeTableRecord
  2
DASHDOT
 70
     0
  3
-･-･-･-･-･-･-･-･-･-
 72
    65
 73
     4
 40
20.0
 49
15.0
 74
     0
 49
-2.0
 74
     0
 49
1.0
 74
     0
 49
-2.0
 74
     0
  0
LTYPE
  5
23
100
AcDbSymbolTableRecord
100
AcDbLinetypeTableRecord
  2
DIVIDE
 70
     0
  3
-･･-･･-･･-･･-･･-･･-
 72
    65
 73
     6
 40
20.0
 49
15.0
 74
     0
 49
-1.0
 74
     0
 49
1.0
 74
     0
 49
-1.0
 74
     0
 49
1.0
 74
     0
 49
-1.0
 74
     0
  0
LTYPE
  5
2A2
100
AcDbSymbolTableRecord
100
AcDbLinetypeTableRecord
  2
CENTER
 70
     0
  3
Center ____ _ ____ _ ____ _ ____ _ ____ _ ____
 72
    65
 73
     4
 40
2.0
 49
1.25
 74
     0
 49
-0.25
 74
     0
 49
0.25
 74
     0
 49
-0.25
 74
     0
  0
ENDTAB
  0
TABLE
  2
LAYER
  5
2
100
AcDbSymbolTable
 70
    31
  0
LAYER
  5
E
100
AcDbSymbolTableRecord
100
AcDbLayerTableRecord
  2
0
 70
     0
 62
     7
  6
CONTINUOUS
  0
LAYER
  5
1F
100
AcDbSymbolTableRecord
100
AcDbLayerTableRecord
  2
1
 70
     0
 62
     7
  6
CONTINUOUS
  0
LAYER
  5
24
100
AcDbSymbolTableRecord
100
AcDbLayerTableRecord
  2
CONTINUOUS
 70
     0
 62
     7
  6
CONTINUOUS
  0
LAYER
  5
25
100
AcDbSymbolTableRecord
100
AcDbLayerTableRecord
  2
HIDDEN
 70
     0
 62
     2
  6
HIDDEN
  0
LAYER
  5
26
100
AcDbSymbolTableRecord
100
AcDbLayerTableRecord
  2
DOT
 70
     0
 62
     7
  6
DOT
  0
LAYER
  5
27
100
AcDbSymbolTableRecord
100
AcDbLayerTableRecord
  2
DASHDOT
 70
     0
 62
     6
  6
DASHDOT
  0
LAYER
  5
28
100
AcDbSymbolTableRecord
100
AcDbLayerTableRecord
  2
DIVIDE
 70
     0
 62
     5
  6
DIVIDE
  0
LAYER
  5
29
100
AcDbSymbolTableRecord
100
AcDbLayerTableRecord
  2
DIMENSION
 70
     0
 62
     7
  6
CONTINUOUS
  0
LAYER
  5
2A
100
AcDbSymbolTableRecord
100
AcDbLayerTableRecord
  2
2
 70
     0
 62
     7
  6
CONTINUOUS
  0
LAYER
  5
2B
100
AcDbSymbolTableRecord
100
AcDbLayerTableRecord
  2
3
 70
     0
 62
     7
  6
CONTINUOUS
  0
LAYER
  5
2C
100
AcDbSymbolTableRecord
100
AcDbLayerTableRecord
  2
4
 70
     0
 62
     7
  6
CONTINUOUS
  0
LAYER
  5
2D
100
AcDbSymbolTableRecord
100
AcDbLayerTableRecord
  2
5
 70
     0
 62
     7
  6
CONTINUOUS
  0
LAYER
  5
2E
100
AcDbSymbolTableRecord
100
AcDbLayerTableRecord
  2
6
 70
     0
 62
     7
  6
CONTINUOUS
  0
LAYER
  5
2F
100
AcDbSymbolTableRecord
100
AcDbLayerTableRecord
  2
7
 70
     0
 62
     7
  6
CONTINUOUS
  0
LAYER
  5
30
100
AcDbSymbolTableRecord
100
AcDbLayerTableRecord
  2
8
 70
     0
 62
     7
  6
CONTINUOUS
  0
LAYER
  5
31
100
AcDbSymbolTableRecord
100
AcDbLayerTableRecord
  2
9
 70
     0
 62
     7
  6
CONTINUOUS
  0
LAYER
  5
32
100
AcDbSymbolTableRecord
100
AcDbLayerTableRecord
  2
10
 70
     0
 62
     7
  6
CONTINUOUS
  0
LAYER
  5
33
100
AcDbSymbolTableRecord
100
AcDbLayerTableRecord
  2
11
 70
     0
 62
     7
  6
CONTINUOUS
  0
LAYER
  5
34
100
AcDbSymbolTableRecord
100
AcDbLayerTableRecord
  2
12
 70
     0
 62
     7
  6
CONTINUOUS
  0
LAYER
  5
35
100
AcDbSymbolTableRecord
100
AcDbLayerTableRecord
  2
13
 70
     0
 62
     7
  6
CONTINUOUS
  0
LAYER
  5
36
100
AcDbSymbolTableRecord
100
AcDbLayerTableRecord
  2
14
 70
     0
 62
     7
  6
CONTINUOUS
  0
LAYER
  5
37
100
AcDbSymbolTableRecord
100
AcDbLayerTableRecord
  2
15
 70
     0
 62
     7
  6
CONTINUOUS
  0
LAYER
  5
38
100
AcDbSymbolTableRecord
100
AcDbLayerTableRecord
  2
16
 70
     0
 62
     7
  6
CONTINUOUS
  0
LAYER
  5
39
100
AcDbSymbolTableRecord
100
AcDbLayerTableRecord
  2
17
 70
     0
 62
     7
  6
CONTINUOUS
  0
LAYER
  5
3A
100
AcDbSymbolTableRecord
100
AcDbLayerTableRecord
  2
18
 70
     0
 62
     7
  6
CONTINUOUS
  0
LAYER
  5
3B
100
AcDbSymbolTableRecord
100
AcDbLayerTableRecord
  2
19
 70
     0
 62
     7
  6
CONTINUOUS
  0
LAYER
  5
3C
100
AcDbSymbolTableRecord
100
AcDbLayerTableRecord
  2
HATCH
 70
     0
 62
     7
  6
CONTINUOUS
  0
LAYER
  5
3D
100
AcDbSymbolTableRecord
100
AcDbLayerTableRecord
  2
GUIDE1
 70
     0
 62
     4
  6
DASHDOT
  0
LAYER
  5
3E
100
AcDbSymbolTableRecord
100
AcDbLayerTableRecord
  2
GUIDE2
 70
     0
 62
     4
  6
DASHDOT
  0
LAYER
  5
3F
100
AcDbSymbolTableRecord
100
AcDbLayerTableRecord
  2
GUIDE3
 70
     0
 62
     4
  6
DASHDOT
  0
LAYER
  5
40
100
AcDbSymbolTableRecord
100
AcDbLayerTableRecord
  2
GUIDE4
 70
     0
 62
     4
  6
DASHDOT
  0
ENDTAB
  0
TABLE
  2
STYLE
  5
3
100
AcDbSymbolTable
 70
     4
  0
STYLE
  5
F
100
AcDbSymbolTableRecord
100
AcDbTextStyleTableRecord
  2
STANDARD
 70
     0
 40
0.0
 41
1.0
 50
0.0
 71
     0
 42
3.0
  3
TXT
  4

  0
STYLE
  5
41
100
AcDbSymbolTableRecord
100
AcDbTextStyleTableRecord
  2
KANJI
 70
     0
 40
0.0
 41
1.0
 50
0.0
 71
     0
 42
3.0
  3
TXT
  4
BIGFONT
  0
STYLE
  5
250
100
AcDbSymbolTableRecord
100
AcDbTextStyleTableRecord
  2
STANDARD1
 70
     0
 40
0.0
 41
1.0
 50
0.0
 71
     0
 42
4.0
  3
monotxt.shx
  4
bigfont.shx
  0
STYLE
  5
2A1
100
AcDbSymbolTableRecord
100
AcDbTextStyleTableRecord
  2

 70
     1
 40
0.0
 41
1.0
 50
0.0
 71
     0
 42
3.0
  3
ltypeshp.shx
  4

  0
ENDTAB
  0
TABLE
  2
VIEW
  5
6
100
AcDbSymbolTable
 70
     0
  0
ENDTAB
  0
TABLE
  2
UCS
  5
7
100
AcDbSymbolTable
 70
     0
  0
ENDTAB
  0
TABLE
  2
APPID
  5
9
100
AcDbSymbolTable
 70
     5
  0
APPID
  5
10
100
AcDbSymbolTableRecord
100
AcDbRegAppTableRecord
  2
ACAD
 70
     0
  0
APPID
  5
251
100
AcDbSymbolTableRecord
100
AcDbRegAppTableRecord
  2
CONTENTTABDATA
 70
     0
  0
APPID
  5
252
100
AcDbSymbolTableRecord
100
AcDbRegAppTableRecord
  2
CONTENTCURRENTTAB
 70
     0
  0
APPID
  5
253
100
AcDbSymbolTableRecord
100
AcDbRegAppTableRecord
  2
CONTENTBLOCKDESCRIPTION
 70
     0
  0
APPID
  5
254
100
AcDbSymbolTableRecord
100
AcDbRegAppTableRecord
  2
CONTENTBLOCKICON
 70
     0
  0
ENDTAB
  0
TABLE
  2
DIMSTYLE
  5
A
100
AcDbSymbolTable
 70
     1
  0
DIMSTYLE
105
203
100
AcDbSymbolTableRecord
100
AcDbDimStyleTableRecord
  2
STANDARD
 70
     0
  3

  4

  5

  6

  7

 40
1.0
 41
0.18
 42
0.0625
 43
0.38
 44
0.18
 45
0.0
 46
0.0
 47
0.0
 48
0.0
140
0.18
141
0.09
142
0.0
143
25.4
144
1.0
145
0.0
146
1.0
147
0.09
 71
     0
 72
     0
 73
     1
 74
     1
 75
     0
 76
     0
 77
     0
 78
     0
170
     0
171
     2
172
     0
173
     0
174
     0
175
     0
176
     0
177
     0
178
     0
270
     2
271
     4
272
     4
273
     2
274
     2
340
F
275
     0
280
     0
281
     0
282
     0
283
     1
284
     0
285
     0
286
     0
287
     3
288
     0
  0
ENDTAB
  0
TABLE
  2
BLOCK_RECORD
  5
1
100
AcDbSymbolTable
 70
     3
  0
BLOCK_RECORD
  5
18
100
AcDbSymbolTableRecord
100
AcDbBlockTableRecord
  2
*MODEL_SPACE
  0
BLOCK_RECORD
  5
15
100
AcDbSymbolTableRecord
100
AcDbBlockTableRecord
  2
*PAPER_SPACE
  0
BLOCK_RECORD
  5
204
100
AcDbSymbolTableRecord
100
AcDbBlockTableRecord
  2
_OPEN30
  0
BLOCK_RECORD
  5
23B
100
AcDbSymbolTableRecord
100
AcDbBlockTableRecord
  2
外形枠
1001
CONTENTBLOCKICON
1071
        0
1004
2800000020000000200000000100040000000000000200000000000000000000000000000000000000000000000080000080000000808000800000008000800080800000C0C0C000808080000000FF0000FF000000FFFF00FF000000FF00FF00FFFF0000FFFFFF00FFFFFFFFFFFFFFFFFFFFFFFFFFFFFFFF
1004
FFFFFFFFFFFFFFFFFFFFFFFFFFFFFFFFFFFFFFFFFFFFFFFFFFFFFFFFFFFFFFFFFFFFFFFFFFFFFFFFFFFFFFFFFFFFFFFFFFFFFFFFFFFFFFFFFFFFFFFFFFFFFFFFFFFFFFFFFFFFFFFFFFFFFFFFFFFFFFFFFFFFFFFFFFFFFFFFFFFFFFFFFFFFFFFFFFFFFFFFFFFFFFFFFFFFFFFFFFFFFFFFFFFFFFFFFFFFFFFF
1004
FFFFFFFFFFFFFFFFFFFFFFFFFFFFFFFFFFFFFFFFFFFFFFFFFFFFFFFFFFFFFFFFFFFFFFFFFFFFFFFFFFFFFFFFFFFFFFFFFFFFFFFFFFFFFFFFFFFFFFFFFFFFFFFFFFFFFFFFFFFFFFFFFFFFFFFFFFFFFFFFFFFFFFFFFFFFFFFFFFFFFFFFFFFFFFFFFFFFFFFFFFFFFFFFFFFFFFFFFFFFFFFFFFFFFFFFFFFFFFFF
1004
FFFFFFFFFFFFFFFFFFFFFFFFFFFFFFFFFFFFFFFFFFFFFFFFFFFFFFFFFFFFFFFFFFFFFFFFFFFFFFFFFFFFFFFFFFFFFFFFFFFFFFFFFFFFFFFFFFFFFFFFFFFFFFFFFFFFFFFFFFFFFFFFFFFFFFFFFFFFFFFFFFFFFFFFFFFFFFFFFFFFFFFFFFFFFFFFFFFFFFFFFFFFFFFFFFFFFFFFFFFFFFFFFFFFFFFFFFFFFFFF
1004
FFFFFFFFFFFFFFFFFFFFFFFFFFFFFFFFFFFFFFFFFFFFFFFFFFFFFFFFFFFFFFFFFFFFFFFFFFFFFFFFFFFFFFFFFFFFFFFFFFFFFFFFFFFFFFFFFFFFFFFFFFFFFFFFFFFFFFFFFFFFFFFFFFFFFFFFFFFFFFFFFFFFFFFFFFFFFFFFFFFFFFFFFFFFFFFFFFFFFFFFFFFFFFFFFFFFFFFFFFFFFFFFFFFFFFFFFFFFFFFF
1004
FFFFFFFFFFFFFFFFFFFFFFFFFFFFFFFF
  0
BLOCK_RECORD
  5
25A
100
AcDbSymbolTableRecord
100
AcDbBlockTableRecord
  2
外形枠２
1001
CONTENTBLOCKICON
1071
        0
1004
2800000020000000200000000100040000000000000200000000000000000000000000000000000000000000000080000080000000808000800000008000800080800000C0C0C000808080000000FF0000FF000000FFFF00FF000000FF00FF00FFFF0000FFFFFF00FFFFFFFFFFFFFFFFFFFFFFFFFFFFFFFF
1004
FFFFFFFFFFFFFFFFFFFFFFFFFFFFFFFFFFFFFFFFFFFFFFFFFFFFFFFFFFFFFFFFFFFFFFFFFFFFFFFFFFFFFFFFFFFFFFFFFFFFFFFFFFFFFFFFFFFFFFFFFFFFFFFFFFFFFFFFFFFFFFFFFFFFFFFFFFFFFFFFFFFFFFFFFFFFFFFFFFFFFFFFFFFFFFFFFFFFFFFFFFFFFFFFFFFFFFFFFFFFFFFFFFFFFFFFFFFFFFFF
1004
FFFFFFFFFFFFFFFFFFFFFFFFFFFFFFFFFFFFFFFFFFFFFFFFFFFFFFFFFFFFFFFFFFFFFFFFFFFFFFFFFFFFFFFFFFFFFFFFFFFFFFFFFFFFFFFFFFFFFFFFFFFFFFFFFFFFFFFFFFFFFFFFFFFFFFFFFFFFFFFFFFFFFFFFFFFFFFFFFFFFFFFFFFFFFFFFFFFFFFFFFFFFFFFFFFFFFFFFFFFFFFFFFFFFFFFFFFFFFFFF
1004
FFFFFFFFFFFFFFFFFFFFFFFFFFFFFFFFFFFFFFFFFFFFFFFFFFFFFFFFFFFFFFFFFFFFFFFFFFFFFFFFFFFFFFFFFFFFFFFFFFFFFFFFFFFFFFFFFFFFFFFFFFFFFFFFFFFFFFFFFFFFFFFFFFFFFFFFFFFFFFFFFFFFFFFFFFFFFFFFFFFFFFFFFFFFFFFFFFFFFFFFFFFFFFFFFFFFFFFFFFFFFFFFFFFFFFFFFFFFFFFF
1004
FFFFFFFFFFFFFFFFFFFFFFFFFFFFFFFFFFFFFFFFFFFFFFFFFFFFFFFFFFFFFFFFFFFFFFFFFFFFFFFFFFFFFFFFFFFFFFFFFFFFFFFFFFFFFFFFFFFFFFFFFFFFFFFFFFFFFFFFFFFFFFFFFFFFFFFFFFFFFFFFFFFFFFFFFFFFFFFFFFFFFFFFFFFFFFFFFFFFFFFFFFFFFFFFFFFFFFFFFFFFFFFFFFFFFFFFFFFFFFFF
1004
FFFFFFFFFFFFFFFFFFFFFFFFFFFFFFFF
  0
ENDTAB
  0
ENDSEC
  0
SECTION
  2
BLOCKS
  0
BLOCK
  5
19
100
AcDbEntity
  8
0
100
AcDbBlockBegin
  2
*MODEL_SPACE
 70
     0
 10
0.0
 20
0.0
 30
0.0
  3
*MODEL_SPACE
  1

  0
ENDBLK
  5
1A
100
AcDbEntity
  8
0
100
AcDbBlockEnd
  0
BLOCK
  5
16
100
AcDbEntity
 67
     1
  8
0
100
AcDbBlockBegin
  2
*PAPER_SPACE
 70
     0
 10
0.0
 20
0.0
 30
0.0
  3
*PAPER_SPACE
  1

  0
ENDBLK
  5
17
100
AcDbEntity
 67
     1
  8
0
100
AcDbBlockEnd
  0
BLOCK
  5
205
100
AcDbEntity
  8
0
100
AcDbBlockBegin
  2
_OPEN30
 70
     0
 10
0.0
 20
0.0
 30
0.0
  3
_OPEN30
  1

  0
LINE
  5
206
100
AcDbEntity
  8
0
  6
BYBLOCK
 62
     0
100
AcDbLine
 10
-1.0
 20
0.267949
 30
0.0
 11
0.0
 21
0.0
 31
0.0
  0
LINE
  5
207
100
AcDbEntity
  8
0
  6
BYBLOCK
 62
     0
100
AcDbLine
 10
0.0
 20
0.0
 30
0.0
 11
-1.0
 21
-0.267949
 31
0.0
  0
LINE
  5
208
100
AcDbEntity
  8
0
  6
BYBLOCK
 62
     0
100
AcDbLine
 10
0.0
 20
0.0
 30
0.0
 11
-1.0
 21
0.0
 31
0.0
  0
ENDBLK
  5
209
100
AcDbEntity
  8
0
100
AcDbBlockEnd
  0
BLOCK
  5
24E
100
AcDbEntity
  8
0
100
AcDbBlockBegin
  2
外形枠
 70
     0
 10
0.0
 20
0.0
 30
0.0
  3
外形枠
  1

  0
LINE
  5
23C
102
{ACAD_REACTORS
330
256
102
}
100
AcDbEntity
  8
0
100
AcDbLine
 10
0.0
 20
0.0
 30
0.0
 11
0.0
 21
210.0
 31
0.0
  0
LINE
  5
23D
102
{ACAD_REACTORS
330
256
102
}
100
AcDbEntity
  8
0
100
AcDbLine
 10
0.0
 20
210.0
 30
0.0
 11
297.0
 21
210.0
 31
0.0
  0
LINE
  5
23E
102
{ACAD_REACTORS
330
256
102
}
100
AcDbEntity
  8
0
100
AcDbLine
 10
297.0
 20
210.0
 30
0.0
 11
297.0
 21
0.0
 31
0.0
  0
LINE
  5
23F
102
{ACAD_REACTORS
330
256
102
}
100
AcDbEntity
  8
0
100
AcDbLine
 10
297.0
 20
0.0
 30
0.0
 11
0.0
 21
0.0
 31
0.0
  0
LINE
  5
240
102
{ACAD_REACTORS
330
255
102
}
100
AcDbEntity
  8
0
100
AcDbLine
 10
6.0
 20
6.0
 30
0.0
 11
6.0
 21
204.0
 31
0.0
  0
LINE
  5
241
102
{ACAD_REACTORS
330
255
102
}
100
AcDbEntity
  8
0
100
AcDbLine
 10
6.0
 20
204.0
 30
0.0
 11
292.0
 21
204.0
 31
0.0
  0
LINE
  5
242
102
{ACAD_REACTORS
330
255
102
}
100
AcDbEntity
  8
0
100
AcDbLine
 10
292.0
 20
204.0
 30
0.0
 11
292.0
 21
6.0
 31
0.0
  0
LINE
  5
243
102
{ACAD_REACTORS
330
255
102
}
100
AcDbEntity
  8
0
100
AcDbLine
 10
292.0
 20
6.0
 30
0.0
 11
6.0
 21
6.0
 31
0.0
  0
LINE
  5
244
100
AcDbEntity
  8
0
100
AcDbLine
 10
287.0
 20
10.0
 30
0.0
 11
207.0
 21
10.0
 31
0.0
  0
LINE
  5
245
100
AcDbEntity
  8
0
100
AcDbLine
 10
287.0
 20
26.0
 30
0.0
 11
287.0
 21
10.0
 31
0.0
  0
LINE
  5
246
100
AcDbEntity
  8
0
100
AcDbLine
 10
287.0
 20
18.0
 30
0.0
 11
207.0
 21
18.0
 31
0.0
  0
LINE
  5
247
100
AcDbEntity
  8
0
100
AcDbLine
 10
287.0
 20
26.0
 30
0.0
 11
207.0
 21
26.0
 31
0.0
  0
LINE
  5
248
100
AcDbEntity
  8
0
100
AcDbLine
 10
227.0
 20
26.0
 30
0.0
 11
227.0
 21
10.0
 31
0.0
  0
LINE
  5
249
100
AcDbEntity
  8
0
100
AcDbLine
 10
207.0
 20
26.0
 30
0.0
 11
207.0
 21
10.0
 31
0.0
  0
TEXT
  5
24A
100
AcDbEntity
  8
0
100
AcDbText
 10
212.93529
 20
19.671686
 30
0.0
 40
4.0
  1
品名
  7
STANDARD1
100
AcDbText
  0
TEXT
  5
24B
100
AcDbEntity
  8
0
100
AcDbText
 10
212.93529
 20
11.671686
 30
0.0
 40
4.0
  1
型名
  7
STANDARD1
100
AcDbText
  0
TEXT
  5
24C
100
AcDbEntity
  8
0
100
AcDbText
 10
228.93529
 20
19.671686
 30
0.0
 40
4.0
  1
カラーカメラ
  7
STANDARD1
100
AcDbText
  0
TEXT
  5
24D
100
AcDbEntity
  8
0
100
AcDbText
 10
228.93529
 20
11.671686
 30
0.0
 40
4.0
  1
CIT-771
  7
STANDARD1
100
AcDbText
  0
ENDBLK
  5
24F
100
AcDbEntity
  8
0
100
AcDbBlockEnd
  0
BLOCK
  5
26F
100
AcDbEntity
  8
0
100
AcDbBlockBegin
  2
外形枠２
 70
     0
 10
0.0
 20
0.0
 30
0.0
  3
外形枠２
  1

  0
TEXT
  5
25B
100
AcDbEntity
  8
1
  6
CONTINUOUS
 62
     7
100
AcDbText
 10
6.531
 20
42.913
 30
0.0
 40
2.304
  1
　
 41
0.573
  7
KANJI
100
AcDbText
  0
LINE
  5
25C
102
{ACAD_REACTORS
330
258
102
}
100
AcDbEntity
  8
0
100
AcDbLine
 10
-6.0
 20
-6.0
 30
0.0
 11
-6.0
 21
204.0
 31
0.0
  0
LINE
  5
25D
102
{ACAD_REACTORS
330
258
102
}
100
AcDbEntity
  8
0
100
AcDbLine
 10
-6.0
 20
204.0
 30
0.0
 11
291.0
 21
204.0
 31
0.0
  0
LINE
  5
25E
102
{ACAD_REACTORS
330
258
102
}
100
AcDbEntity
  8
0
100
AcDbLine
 10
291.0
 20
204.0
 30
0.0
 11
291.0
 21
-6.0
 31
0.0
  0
LINE
  5
25F
102
{ACAD_REACTORS
330
258
102
}
100
AcDbEntity
  8
0
100
AcDbLine
 10
291.0
 20
-6.0
 30
0.0
 11
-6.0
 21
-6.0
 31
0.0
  0
LINE
  5
260
102
{ACAD_REACTORS
330
257
330
259
102
}
100
AcDbEntity
  8
0
100
AcDbLine
 10
0.0
 20
0.0
 30
0.0
 11
0.0
 21
198.0
 31
0.0
  0
LINE
  5
261
102
{ACAD_REACTORS
330
257
330
259
102
}
100
AcDbEntity
  8
0
100
AcDbLine
 10
0.0
 20
198.0
 30
0.0
 11
286.0
 21
198.0
 31
0.0
  0
LINE
  5
262
102
{ACAD_REACTORS
330
257
330
259
102
}
100
AcDbEntity
  8
0
100
AcDbLine
 10
286.0
 20
198.0
 30
0.0
 11
286.0
 21
0.0
 31
0.0
  0
LINE
  5
263
102
{ACAD_REACTORS
330
257
330
259
102
}
100
AcDbEntity
  8
0
100
AcDbLine
 10
286.0
 20
0.0
 30
0.0
 11
0.0
 21
0.0
 31
0.0
  0
LINE
  5
264
100
AcDbEntity
  8
0
100
AcDbLine
 10
281.0
 20
4.0
 30
0.0
 11
201.0
 21
4.0
 31
0.0
  0
LINE
  5
265
100
AcDbEntity
  8
0
100
AcDbLine
 10
281.0
 20
20.0
 30
0.0
 11
281.0
 21
4.0
 31
0.0
  0
LINE
  5
266
100
AcDbEntity
  8
0
100
AcDbLine
 10
281.0
 20
12.0
 30
0.0
 11
201.0
 21
12.0
 31
0.0
  0
LINE
  5
267
100
AcDbEntity
  8
0
100
AcDbLine
 10
281.0
 20
20.0
 30
0.0
 11
201.0
 21
20.0
 31
0.0
  0
LINE
  5
268
100
AcDbEntity
  8
0
100
AcDbLine
 10
221.0
 20
20.0
 30
0.0
 11
221.0
 21
4.0
 31
0.0
  0
LINE
  5
269
100
AcDbEntity
  8
0
100
AcDbLine
 10
201.0
 20
20.0
 30
0.0
 11
201.0
 21
4.0
 31
0.0
  0
TEXT
  5
26A
100
AcDbEntity
  8
0
100
AcDbText
 10
206.93529
 20
13.671686
 30
0.0
 40
4.0
  1
品名
  7
STANDARD1
100
AcDbText
  0
TEXT
  5
26B
100
AcDbEntity
  8
0
100
AcDbText
 10
206.93529
 20
5.671686
 30
0.0
 40
4.0
  1
型名
  7
STANDARD1
100
AcDbText
  0
TEXT
  5
26C
100
AcDbEntity
  8
0
100
AcDbText
 10
222.93529
 20
13.671686
 30
0.0
 40
4.0
  1
カラーカメラ
  7
STANDARD1
100
AcDbText
  0
TEXT
  5
26D
100
AcDbEntity
  8
0
100
AcDbText
 10
222.93529
 20
5.671686
 30
0.0
 40
4.0
  1
CIT-7110
  7
STANDARD1
100
AcDbText
  0
LINE
  5
26E
102
{ACAD_REACTORS
330
259
102
}
100
AcDbEntity
  8
0
100
AcDbLine
 10
0.0
 20
190.0
 30
0.0
 11
286.0
 21
190.0
 31
0.0
  0
ENDBLK
  5
270
100
AcDbEntity
  8
0
100
AcDbBlockEnd
  0
ENDSEC
  0
SECTION
  2
ENTITIES
  0
LINE
  5
5D
100
AcDbEntity
  8
1
  6
CONTINUOUS
100
AcDbLine
 10
79.256245
 20
100.759615
 30
0.0
 11
78.577245
 21
101.437615
 31
0.0
  0
LINE
  5
5E
100
AcDbEntity
  8
1
  6
CONTINUOUS
100
AcDbLine
 10
78.577245
 20
100.759615
 30
0.0
 11
79.256245
 21
101.437615
 31
0.0
  0
CIRCLE
  5
5F
100
AcDbEntity
  8
1
  6
CONTINUOUS
100
AcDbCircle
 10
78.917245
 20
101.098615
 30
0.0
 40
0.9
  0
CIRCLE
  5
60
100
AcDbEntity
  8
1
  6
CONTINUOUS
100
AcDbCircle
 10
78.917245
 20
101.098615
 30
0.0
 40
0.92
  0
LINE
  5
61
100
AcDbEntity
  8
1
  6
CONTINUOUS
100
AcDbLine
 10
79.256245
 20
104.759615
 30
0.0
 11
78.577245
 21
105.437615
 31
0.0
  0
LINE
  5
62
100
AcDbEntity
  8
1
  6
CONTINUOUS
100
AcDbLine
 10
78.577245
 20
104.759615
 30
0.0
 11
79.256245
 21
105.437615
 31
0.0
  0
CIRCLE
  5
63
100
AcDbEntity
  8
1
  6
CONTINUOUS
100
AcDbCircle
 10
78.917245
 20
105.098615
 30
0.0
 40
0.9
  0
CIRCLE
  5
64
100
AcDbEntity
  8
1
  6
CONTINUOUS
100
AcDbCircle
 10
78.917245
 20
105.098615
 30
0.0
 40
0.92
  0
POINT
  5
65
100
AcDbEntity
  8
1
100
AcDbPoint
 10
78.917245
 20
119.281615
 30
0.0
  0
LINE
  5
66
100
AcDbEntity
  8
1
  6
CONTINUOUS
100
AcDbLine
 10
78.817245
 20
118.821615
 30
0.0
 11
78.917245
 21
119.081615
 31
0.0
  0
LINE
  5
67
100
AcDbEntity
  8
1
  6
CONTINUOUS
100
AcDbLine
 10
78.917245
 20
118.821615
 30
0.0
 11
79.017245
 21
119.081615
 31
0.0
  0
LINE
  5
68
100
AcDbEntity
  8
1
  6
CONTINUOUS
100
AcDbLine
 10
77.997245
 20
119.081615
 30
0.0
 11
77.997245
 21
118.821615
 31
0.0
  0
LINE
  5
69
100
AcDbEntity
  8
1
  6
CONTINUOUS
100
AcDbLine
 10
79.837245
 20
119.081615
 30
0.0
 11
79.837245
 21
118.821615
 31
0.0
  0
LINE
  5
6A
100
AcDbEntity
  8
1
  6
CONTINUOUS
100
AcDbLine
 10
79.837245
 20
118.821615
 30
0.0
 11
77.997245
 21
118.821615
 31
0.0
  0
LINE
  5
6B
100
AcDbEntity
  8
1
  6
CONTINUOUS
100
AcDbLine
 10
79.917245
 20
119.281615
 30
0.0
 11
77.917245
 21
119.281615
 31
0.0
  0
LINE
  5
6C
100
AcDbEntity
  8
1
  6
CONTINUOUS
100
AcDbLine
 10
77.917245
 20
119.081615
 30
0.0
 11
77.917245
 21
119.281615
 31
0.0
  0
LINE
  5
6D
100
AcDbEntity
  8
1
  6
CONTINUOUS
100
AcDbLine
 10
79.917245
 20
119.081615
 30
0.0
 11
79.917245
 21
119.281615
 31
0.0
  0
LINE
  5
6E
100
AcDbEntity
  8
1
  6
CONTINUOUS
100
AcDbLine
 10
78.917245
 20
118.161615
 30
0.0
 11
78.697245
 21
118.381615
 31
0.0
  0
LINE
  5
6F
100
AcDbEntity
  8
1
  6
CONTINUOUS
100
AcDbLine
 10
78.917245
 20
118.161615
 30
0.0
 11
79.137245
 21
118.381615
 31
0.0
  0
ARC
  5
70
100
AcDbEntity
  8
1
  6
CONTINUOUS
100
AcDbCircle
 10
79.473245
 20
118.556615
 30
0.0
 40
0.32
100
AcDbArc
 50
285.494
 51
355.0
  0
ARC
  5
71
100
AcDbEntity
  8
1
  6
CONTINUOUS
100
AcDbCircle
 10
78.361245
 20
118.556615
 30
0.0
 40
0.32
100
AcDbArc
 50
185.0
 51
254.506
  0
LINE
  5
72
100
AcDbEntity
  8
1
  6
CONTINUOUS
100
AcDbLine
 10
79.917245
 20
119.081615
 30
0.0
 11
77.917245
 21
119.081615
 31
0.0
  0
LINE
  5
73
100
AcDbEntity
  8
1
  6
CONTINUOUS
100
AcDbLine
 10
78.042245
 20
118.528615
 30
0.0
 11
78.017245
 21
118.821615
 31
0.0
  0
LINE
  5
74
100
AcDbEntity
  8
1
  6
CONTINUOUS
100
AcDbLine
 10
79.791245
 20
118.528615
 30
0.0
 11
79.817245
 21
118.821615
 31
0.0
  0
ARC
  5
75
100
AcDbEntity
  8
1
  6
CONTINUOUS
100
AcDbCircle
 10
78.917245
 20
120.561615
 30
0.0
 40
2.4
100
AcDbArc
 50
254.478
 51
285.538
  0
POINT
  5
76
100
AcDbEntity
  8
1
100
AcDbPoint
 10
78.917245
 20
131.281615
 30
0.0
  0
LINE
  5
77
100
AcDbEntity
  8
1
  6
CONTINUOUS
100
AcDbLine
 10
78.817245
 20
131.741615
 30
0.0
 11
78.917245
 21
131.481615
 31
0.0
  0
LINE
  5
78
100
AcDbEntity
  8
1
  6
CONTINUOUS
100
AcDbLine
 10
78.917245
 20
131.741615
 30
0.0
 11
79.017245
 21
131.481615
 31
0.0
  0
LINE
  5
79
100
AcDbEntity
  8
1
  6
CONTINUOUS
100
AcDbLine
 10
77.997245
 20
131.481615
 30
0.0
 11
77.997245
 21
131.741615
 31
0.0
  0
LINE
  5
7A
100
AcDbEntity
  8
1
  6
CONTINUOUS
100
AcDbLine
 10
79.837245
 20
131.481615
 30
0.0
 11
79.837245
 21
131.741615
 31
0.0
  0
LINE
  5
7B
100
AcDbEntity
  8
1
  6
CONTINUOUS
100
AcDbLine
 10
79.837245
 20
131.741615
 30
0.0
 11
77.997245
 21
131.741615
 31
0.0
  0
LINE
  5
7C
100
AcDbEntity
  8
1
  6
CONTINUOUS
100
AcDbLine
 10
79.917245
 20
131.281615
 30
0.0
 11
77.917245
 21
131.281615
 31
0.0
  0
LINE
  5
7D
100
AcDbEntity
  8
1
  6
CONTINUOUS
100
AcDbLine
 10
77.917245
 20
131.481615
 30
0.0
 11
77.917245
 21
131.281615
 31
0.0
  0
LINE
  5
7E
100
AcDbEntity
  8
1
  6
CONTINUOUS
100
AcDbLine
 10
79.917245
 20
131.481615
 30
0.0
 11
79.917245
 21
131.281615
 31
0.0
  0
LINE
  5
7F
100
AcDbEntity
  8
1
  6
CONTINUOUS
100
AcDbLine
 10
78.917245
 20
132.401615
 30
0.0
 11
78.697245
 21
132.181615
 31
0.0
  0
LINE
  5
80
100
AcDbEntity
  8
1
  6
CONTINUOUS
100
AcDbLine
 10
78.917245
 20
132.401615
 30
0.0
 11
79.137245
 21
132.181615
 31
0.0
  0
ARC
  5
81
100
AcDbEntity
  8
1
  6
CONTINUOUS
100
AcDbCircle
 10
79.473245
 20
132.005615
 30
0.0
 40
0.32
100
AcDbArc
 50
5.0
 51
74.506
  0
ARC
  5
82
100
AcDbEntity
  8
1
  6
CONTINUOUS
100
AcDbCircle
 10
78.361245
 20
132.005615
 30
0.0
 40
0.32
100
AcDbArc
 50
105.494
 51
175.0
  0
LINE
  5
83
100
AcDbEntity
  8
1
  6
CONTINUOUS
100
AcDbLine
 10
79.917245
 20
131.481615
 30
0.0
 11
77.917245
 21
131.481615
 31
0.0
  0
LINE
  5
84
100
AcDbEntity
  8
1
  6
CONTINUOUS
100
AcDbLine
 10
78.042245
 20
132.033615
 30
0.0
 11
78.017245
 21
131.741615
 31
0.0
  0
LINE
  5
85
100
AcDbEntity
  8
1
  6
CONTINUOUS
100
AcDbLine
 10
79.791245
 20
132.033615
 30
0.0
 11
79.817245
 21
131.741615
 31
0.0
  0
ARC
  5
86
100
AcDbEntity
  8
1
  6
CONTINUOUS
100
AcDbCircle
 10
78.917245
 20
130.001615
 30
0.0
 40
2.4
100
AcDbArc
 50
74.462
 51
105.522
  0
POINT
  5
87
100
AcDbEntity
  8
1
100
AcDbPoint
 10
148.544245
 20
101.098615
 30
0.0
  0
LINE
  5
88
100
AcDbEntity
  8
1
  6
CONTINUOUS
100
AcDbLine
 10
148.084245
 20
100.998615
 30
0.0
 11
148.344245
 21
101.098615
 31
0.0
  0
LINE
  5
89
100
AcDbEntity
  8
1
  6
CONTINUOUS
100
AcDbLine
 10
148.084245
 20
101.098615
 30
0.0
 11
148.344245
 21
101.198615
 31
0.0
  0
LINE
  5
8A
100
AcDbEntity
  8
1
  6
CONTINUOUS
100
AcDbLine
 10
148.344245
 20
100.178615
 30
0.0
 11
148.084245
 21
100.178615
 31
0.0
  0
LINE
  5
8B
100
AcDbEntity
  8
1
  6
CONTINUOUS
100
AcDbLine
 10
148.344245
 20
102.018615
 30
0.0
 11
148.084245
 21
102.018615
 31
0.0
  0
LINE
  5
8C
100
AcDbEntity
  8
1
  6
CONTINUOUS
100
AcDbLine
 10
148.084245
 20
102.018615
 30
0.0
 11
148.084245
 21
100.178615
 31
0.0
  0
LINE
  5
8D
100
AcDbEntity
  8
1
  6
CONTINUOUS
100
AcDbLine
 10
148.544245
 20
102.098615
 30
0.0
 11
148.544245
 21
100.098615
 31
0.0
  0
LINE
  5
8E
100
AcDbEntity
  8
1
  6
CONTINUOUS
100
AcDbLine
 10
148.344245
 20
100.098615
 30
0.0
 11
148.544245
 21
100.098615
 31
0.0
  0
LINE
  5
8F
100
AcDbEntity
  8
1
  6
CONTINUOUS
100
AcDbLine
 10
148.344245
 20
102.098615
 30
0.0
 11
148.544245
 21
102.098615
 31
0.0
  0
LINE
  5
90
100
AcDbEntity
  8
1
  6
CONTINUOUS
100
AcDbLine
 10
147.424245
 20
101.098615
 30
0.0
 11
147.644245
 21
100.878615
 31
0.0
  0
LINE
  5
91
100
AcDbEntity
  8
1
  6
CONTINUOUS
100
AcDbLine
 10
147.424245
 20
101.098615
 30
0.0
 11
147.644245
 21
101.318615
 31
0.0
  0
ARC
  5
92
100
AcDbEntity
  8
1
  6
CONTINUOUS
100
AcDbCircle
 10
147.819245
 20
101.653615
 30
0.0
 40
0.32
100
AcDbArc
 50
95.0
 51
164.506
  0
ARC
  5
93
100
AcDbEntity
  8
1
  6
CONTINUOUS
100
AcDbCircle
 10
147.819245
 20
100.542615
 30
0.0
 40
0.32
100
AcDbArc
 50
195.494
 51
265.0
  0
LINE
  5
94
100
AcDbEntity
  8
1
  6
CONTINUOUS
100
AcDbLine
 10
148.344245
 20
102.098615
 30
0.0
 11
148.344245
 21
100.098615
 31
0.0
  0
LINE
  5
95
100
AcDbEntity
  8
1
  6
CONTINUOUS
100
AcDbLine
 10
147.791245
 20
100.223615
 30
0.0
 11
148.084245
 21
100.198615
 31
0.0
  0
LINE
  5
96
100
AcDbEntity
  8
1
  6
CONTINUOUS
100
AcDbLine
 10
147.791245
 20
101.972615
 30
0.0
 11
148.084245
 21
101.998615
 31
0.0
  0
ARC
  5
97
100
AcDbEntity
  8
1
  6
CONTINUOUS
100
AcDbCircle
 10
149.824245
 20
101.098615
 30
0.0
 40
2.4
100
AcDbArc
 50
164.462
 51
195.522
  0
POINT
  5
98
100
AcDbEntity
  8
1
100
AcDbPoint
 10
148.544245
 20
105.098615
 30
0.0
  0
LINE
  5
99
100
AcDbEntity
  8
1
  6
CONTINUOUS
100
AcDbLine
 10
148.084245
 20
104.998615
 30
0.0
 11
148.344245
 21
105.098615
 31
0.0
  0
LINE
  5
9A
100
AcDbEntity
  8
1
  6
CONTINUOUS
100
AcDbLine
 10
148.084245
 20
105.098615
 30
0.0
 11
148.344245
 21
105.198615
 31
0.0
  0
LINE
  5
9B
100
AcDbEntity
  8
1
  6
CONTINUOUS
100
AcDbLine
 10
148.344245
 20
104.178615
 30
0.0
 11
148.084245
 21
104.178615
 31
0.0
  0
LINE
  5
9C
100
AcDbEntity
  8
1
  6
CONTINUOUS
100
AcDbLine
 10
148.344245
 20
106.018615
 30
0.0
 11
148.084245
 21
106.018615
 31
0.0
  0
LINE
  5
9D
100
AcDbEntity
  8
1
  6
CONTINUOUS
100
AcDbLine
 10
148.084245
 20
106.018615
 30
0.0
 11
148.084245
 21
104.178615
 31
0.0
  0
LINE
  5
9E
100
AcDbEntity
  8
1
  6
CONTINUOUS
100
AcDbLine
 10
148.544245
 20
106.098615
 30
0.0
 11
148.544245
 21
104.098615
 31
0.0
  0
LINE
  5
9F
100
AcDbEntity
  8
1
  6
CONTINUOUS
100
AcDbLine
 10
148.344245
 20
104.098615
 30
0.0
 11
148.544245
 21
104.098615
 31
0.0
  0
LINE
  5
A0
100
AcDbEntity
  8
1
  6
CONTINUOUS
100
AcDbLine
 10
148.344245
 20
106.098615
 30
0.0
 11
148.544245
 21
106.098615
 31
0.0
  0
LINE
  5
A1
100
AcDbEntity
  8
1
  6
CONTINUOUS
100
AcDbLine
 10
147.424245
 20
105.098615
 30
0.0
 11
147.644245
 21
104.878615
 31
0.0
  0
LINE
  5
A2
100
AcDbEntity
  8
1
  6
CONTINUOUS
100
AcDbLine
 10
147.424245
 20
105.098615
 30
0.0
 11
147.644245
 21
105.318615
 31
0.0
  0
ARC
  5
A3
100
AcDbEntity
  8
1
  6
CONTINUOUS
100
AcDbCircle
 10
147.819245
 20
105.653615
 30
0.0
 40
0.32
100
AcDbArc
 50
95.0
 51
164.506
  0
ARC
  5
A4
100
AcDbEntity
  8
1
  6
CONTINUOUS
100
AcDbCircle
 10
147.819245
 20
104.542615
 30
0.0
 40
0.32
100
AcDbArc
 50
195.494
 51
265.0
  0
LINE
  5
A5
100
AcDbEntity
  8
1
  6
CONTINUOUS
100
AcDbLine
 10
148.344245
 20
106.098615
 30
0.0
 11
148.344245
 21
104.098615
 31
0.0
  0
LINE
  5
A6
100
AcDbEntity
  8
1
  6
CONTINUOUS
100
AcDbLine
 10
147.791245
 20
104.223615
 30
0.0
 11
148.084245
 21
104.198615
 31
0.0
  0
LINE
  5
A7
100
AcDbEntity
  8
1
  6
CONTINUOUS
100
AcDbLine
 10
147.791245
 20
105.972615
 30
0.0
 11
148.084245
 21
105.998615
 31
0.0
  0
ARC
  5
A8
100
AcDbEntity
  8
1
  6
CONTINUOUS
100
AcDbCircle
 10
149.824245
 20
105.098615
 30
0.0
 40
2.4
100
AcDbArc
 50
164.462
 51
195.522
  0
POINT
  5
A9
100
AcDbEntity
  8
1
100
AcDbPoint
 10
160.544245
 20
101.098615
 30
0.0
  0
LINE
  5
AA
100
AcDbEntity
  8
1
  6
CONTINUOUS
100
AcDbLine
 10
161.004245
 20
100.998615
 30
0.0
 11
160.744245
 21
101.098615
 31
0.0
  0
LINE
  5
AB
100
AcDbEntity
  8
1
  6
CONTINUOUS
100
AcDbLine
 10
161.004245
 20
101.098615
 30
0.0
 11
160.744245
 21
101.198615
 31
0.0
  0
LINE
  5
AC
100
AcDbEntity
  8
1
  6
CONTINUOUS
100
AcDbLine
 10
160.744245
 20
100.178615
 30
0.0
 11
161.004245
 21
100.178615
 31
0.0
  0
LINE
  5
AD
100
AcDbEntity
  8
1
  6
CONTINUOUS
100
AcDbLine
 10
160.744245
 20
102.018615
 30
0.0
 11
161.004245
 21
102.018615
 31
0.0
  0
LINE
  5
AE
100
AcDbEntity
  8
1
  6
CONTINUOUS
100
AcDbLine
 10
161.004245
 20
102.018615
 30
0.0
 11
161.004245
 21
100.178615
 31
0.0
  0
LINE
  5
AF
100
AcDbEntity
  8
1
  6
CONTINUOUS
100
AcDbLine
 10
160.544245
 20
102.098615
 30
0.0
 11
160.544245
 21
100.098615
 31
0.0
  0
LINE
  5
B0
100
AcDbEntity
  8
1
  6
CONTINUOUS
100
AcDbLine
 10
160.744245
 20
100.098615
 30
0.0
 11
160.544245
 21
100.098615
 31
0.0
  0
LINE
  5
B1
100
AcDbEntity
  8
1
  6
CONTINUOUS
100
AcDbLine
 10
160.744245
 20
102.098615
 30
0.0
 11
160.544245
 21
102.098615
 31
0.0
  0
LINE
  5
B2
100
AcDbEntity
  8
1
  6
CONTINUOUS
100
AcDbLine
 10
161.664245
 20
101.098615
 30
0.0
 11
161.444245
 21
100.878615
 31
0.0
  0
LINE
  5
B3
100
AcDbEntity
  8
1
  6
CONTINUOUS
100
AcDbLine
 10
161.664245
 20
101.098615
 30
0.0
 11
161.444245
 21
101.318615
 31
0.0
  0
ARC
  5
B4
100
AcDbEntity
  8
1
  6
CONTINUOUS
100
AcDbCircle
 10
161.268245
 20
101.653615
 30
0.0
 40
0.32
100
AcDbArc
 50
15.494
 51
85.0
  0
ARC
  5
B5
100
AcDbEntity
  8
1
  6
CONTINUOUS
100
AcDbCircle
 10
161.268245
 20
100.542615
 30
0.0
 40
0.32
100
AcDbArc
 50
275.0
 51
344.506
  0
LINE
  5
B6
100
AcDbEntity
  8
1
  6
CONTINUOUS
100
AcDbLine
 10
160.744245
 20
102.098615
 30
0.0
 11
160.744245
 21
100.098615
 31
0.0
  0
LINE
  5
B7
100
AcDbEntity
  8
1
  6
CONTINUOUS
100
AcDbLine
 10
161.296245
 20
100.223615
 30
0.0
 11
161.004245
 21
100.198615
 31
0.0
  0
LINE
  5
B8
100
AcDbEntity
  8
1
  6
CONTINUOUS
100
AcDbLine
 10
161.296245
 20
101.972615
 30
0.0
 11
161.004245
 21
101.998615
 31
0.0
  0
ARC
  5
B9
100
AcDbEntity
  8
1
  6
CONTINUOUS
100
AcDbCircle
 10
159.264245
 20
101.098615
 30
0.0
 40
2.4
100
AcDbArc
 50
344.478
 51
15.538
  0
POINT
  5
BA
100
AcDbEntity
  8
1
100
AcDbPoint
 10
160.544245
 20
105.098615
 30
0.0
  0
LINE
  5
BB
100
AcDbEntity
  8
1
  6
CONTINUOUS
100
AcDbLine
 10
161.004245
 20
104.998615
 30
0.0
 11
160.744245
 21
105.098615
 31
0.0
  0
LINE
  5
BC
100
AcDbEntity
  8
1
  6
CONTINUOUS
100
AcDbLine
 10
161.004245
 20
105.098615
 30
0.0
 11
160.744245
 21
105.198615
 31
0.0
  0
LINE
  5
BD
100
AcDbEntity
  8
1
  6
CONTINUOUS
100
AcDbLine
 10
160.744245
 20
104.178615
 30
0.0
 11
161.004245
 21
104.178615
 31
0.0
  0
LINE
  5
BE
100
AcDbEntity
  8
1
  6
CONTINUOUS
100
AcDbLine
 10
160.744245
 20
106.018615
 30
0.0
 11
161.004245
 21
106.018615
 31
0.0
  0
LINE
  5
BF
100
AcDbEntity
  8
1
  6
CONTINUOUS
100
AcDbLine
 10
161.004245
 20
106.018615
 30
0.0
 11
161.004245
 21
104.178615
 31
0.0
  0
LINE
  5
C0
100
AcDbEntity
  8
1
  6
CONTINUOUS
100
AcDbLine
 10
160.544245
 20
106.098615
 30
0.0
 11
160.544245
 21
104.098615
 31
0.0
  0
LINE
  5
C1
100
AcDbEntity
  8
1
  6
CONTINUOUS
100
AcDbLine
 10
160.744245
 20
104.098615
 30
0.0
 11
160.544245
 21
104.098615
 31
0.0
  0
LINE
  5
C2
100
AcDbEntity
  8
1
  6
CONTINUOUS
100
AcDbLine
 10
160.744245
 20
106.098615
 30
0.0
 11
160.544245
 21
106.098615
 31
0.0
  0
LINE
  5
C3
100
AcDbEntity
  8
1
  6
CONTINUOUS
100
AcDbLine
 10
161.664245
 20
105.098615
 30
0.0
 11
161.444245
 21
104.878615
 31
0.0
  0
LINE
  5
C4
100
AcDbEntity
  8
1
  6
CONTINUOUS
100
AcDbLine
 10
161.664245
 20
105.098615
 30
0.0
 11
161.444245
 21
105.318615
 31
0.0
  0
ARC
  5
C5
100
AcDbEntity
  8
1
  6
CONTINUOUS
100
AcDbCircle
 10
161.268245
 20
105.653615
 30
0.0
 40
0.32
100
AcDbArc
 50
15.494
 51
85.0
  0
ARC
  5
C6
100
AcDbEntity
  8
1
  6
CONTINUOUS
100
AcDbCircle
 10
161.268245
 20
104.542615
 30
0.0
 40
0.32
100
AcDbArc
 50
275.0
 51
344.506
  0
LINE
  5
C7
100
AcDbEntity
  8
1
  6
CONTINUOUS
100
AcDbLine
 10
160.744245
 20
106.098615
 30
0.0
 11
160.744245
 21
104.098615
 31
0.0
  0
LINE
  5
C8
100
AcDbEntity
  8
1
  6
CONTINUOUS
100
AcDbLine
 10
161.296245
 20
104.223615
 30
0.0
 11
161.004245
 21
104.198615
 31
0.0
  0
LINE
  5
C9
100
AcDbEntity
  8
1
  6
CONTINUOUS
100
AcDbLine
 10
161.296245
 20
105.972615
 30
0.0
 11
161.004245
 21
105.998615
 31
0.0
  0
ARC
  5
CA
100
AcDbEntity
  8
1
  6
CONTINUOUS
100
AcDbCircle
 10
159.264245
 20
105.098615
 30
0.0
 40
2.4
100
AcDbArc
 50
344.478
 51
15.538
  0
TEXT
  5
CB
100
AcDbEntity
  8
1
100
AcDbText
 10
183.594245
 20
79.884615
 30
0.0
 40
2.0
  1
265
 50
90.0
  7
KANJI
100
AcDbText
  0
LINE
  5
CC
100
AcDbEntity
  8
1
  6
CONTINUOUS
100
AcDbLine
 10
160.237245
 20
107.298615
 30
0.0
 11
185.994245
 21
107.298615
 31
0.0
  0
LINE
  5
CD
100
AcDbEntity
  8
1
  6
CONTINUOUS
100
AcDbLine
 10
165.344245
 20
54.418615
 30
0.0
 11
185.994245
 21
54.418615
 31
0.0
  0
LINE
  5
CE
100
AcDbEntity
  8
1
  6
CONTINUOUS
100
AcDbLine
 10
184.394245
 20
107.298615
 30
0.0
 11
184.394245
 21
54.418615
 31
0.0
  0
LINE
  5
CF
100
AcDbEntity
  8
1
  6
CONTINUOUS
100
AcDbLine
 10
184.394245
 20
107.298615
 30
0.0
 11
184.809245
 21
105.752615
 31
0.0
  0
LINE
  5
D0
100
AcDbEntity
  8
1
  6
CONTINUOUS
100
AcDbLine
 10
184.394245
 20
107.298615
 30
0.0
 11
183.981245
 21
105.752615
 31
0.0
  0
LINE
  5
D1
100
AcDbEntity
  8
1
  6
CONTINUOUS
100
AcDbLine
 10
184.394245
 20
54.418615
 30
0.0
 11
183.981245
 21
55.963615
 31
0.0
  0
LINE
  5
D2
100
AcDbEntity
  8
1
  6
CONTINUOUS
100
AcDbLine
 10
184.394245
 20
54.418615
 30
0.0
 11
184.809245
 21
55.963615
 31
0.0
  0
TEXT
  5
D3
100
AcDbEntity
  8
1
100
AcDbText
 10
172.833245
 20
147.458615
 30
0.0
 40
2.24
  1
調整角度範囲
 41
0.843
  7
KANJI
100
AcDbText
  0
TEXT
  5
D4
100
AcDbEntity
  8
1
100
AcDbText
 10
185.314245
 20
142.915615
 30
0.0
 40
1.52
  1
0゜
 41
0.665
  7
KANJI
100
AcDbText
  0
TEXT
  5
D5
100
AcDbEntity
  8
1
100
AcDbText
 10
184.106245
 20
140.950615
 30
0.0
 40
1.52
  1
60゜
 41
0.701
  7
KANJI
100
AcDbText
  0
TEXT
  5
D6
100
AcDbEntity
  8
1
100
AcDbText
 10
177.667245
 20
141.015615
 30
0.0
 40
1.52
  1
下向き
 41
0.775
  7
KANJI
100
AcDbText
  0
TEXT
  5
D7
100
AcDbEntity
  8
1
100
AcDbText
 10
177.667245
 20
142.998615
 30
0.0
 40
1.52
  1
上向き
 41
0.775
  7
KANJI
100
AcDbText
  0
TEXT
  5
D8
100
AcDbEntity
  8
1
100
AcDbText
 10
181.112245
 20
144.821615
 30
0.0
 40
1.52
  1
垂直
 41
0.724
  7
KANJI
100
AcDbText
  0
LINE
  5
D9
100
AcDbEntity
  8
1
  6
CONTINUOUS
100
AcDbLine
 10
182.594245
 20
142.602615
 30
0.0
 11
182.594245
 21
144.602615
 31
0.0
  0
TEXT
  5
DA
100
AcDbEntity
  8
1
100
AcDbText
 10
171.793245
 20
141.812615
 30
0.0
 40
1.52
  1
±90゜
 41
0.749
  7
KANJI
100
AcDbText
  0
LINE
  5
DB
100
AcDbEntity
  8
1
  6
CONTINUOUS
100
AcDbLine
 10
182.594245
 20
140.602615
 30
0.0
 11
182.594245
 21
144.602615
 31
0.0
  0
LINE
  5
DC
100
AcDbEntity
  8
1
  6
CONTINUOUS
100
AcDbLine
 10
170.594245
 20
150.602615
 30
0.0
 11
188.594245
 21
150.602615
 31
0.0
  0
LINE
  5
DD
100
AcDbEntity
  8
1
  6
CONTINUOUS
100
AcDbLine
 10
188.594245
 20
142.602615
 30
0.0
 11
176.594245
 21
142.602615
 31
0.0
  0
LINE
  5
DE
100
AcDbEntity
  8
1
  6
CONTINUOUS
100
AcDbLine
 10
170.594245
 20
140.602615
 30
0.0
 11
170.594245
 21
150.602615
 31
0.0
  0
LINE
  5
DF
100
AcDbEntity
  8
1
  6
CONTINUOUS
100
AcDbLine
 10
188.594245
 20
140.602615
 30
0.0
 11
188.594245
 21
150.602615
 31
0.0
  0
LINE
  5
E0
100
AcDbEntity
  8
1
  6
CONTINUOUS
100
AcDbLine
 10
176.594245
 20
140.602615
 30
0.0
 11
176.594245
 21
144.602615
 31
0.0
  0
LINE
  5
E1
100
AcDbEntity
  8
1
  6
CONTINUOUS
100
AcDbLine
 10
188.594245
 20
140.602615
 30
0.0
 11
170.594245
 21
140.602615
 31
0.0
  0
LINE
  5
E2
100
AcDbEntity
  8
1
  6
CONTINUOUS
100
AcDbLine
 10
170.594245
 20
146.602615
 30
0.0
 11
188.594245
 21
146.602615
 31
0.0
  0
LINE
  5
E3
100
AcDbEntity
  8
1
  6
CONTINUOUS
100
AcDbLine
 10
176.594245
 20
144.602615
 30
0.0
 11
188.594245
 21
144.602615
 31
0.0
  0
LINE
  5
E4
100
AcDbEntity
  8
1
  6
CONTINUOUS
100
AcDbLine
 10
170.594245
 20
144.602615
 30
0.0
 11
182.594245
 21
144.602615
 31
0.0
  0
TEXT
  5
E5
100
AcDbEntity
  8
1
100
AcDbText
 10
172.282245
 20
144.814615
 30
0.0
 40
1.52
  1
水平
 41
0.724
  7
KANJI
100
AcDbText
  0
LINE
  5
E6
100
AcDbEntity
  8
1
  6
CONTINUOUS
100
AcDbLine
 10
176.594245
 20
142.602615
 30
0.0
 11
176.594245
 21
146.602615
 31
0.0
  0
LINE
  5
E7
100
AcDbEntity
  8
1
  6
CONTINUOUS
100
AcDbLine
 10
185.122245
 20
112.456615
 30
0.0
 11
160.402245
 21
112.456615
 31
0.0
  0
LINE
  5
E8
100
AcDbEntity
  8
1
  6
CONTINUOUS
100
AcDbLine
 10
160.402245
 20
112.456615
 30
0.0
 11
155.442245
 21
107.298615
 31
0.0
  0
LINE
  5
E9
100
AcDbEntity
  8
1
  6
CONTINUOUS
100
AcDbLine
 10
155.442245
 20
107.298615
 30
0.0
 11
156.215245
 21
108.699615
 31
0.0
  0
LINE
  5
EA
100
AcDbEntity
  8
1
  6
CONTINUOUS
100
AcDbLine
 10
155.442245
 20
107.298615
 30
0.0
 11
156.812245
 21
108.125615
 31
0.0
  0
TEXT
  5
EB
100
AcDbEntity
  8
1
100
AcDbText
 10
164.002245
 20
113.256615
 30
0.0
 40
2.24
  1
�ｴ�ﾐ�ﾕ�ｷ-�ｻ�ﾊ�ﾜ�ﾕ�ｷ�ｭ�ﾂ
 41
0.767
  7
KANJI
100
AcDbText
  0
LINE
  5
EC
100
AcDbEntity
  8
1
  6
CONTINUOUS
100
AcDbLine
 10
157.641245
 20
97.798615
 30
0.0
 11
157.641245
 21
97.498615
 31
0.0
  0
LINE
  5
ED
100
AcDbEntity
  8
1
  6
CONTINUOUS
100
AcDbLine
 10
157.641245
 20
97.798615
 30
0.0
 11
156.441245
 21
97.798615
 31
0.0
  0
LINE
  5
EE
100
AcDbEntity
  8
1
  6
CONTINUOUS
100
AcDbLine
 10
156.441245
 20
97.798615
 30
0.0
 11
156.441245
 21
97.498615
 31
0.0
  0
ARC
  5
EF
100
AcDbEntity
  8
1
  6
CONTINUOUS
100
AcDbCircle
 10
157.741245
 20
97.498615
 30
0.0
 40
0.1
100
AcDbArc
 50
180.0
 51
270.0
  0
ARC
  5
F0
100
AcDbEntity
  8
1
  6
CONTINUOUS
100
AcDbCircle
 10
156.341245
 20
97.498615
 30
0.0
 40
0.1
100
AcDbArc
 50
270.0
 51
0.0
  0
LINE
  5
F1
100
AcDbEntity
  8
1
  6
CONTINUOUS
100
AcDbLine
 10
157.401245
 20
97.798615
 30
0.0
 11
157.401245
 21
98.398615
 31
0.0
  0
LINE
  5
F2
100
AcDbEntity
  8
1
  6
CONTINUOUS
100
AcDbLine
 10
156.681245
 20
97.798615
 30
0.0
 11
156.681245
 21
98.398615
 31
0.0
  0
LINE
  5
F3
100
AcDbEntity
  8
1
  6
CONTINUOUS
100
AcDbLine
 10
157.541245
 20
97.798615
 30
0.0
 11
157.541245
 21
98.398615
 31
0.0
  0
LINE
  5
F4
100
AcDbEntity
  8
1
  6
CONTINUOUS
100
AcDbLine
 10
156.541245
 20
97.798615
 30
0.0
 11
156.541245
 21
98.398615
 31
0.0
  0
LINE
  5
F5
100
AcDbEntity
  8
1
  6
CONTINUOUS
100
AcDbLine
 10
157.541245
 20
98.398615
 30
0.0
 11
156.541245
 21
98.398615
 31
0.0
  0
LINE
  5
F6
100
AcDbEntity
  8
1
  6
CONTINUOUS
100
AcDbLine
 10
152.641245
 20
97.798615
 30
0.0
 11
152.641245
 21
97.498615
 31
0.0
  0
LINE
  5
F7
100
AcDbEntity
  8
1
  6
CONTINUOUS
100
AcDbLine
 10
152.641245
 20
97.798615
 30
0.0
 11
151.441245
 21
97.798615
 31
0.0
  0
LINE
  5
F8
100
AcDbEntity
  8
1
  6
CONTINUOUS
100
AcDbLine
 10
151.441245
 20
97.798615
 30
0.0
 11
151.441245
 21
97.498615
 31
0.0
  0
ARC
  5
F9
100
AcDbEntity
  8
1
  6
CONTINUOUS
100
AcDbCircle
 10
152.741245
 20
97.498615
 30
0.0
 40
0.1
100
AcDbArc
 50
180.0
 51
270.0
  0
ARC
  5
FA
100
AcDbEntity
  8
1
  6
CONTINUOUS
100
AcDbCircle
 10
151.341245
 20
97.498615
 30
0.0
 40
0.1
100
AcDbArc
 50
270.0
 51
0.0
  0
LINE
  5
FB
100
AcDbEntity
  8
1
  6
CONTINUOUS
100
AcDbLine
 10
152.401245
 20
97.798615
 30
0.0
 11
152.401245
 21
98.398615
 31
0.0
  0
LINE
  5
FC
100
AcDbEntity
  8
1
  6
CONTINUOUS
100
AcDbLine
 10
151.681245
 20
97.798615
 30
0.0
 11
151.681245
 21
98.398615
 31
0.0
  0
LINE
  5
FD
100
AcDbEntity
  8
1
  6
CONTINUOUS
100
AcDbLine
 10
152.541245
 20
97.798615
 30
0.0
 11
152.541245
 21
98.398615
 31
0.0
  0
LINE
  5
FE
100
AcDbEntity
  8
1
  6
CONTINUOUS
100
AcDbLine
 10
151.541245
 20
97.798615
 30
0.0
 11
151.541245
 21
98.398615
 31
0.0
  0
LINE
  5
FF
100
AcDbEntity
  8
1
  6
CONTINUOUS
100
AcDbLine
 10
152.541245
 20
98.398615
 30
0.0
 11
151.541245
 21
98.398615
 31
0.0
  0
TEXT
  5
100
100
AcDbEntity
  8
1
100
AcDbText
 10
79.299245
 20
110.790615
 30
0.0
 40
2.24
  1
69
 41
0.429
  7
KANJI
100
AcDbText
  0
LINE
  5
101
100
AcDbEntity
  8
1
  6
CONTINUOUS
100
AcDbLine
 10
72.017245
 20
108.098615
 30
0.0
 11
72.017245
 21
111.590615
 31
0.0
  0
LINE
  5
102
100
AcDbEntity
  8
1
  6
CONTINUOUS
100
AcDbLine
 10
85.817245
 20
108.098615
 30
0.0
 11
85.817245
 21
111.590615
 31
0.0
  0
LINE
  5
103
100
AcDbEntity
  8
1
  6
CONTINUOUS
100
AcDbLine
 10
72.017245
 20
109.990615
 30
0.0
 11
85.817245
 21
109.990615
 31
0.0
  0
LINE
  5
104
100
AcDbEntity
  8
1
  6
CONTINUOUS
100
AcDbLine
 10
72.017245
 20
109.990615
 30
0.0
 11
73.562245
 21
110.404615
 31
0.0
  0
LINE
  5
105
100
AcDbEntity
  8
1
  6
CONTINUOUS
100
AcDbLine
 10
72.017245
 20
109.990615
 30
0.0
 11
73.562245
 21
109.576615
 31
0.0
  0
LINE
  5
106
100
AcDbEntity
  8
1
  6
CONTINUOUS
100
AcDbLine
 10
85.817245
 20
109.990615
 30
0.0
 11
84.271245
 21
109.576615
 31
0.0
  0
LINE
  5
107
100
AcDbEntity
  8
1
  6
CONTINUOUS
100
AcDbLine
 10
85.817245
 20
109.990615
 30
0.0
 11
84.271245
 21
110.404615
 31
0.0
  0
TEXT
  5
108
100
AcDbEntity
  8
1
100
AcDbText
 10
62.889245
 20
124.321615
 30
0.0
 40
2.24
  1
55
 50
90.0
 41
0.429
  7
KANJI
100
AcDbText
  0
LINE
  5
109
100
AcDbEntity
  8
1
  6
CONTINUOUS
100
AcDbLine
 10
71.217245
 20
130.781615
 30
0.0
 11
62.089245
 21
130.781615
 31
0.0
  0
LINE
  5
10A
100
AcDbEntity
  8
1
  6
CONTINUOUS
100
AcDbLine
 10
71.217245
 20
119.781615
 30
0.0
 11
62.089245
 21
119.781615
 31
0.0
  0
LINE
  5
10B
100
AcDbEntity
  8
1
  6
CONTINUOUS
100
AcDbLine
 10
63.689245
 20
130.781615
 30
0.0
 11
63.689245
 21
119.781615
 31
0.0
  0
LINE
  5
10C
100
AcDbEntity
  8
1
  6
CONTINUOUS
100
AcDbLine
 10
63.689245
 20
130.781615
 30
0.0
 11
64.103245
 21
129.235615
 31
0.0
  0
LINE
  5
10D
100
AcDbEntity
  8
1
  6
CONTINUOUS
100
AcDbLine
 10
63.689245
 20
130.781615
 30
0.0
 11
63.275245
 21
129.235615
 31
0.0
  0
LINE
  5
10E
100
AcDbEntity
  8
1
  6
CONTINUOUS
100
AcDbLine
 10
63.689245
 20
119.781615
 30
0.0
 11
63.275245
 21
121.326615
 31
0.0
  0
LINE
  5
10F
100
AcDbEntity
  8
1
  6
CONTINUOUS
100
AcDbLine
 10
63.689245
 20
119.781615
 30
0.0
 11
64.103245
 21
121.326615
 31
0.0
  0
TEXT
  5
110
100
AcDbEntity
  8
1
100
AcDbText
 10
96.053245
 20
110.545615
 30
0.0
 40
2.24
  1
�ｴ�ﾐ�ﾕ�ｷ-�ｻ取付穴
 41
0.789
  7
KANJI
100
AcDbText
  0
LINE
  5
111
100
AcDbEntity
  8
1
  6
CONTINUOUS
100
AcDbLine
 10
109.188245
 20
113.183615
 30
0.0
 11
95.508245
 21
113.183615
 31
0.0
  0
LINE
  5
112
100
AcDbEntity
  8
1
  6
CONTINUOUS
100
AcDbLine
 10
95.508245
 20
113.183615
 30
0.0
 11
83.349245
 21
124.865615
 31
0.0
  0
LINE
  5
113
100
AcDbEntity
  8
1
  6
CONTINUOUS
100
AcDbLine
 10
83.349245
 20
124.865615
 30
0.0
 11
84.751245
 21
124.093615
 31
0.0
  0
LINE
  5
114
100
AcDbEntity
  8
1
  6
CONTINUOUS
100
AcDbLine
 10
83.349245
 20
124.865615
 30
0.0
 11
84.177245
 21
123.495615
 31
0.0
  0
TEXT
  5
115
100
AcDbEntity
  8
1
100
AcDbText
 10
99.108245
 20
113.983615
 30
0.0
 40
2.24
  1
2-φ6穴
 41
0.769
  7
KANJI
100
AcDbText
  0
TEXT
  5
116
100
AcDbEntity
  8
1
100
AcDbText
 10
94.593245
 20
144.882615
 30
0.0
 40
2.24
  1
254.5
 41
0.429
  7
KANJI
100
AcDbText
  0
LINE
  5
117
100
AcDbEntity
  8
1
  6
CONTINUOUS
100
AcDbLine
 10
122.917245
 20
137.081615
 30
0.0
 11
122.917245
 21
145.682615
 31
0.0
  0
LINE
  5
118
100
AcDbEntity
  8
1
  6
CONTINUOUS
100
AcDbLine
 10
72.017245
 20
133.081615
 30
0.0
 11
72.017245
 21
145.682615
 31
0.0
  0
LINE
  5
119
100
AcDbEntity
  8
1
  6
CONTINUOUS
100
AcDbLine
 10
122.917245
 20
144.082615
 30
0.0
 11
72.017245
 21
144.082615
 31
0.0
  0
LINE
  5
11A
100
AcDbEntity
  8
1
  6
CONTINUOUS
100
AcDbLine
 10
122.917245
 20
144.082615
 30
0.0
 11
121.371245
 21
143.668615
 31
0.0
  0
LINE
  5
11B
100
AcDbEntity
  8
1
  6
CONTINUOUS
100
AcDbLine
 10
122.917245
 20
144.082615
 30
0.0
 11
121.371245
 21
144.496615
 31
0.0
  0
LINE
  5
11C
100
AcDbEntity
  8
1
  6
CONTINUOUS
100
AcDbLine
 10
72.017245
 20
144.082615
 30
0.0
 11
73.562245
 21
144.496615
 31
0.0
  0
LINE
  5
11D
100
AcDbEntity
  8
1
  6
CONTINUOUS
100
AcDbLine
 10
72.017245
 20
144.082615
 30
0.0
 11
73.562245
 21
143.668615
 31
0.0
  0
LINE
  5
11E
100
AcDbEntity
  8
1
  6
CONTINUOUS
100
AcDbLine
 10
122.917245
 20
137.081615
 30
0.0
 11
122.917245
 21
139.441615
 31
0.0
  0
LINE
  5
11F
100
AcDbEntity
  8
1
  6
CONTINUOUS
100
AcDbLine
 10
165.344245
 20
54.418615
 30
0.0
 11
180.249245
 21
54.418615
 31
0.0
  0
LINE
  5
120
100
AcDbEntity
  8
1
  6
CONTINUOUS
100
AcDbLine
 10
165.344245
 20
54.418615
 30
0.0
 11
173.196245
 21
54.418615
 31
0.0
  0
TEXT
  5
121
100
AcDbEntity
  8
1
100
AcDbText
 10
153.253245
 20
42.722615
 30
0.0
 40
2.0
  1
110
  7
KANJI
100
AcDbText
  0
LINE
  5
122
100
AcDbEntity
  8
1
  6
CONTINUOUS
100
AcDbLine
 10
165.544245
 20
54.618615
 30
0.0
 11
165.544245
 21
40.322615
 31
0.0
  0
LINE
  5
123
100
AcDbEntity
  8
1
  6
CONTINUOUS
100
AcDbLine
 10
143.544245
 20
54.618615
 30
0.0
 11
143.544245
 21
40.322615
 31
0.0
  0
LINE
  5
124
100
AcDbEntity
  8
1
  6
CONTINUOUS
100
AcDbLine
 10
165.544245
 20
41.922615
 30
0.0
 11
143.544245
 21
41.922615
 31
0.0
  0
LINE
  5
125
100
AcDbEntity
  8
1
  6
CONTINUOUS
100
AcDbLine
 10
165.544245
 20
41.922615
 30
0.0
 11
163.998245
 21
41.508615
 31
0.0
  0
LINE
  5
126
100
AcDbEntity
  8
1
  6
CONTINUOUS
100
AcDbLine
 10
165.544245
 20
41.922615
 30
0.0
 11
163.998245
 21
42.336615
 31
0.0
  0
LINE
  5
127
100
AcDbEntity
  8
1
  6
CONTINUOUS
100
AcDbLine
 10
143.544245
 20
41.922615
 30
0.0
 11
145.089245
 21
42.336615
 31
0.0
  0
LINE
  5
128
100
AcDbEntity
  8
1
  6
CONTINUOUS
100
AcDbLine
 10
143.544245
 20
41.922615
 30
0.0
 11
145.089245
 21
41.508615
 31
0.0
  0
ARC
  5
129
100
AcDbEntity
  8
1
  6
CONTINUOUS
100
AcDbCircle
 10
78.917245
 20
101.098615
 30
0.0
 40
3.45
100
AcDbArc
 50
101.004
 51
150.0
  0
ARC
  5
12A
100
AcDbEntity
  8
1
  6
CONTINUOUS
100
AcDbCircle
 10
78.917245
 20
101.098615
 30
0.0
 40
4.55
100
AcDbArc
 50
99.579
 51
150.0
  0
LINE
  5
12B
100
AcDbEntity
  8
1
  6
CONTINUOUS
100
AcDbLine
 10
78.167245
 20
118.281615
 30
0.0
 11
72.017245
 21
118.281615
 31
0.0
  0
LINE
  5
12C
100
AcDbEntity
  8
1
  6
CONTINUOUS
100
AcDbLine
 10
78.198245
 20
132.281615
 30
0.0
 11
72.017245
 21
132.281615
 31
0.0
  0
LINE
  5
12D
100
AcDbEntity
  8
1
  6
CONTINUOUS
100
AcDbLine
 10
158.532245
 20
100.598615
 30
0.0
 11
158.532245
 21
101.598615
 31
0.0
  0
LINE
  5
12E
100
AcDbEntity
  8
1
  6
CONTINUOUS
100
AcDbLine
 10
159.132245
 20
101.598615
 30
0.0
 11
158.532245
 21
101.598615
 31
0.0
  0
LINE
  5
12F
100
AcDbEntity
  8
1
  6
CONTINUOUS
100
AcDbLine
 10
159.132245
 20
100.598615
 30
0.0
 11
158.532245
 21
100.598615
 31
0.0
  0
LINE
  5
130
100
AcDbEntity
  8
1
  6
CONTINUOUS
100
AcDbLine
 10
159.132245
 20
101.458615
 30
0.0
 11
158.532245
 21
101.458615
 31
0.0
  0
LINE
  5
131
100
AcDbEntity
  8
1
  6
CONTINUOUS
100
AcDbLine
 10
159.132245
 20
100.738615
 30
0.0
 11
158.532245
 21
100.738615
 31
0.0
  0
LINE
  5
132
100
AcDbEntity
  8
1
  6
CONTINUOUS
100
AcDbLine
 10
159.132245
 20
104.738615
 30
0.0
 11
158.532245
 21
104.738615
 31
0.0
  0
LINE
  5
133
100
AcDbEntity
  8
1
  6
CONTINUOUS
100
AcDbLine
 10
159.132245
 20
105.458615
 30
0.0
 11
158.532245
 21
105.458615
 31
0.0
  0
LINE
  5
134
100
AcDbEntity
  8
1
  6
CONTINUOUS
100
AcDbLine
 10
159.132245
 20
104.598615
 30
0.0
 11
158.532245
 21
104.598615
 31
0.0
  0
LINE
  5
135
100
AcDbEntity
  8
1
  6
CONTINUOUS
100
AcDbLine
 10
159.132245
 20
105.598615
 30
0.0
 11
158.532245
 21
105.598615
 31
0.0
  0
LINE
  5
136
100
AcDbEntity
  8
1
  6
CONTINUOUS
100
AcDbLine
 10
158.532245
 20
104.598615
 30
0.0
 11
158.532245
 21
105.598615
 31
0.0
  0
LINE
  5
137
100
AcDbEntity
  8
1
  6
CONTINUOUS
100
AcDbLine
 10
149.956245
 20
100.738615
 30
0.0
 11
150.556245
 21
100.738615
 31
0.0
  0
LINE
  5
138
100
AcDbEntity
  8
1
  6
CONTINUOUS
100
AcDbLine
 10
149.956245
 20
101.458615
 30
0.0
 11
150.556245
 21
101.458615
 31
0.0
  0
LINE
  5
139
100
AcDbEntity
  8
1
  6
CONTINUOUS
100
AcDbLine
 10
149.956245
 20
100.598615
 30
0.0
 11
150.556245
 21
100.598615
 31
0.0
  0
LINE
  5
13A
100
AcDbEntity
  8
1
  6
CONTINUOUS
100
AcDbLine
 10
149.956245
 20
101.598615
 30
0.0
 11
150.556245
 21
101.598615
 31
0.0
  0
LINE
  5
13B
100
AcDbEntity
  8
1
  6
CONTINUOUS
100
AcDbLine
 10
150.556245
 20
100.598615
 30
0.0
 11
150.556245
 21
101.598615
 31
0.0
  0
LINE
  5
13C
100
AcDbEntity
  8
1
  6
CONTINUOUS
100
AcDbLine
 10
149.956245
 20
104.738615
 30
0.0
 11
150.556245
 21
104.738615
 31
0.0
  0
LINE
  5
13D
100
AcDbEntity
  8
1
  6
CONTINUOUS
100
AcDbLine
 10
149.956245
 20
105.458615
 30
0.0
 11
150.556245
 21
105.458615
 31
0.0
  0
LINE
  5
13E
100
AcDbEntity
  8
1
  6
CONTINUOUS
100
AcDbLine
 10
150.556245
 20
104.598615
 30
0.0
 11
150.556245
 21
105.598615
 31
0.0
  0
LINE
  5
13F
100
AcDbEntity
  8
1
  6
CONTINUOUS
100
AcDbLine
 10
149.956245
 20
104.598615
 30
0.0
 11
150.556245
 21
104.598615
 31
0.0
  0
LINE
  5
140
100
AcDbEntity
  8
1
  6
CONTINUOUS
100
AcDbLine
 10
149.956245
 20
105.598615
 30
0.0
 11
150.556245
 21
105.598615
 31
0.0
  0
ARC
  5
141
100
AcDbEntity
  8
1
  6
CONTINUOUS
100
AcDbCircle
 10
159.432245
 20
101.798615
 30
0.0
 40
0.1
100
AcDbArc
 50
270.0
 51
0.0
  0
ARC
  5
142
100
AcDbEntity
  8
1
  6
CONTINUOUS
100
AcDbCircle
 10
159.432245
 20
100.398615
 30
0.0
 40
0.1
100
AcDbArc
 50
0.0
 51
90.0
  0
LINE
  5
143
100
AcDbEntity
  8
1
  6
CONTINUOUS
100
AcDbLine
 10
159.132245
 20
101.698615
 30
0.0
 11
159.432245
 21
101.698615
 31
0.0
  0
LINE
  5
144
100
AcDbEntity
  8
1
  6
CONTINUOUS
100
AcDbLine
 10
159.132245
 20
100.498615
 30
0.0
 11
159.132245
 21
101.698615
 31
0.0
  0
LINE
  5
145
100
AcDbEntity
  8
1
  6
CONTINUOUS
100
AcDbLine
 10
159.132245
 20
100.498615
 30
0.0
 11
159.432245
 21
100.498615
 31
0.0
  0
LINE
  5
146
100
AcDbEntity
  8
1
  6
CONTINUOUS
100
AcDbLine
 10
159.132245
 20
104.498615
 30
0.0
 11
159.432245
 21
104.498615
 31
0.0
  0
LINE
  5
147
100
AcDbEntity
  8
1
  6
CONTINUOUS
100
AcDbLine
 10
159.132245
 20
104.498615
 30
0.0
 11
159.132245
 21
105.698615
 31
0.0
  0
LINE
  5
148
100
AcDbEntity
  8
1
  6
CONTINUOUS
100
AcDbLine
 10
159.132245
 20
105.698615
 30
0.0
 11
159.432245
 21
105.698615
 31
0.0
  0
ARC
  5
149
100
AcDbEntity
  8
1
  6
CONTINUOUS
100
AcDbCircle
 10
159.432245
 20
104.398615
 30
0.0
 40
0.1
100
AcDbArc
 50
0.0
 51
90.0
  0
ARC
  5
14A
100
AcDbEntity
  8
1
  6
CONTINUOUS
100
AcDbCircle
 10
159.432245
 20
105.798615
 30
0.0
 40
0.1
100
AcDbArc
 50
270.0
 51
0.0
  0
LINE
  5
14B
100
AcDbEntity
  8
1
  6
CONTINUOUS
100
AcDbLine
 10
149.956245
 20
100.498615
 30
0.0
 11
149.656245
 21
100.498615
 31
0.0
  0
LINE
  5
14C
100
AcDbEntity
  8
1
  6
CONTINUOUS
100
AcDbLine
 10
149.956245
 20
100.498615
 30
0.0
 11
149.956245
 21
101.698615
 31
0.0
  0
LINE
  5
14D
100
AcDbEntity
  8
1
  6
CONTINUOUS
100
AcDbLine
 10
149.956245
 20
101.698615
 30
0.0
 11
149.656245
 21
101.698615
 31
0.0
  0
ARC
  5
14E
100
AcDbEntity
  8
1
  6
CONTINUOUS
100
AcDbCircle
 10
149.656245
 20
100.398615
 30
0.0
 40
0.1
100
AcDbArc
 50
90.0
 51
180.0
  0
ARC
  5
14F
100
AcDbEntity
  8
1
  6
CONTINUOUS
100
AcDbCircle
 10
149.656245
 20
101.798615
 30
0.0
 40
0.1
100
AcDbArc
 50
180.0
 51
270.0
  0
ARC
  5
150
100
AcDbEntity
  8
1
  6
CONTINUOUS
100
AcDbCircle
 10
149.656245
 20
104.398615
 30
0.0
 40
0.1
100
AcDbArc
 50
90.0
 51
180.0
  0
ARC
  5
151
100
AcDbEntity
  8
1
  6
CONTINUOUS
100
AcDbCircle
 10
149.656245
 20
105.798615
 30
0.0
 40
0.1
100
AcDbArc
 50
180.0
 51
270.0
  0
LINE
  5
152
100
AcDbEntity
  8
1
  6
CONTINUOUS
100
AcDbLine
 10
149.956245
 20
104.498615
 30
0.0
 11
149.656245
 21
104.498615
 31
0.0
  0
LINE
  5
153
100
AcDbEntity
  8
1
  6
CONTINUOUS
100
AcDbLine
 10
149.956245
 20
105.698615
 30
0.0
 11
149.656245
 21
105.698615
 31
0.0
  0
LINE
  5
154
100
AcDbEntity
  8
1
  6
CONTINUOUS
100
AcDbLine
 10
149.956245
 20
104.498615
 30
0.0
 11
149.956245
 21
105.698615
 31
0.0
  0
LINE
  5
155
100
AcDbEntity
  8
1
  6
CONTINUOUS
100
AcDbLine
 10
159.532245
 20
97.998615
 30
0.0
 11
160.037245
 21
97.998615
 31
0.0
  0
LINE
  5
156
100
AcDbEntity
  8
1
  6
CONTINUOUS
100
AcDbLine
 10
149.049245
 20
97.998615
 30
0.0
 11
149.556245
 21
97.998615
 31
0.0
  0
LINE
  5
157
100
AcDbEntity
  8
1
  6
CONTINUOUS
100
AcDbLine
 10
160.037245
 20
106.698615
 30
0.0
 11
160.544245
 21
106.698615
 31
0.0
  0
LINE
  5
158
100
AcDbEntity
  8
1
  6
CONTINUOUS
100
AcDbLine
 10
148.544245
 20
106.698615
 30
0.0
 11
149.049245
 21
106.698615
 31
0.0
  0
ARC
  5
159
100
AcDbEntity
  8
1
  6
CONTINUOUS
100
AcDbCircle
 10
149.656245
 20
106.598615
 30
0.0
 40
0.1
100
AcDbArc
 50
90.0
 51
180.0
  0
ARC
  5
15A
100
AcDbEntity
  8
1
  6
CONTINUOUS
100
AcDbCircle
 10
159.432245
 20
106.598615
 30
0.0
 40
0.1
100
AcDbArc
 50
0.0
 51
90.0
  0
ARC
  5
15B
100
AcDbEntity
  8
1
  6
CONTINUOUS
100
AcDbCircle
 10
149.649245
 20
106.698615
 30
0.0
 40
0.6
100
AcDbArc
 50
90.0
 51
180.0
  0
ARC
  5
15C
100
AcDbEntity
  8
1
  6
CONTINUOUS
100
AcDbCircle
 10
159.437245
 20
106.698615
 30
0.0
 40
0.6
100
AcDbArc
 50
0.0
 51
90.0
  0
LINE
  5
15D
100
AcDbEntity
  8
1
  6
CONTINUOUS
100
AcDbLine
 10
149.649245
 20
107.298615
 30
0.0
 11
159.437245
 21
107.298615
 31
0.0
  0
LINE
  5
15E
100
AcDbEntity
  8
1
  6
CONTINUOUS
100
AcDbLine
 10
149.656245
 20
106.698615
 30
0.0
 11
159.432245
 21
106.698615
 31
0.0
  0
ARC
  5
15F
100
AcDbEntity
  8
1
  6
CONTINUOUS
100
AcDbCircle
 10
149.149245
 20
97.498615
 30
0.0
 40
0.1
100
AcDbArc
 50
180.0
 51
270.0
  0
ARC
  5
160
100
AcDbEntity
  8
1
  6
CONTINUOUS
100
AcDbCircle
 10
159.937245
 20
97.498615
 30
0.0
 40
0.1
100
AcDbArc
 50
270.0
 51
0.0
  0
ARC
  5
161
100
AcDbEntity
  8
1
  6
CONTINUOUS
100
AcDbCircle
 10
159.944245
 20
97.498615
 30
0.0
 40
0.6
100
AcDbArc
 50
270.0
 51
0.0
  0
ARC
  5
162
100
AcDbEntity
  8
1
  6
CONTINUOUS
100
AcDbCircle
 10
149.144245
 20
97.498615
 30
0.0
 40
0.6
100
AcDbArc
 50
180.0
 51
270.0
  0
LINE
  5
163
100
AcDbEntity
  8
1
  6
CONTINUOUS
100
AcDbLine
 10
149.556245
 20
97.998615
 30
0.0
 11
149.556245
 21
106.598615
 31
0.0
  0
LINE
  5
164
100
AcDbEntity
  8
1
  6
CONTINUOUS
100
AcDbLine
 10
159.532245
 20
97.998615
 30
0.0
 11
159.532245
 21
106.598615
 31
0.0
  0
LINE
  5
165
100
AcDbEntity
  8
1
  6
CONTINUOUS
100
AcDbLine
 10
160.037245
 20
106.698615
 30
0.0
 11
160.037245
 21
97.498615
 31
0.0
  0
LINE
  5
166
100
AcDbEntity
  8
1
  6
CONTINUOUS
100
AcDbLine
 10
149.049245
 20
106.698615
 30
0.0
 11
149.049245
 21
97.498615
 31
0.0
  0
LINE
  5
167
100
AcDbEntity
  8
1
  6
CONTINUOUS
100
AcDbLine
 10
160.544245
 20
106.698615
 30
0.0
 11
160.544245
 21
97.498615
 31
0.0
  0
LINE
  5
168
100
AcDbEntity
  8
1
  6
CONTINUOUS
100
AcDbLine
 10
148.544245
 20
106.698615
 30
0.0
 11
148.544245
 21
97.498615
 31
0.0
  0
LINE
  5
169
100
AcDbEntity
  8
1
  6
CONTINUOUS
100
AcDbLine
 10
149.149245
 20
97.398615
 30
0.0
 11
159.937245
 21
97.398615
 31
0.0
  0
LINE
  5
16A
100
AcDbEntity
  8
1
  6
CONTINUOUS
100
AcDbLine
 10
159.944245
 20
96.898615
 30
0.0
 11
149.144245
 21
96.898615
 31
0.0
  0
LINE
  5
16B
100
AcDbEntity
  8
1
  6
DASHDOT
100
AcDbLine
 10
74.917245
 20
126.681615
 30
0.0
 11
74.917245
 21
123.881615
 31
0.0
  0
LINE
  5
16C
100
AcDbEntity
  8
1
  6
DASHDOT
100
AcDbLine
 10
84.317245
 20
125.281615
 30
0.0
 11
73.601245
 21
125.281615
 31
0.0
  0
LINE
  5
16D
100
AcDbEntity
  8
1
  6
DASHDOT
100
AcDbLine
 10
82.917245
 20
126.681615
 30
0.0
 11
82.917245
 21
123.881615
 31
0.0
  0
CIRCLE
  5
16E
100
AcDbEntity
  8
1
  6
CONTINUOUS
100
AcDbCircle
 10
74.917245
 20
125.281615
 30
0.0
 40
0.6
  0
CIRCLE
  5
16F
100
AcDbEntity
  8
1
  6
CONTINUOUS
100
AcDbCircle
 10
82.917245
 20
125.281615
 30
0.0
 40
0.6
  0
LINE
  5
170
100
AcDbEntity
  8
1
  6
CONTINUOUS
100
AcDbLine
 10
72.017245
 20
105.849615
 30
0.0
 11
72.017245
 21
107.298615
 31
0.0
  0
LINE
  5
171
100
AcDbEntity
  8
1
  6
CONTINUOUS
100
AcDbLine
 10
85.817245
 20
107.298615
 30
0.0
 11
85.817245
 21
105.849615
 31
0.0
  0
LINE
  5
172
100
AcDbEntity
  8
1
  6
CONTINUOUS
100
AcDbLine
 10
73.654245
 20
103.012615
 30
0.0
 11
72.017245
 21
105.849615
 31
0.0
  0
LINE
  5
173
100
AcDbEntity
  8
1
  6
CONTINUOUS
100
AcDbLine
 10
84.229245
 20
103.098615
 30
0.0
 11
85.817245
 21
105.849615
 31
0.0
  0
LINE
  5
174
100
AcDbEntity
  8
1
  6
CONTINUOUS
100
AcDbLine
 10
85.817245
 20
107.298615
 30
0.0
 11
72.017245
 21
107.298615
 31
0.0
  0
LINE
  5
175
100
AcDbEntity
  8
1
  6
CONTINUOUS
100
AcDbLine
 10
85.817245
 20
119.781615
 30
0.0
 11
72.017245
 21
119.781615
 31
0.0
  0
LINE
  5
176
100
AcDbEntity
  8
1
  6
CONTINUOUS
100
AcDbLine
 10
85.817245
 20
130.781615
 30
0.0
 11
72.017245
 21
130.781615
 31
0.0
  0
LINE
  5
177
100
AcDbEntity
  8
1
  6
CONTINUOUS
100
AcDbLine
 10
85.817245
 20
119.281615
 30
0.0
 11
72.017245
 21
119.281615
 31
0.0
  0
LINE
  5
178
100
AcDbEntity
  8
1
  6
CONTINUOUS
100
AcDbLine
 10
85.817245
 20
131.281615
 30
0.0
 11
72.017245
 21
131.281615
 31
0.0
  0
ARC
  5
179
100
AcDbEntity
  8
1
  6
CONTINUOUS
100
AcDbCircle
 10
75.453245
 20
103.098615
 30
0.0
 40
0.55
100
AcDbArc
 50
150.0
 51
330.0
  0
ARC
  5
17A
100
AcDbEntity
  8
1
  6
CONTINUOUS
100
AcDbCircle
 10
82.381245
 20
103.098615
 30
0.0
 40
0.55
100
AcDbArc
 50
210.0
 51
30.0
  0
ARC
  5
17B
100
AcDbEntity
  8
1
  6
CONTINUOUS
100
AcDbCircle
 10
78.917245
 20
101.098615
 30
0.0
 40
4.55
100
AcDbArc
 50
30.0
 51
80.421
  0
ARC
  5
17C
100
AcDbEntity
  8
1
  6
CONTINUOUS
100
AcDbCircle
 10
78.917245
 20
101.098615
 30
0.0
 40
3.45
100
AcDbArc
 50
30.0
 51
78.996
  0
ARC
  5
17D
100
AcDbEntity
  8
1
  6
DASHDOT
100
AcDbCircle
 10
78.917245
 20
101.098615
 30
0.0
 40
4.0
100
AcDbArc
 50
18.199
 51
163.557
  0
LINE
  5
17E
100
AcDbEntity
  8
1
  6
CONTINUOUS
100
AcDbLine
 10
85.817245
 20
100.347615
 30
0.0
 11
83.766245
 21
103.898615
 31
0.0
  0
LINE
  5
17F
100
AcDbEntity
  8
1
  6
CONTINUOUS
100
AcDbLine
 10
72.017245
 20
100.347615
 30
0.0
 11
74.067245
 21
103.898615
 31
0.0
  0
ARC
  5
180
100
AcDbEntity
  8
1
  6
CONTINUOUS
100
AcDbCircle
 10
78.917245
 20
101.098615
 30
0.0
 40
5.6
100
AcDbArc
 50
30.0
 51
150.0
  0
LINE
  5
181
100
AcDbEntity
  8
1
  6
CONTINUOUS
100
AcDbLine
 10
85.817245
 20
96.898615
 30
0.0
 11
85.817245
 21
100.347615
 31
0.0
  0
LINE
  5
182
100
AcDbEntity
  8
1
  6
CONTINUOUS
100
AcDbLine
 10
72.017245
 20
96.898615
 30
0.0
 11
72.017245
 21
100.347615
 31
0.0
  0
LINE
  5
183
100
AcDbEntity
  8
1
  6
CONTINUOUS
100
AcDbLine
 10
121.733245
 20
118.601615
 30
0.0
 11
122.517245
 21
118.601615
 31
0.0
  0
LINE
  5
184
100
AcDbEntity
  8
1
  6
CONTINUOUS
100
AcDbLine
 10
121.733245
 20
131.961615
 30
0.0
 11
122.517245
 21
131.961615
 31
0.0
  0
ARC
  5
185
100
AcDbEntity
  8
1
  6
CONTINUOUS
100
AcDbCircle
 10
107.643245
 20
125.281615
 30
0.0
 40
2.0
100
AcDbArc
 50
270.0
 51
0.0
  0
ARC
  5
186
100
AcDbEntity
  8
1
  6
CONTINUOUS
100
AcDbCircle
 10
107.643245
 20
125.281615
 30
0.0
 40
2.0
100
AcDbArc
 50
0.0
 51
90.0
  0
ARC
  5
187
100
AcDbEntity
  8
1
  6
CONTINUOUS
100
AcDbCircle
 10
102.580245
 20
125.281615
 30
0.0
 40
2.0
100
AcDbArc
 50
180.0
 51
270.0
  0
ARC
  5
188
100
AcDbEntity
  8
1
  6
CONTINUOUS
100
AcDbCircle
 10
102.580245
 20
125.281615
 30
0.0
 40
2.0
100
AcDbArc
 50
90.0
 51
180.0
  0
LINE
  5
189
100
AcDbEntity
  8
1
  6
CONTINUOUS
100
AcDbLine
 10
107.643245
 20
123.281615
 30
0.0
 11
102.580245
 21
123.281615
 31
0.0
  0
LINE
  5
18A
100
AcDbEntity
  8
1
  6
CONTINUOUS
100
AcDbLine
 10
107.643245
 20
127.281615
 30
0.0
 11
102.580245
 21
127.281615
 31
0.0
  0
LINE
  5
18B
100
AcDbEntity
  8
1
  6
CONTINUOUS
100
AcDbLine
 10
72.017245
 20
118.281615
 30
0.0
 11
72.017245
 21
132.281615
 31
0.0
  0
LINE
  5
18C
100
AcDbEntity
  8
1
  6
CONTINUOUS
100
AcDbLine
 10
85.817245
 20
118.281615
 30
0.0
 11
85.817245
 21
132.281615
 31
0.0
  0
ARC
  5
18D
100
AcDbEntity
  8
1
  6
CONTINUOUS
100
AcDbCircle
 10
122.497245
 20
132.381615
 30
0.0
 40
0.1
100
AcDbArc
 50
270.0
 51
0.0
  0
ARC
  5
18E
100
AcDbEntity
  8
1
  6
CONTINUOUS
100
AcDbCircle
 10
122.517245
 20
132.361615
 30
0.0
 40
0.4
100
AcDbArc
 50
270.0
 51
0.0
  0
LINE
  5
18F
100
AcDbEntity
  8
1
  6
CONTINUOUS
100
AcDbLine
 10
86.858245
 20
131.961615
 30
0.0
 11
85.817245
 21
131.961615
 31
0.0
  0
ARC
  5
190
100
AcDbEntity
  8
1
  6
CONTINUOUS
100
AcDbCircle
 10
122.517245
 20
118.201615
 30
0.0
 40
0.4
100
AcDbArc
 50
0.0
 51
90.0
  0
ARC
  5
191
100
AcDbEntity
  8
1
  6
CONTINUOUS
100
AcDbCircle
 10
122.497245
 20
118.181615
 30
0.0
 40
0.1
100
AcDbArc
 50
0.0
 51
90.0
  0
LINE
  5
192
100
AcDbEntity
  8
1
  6
CONTINUOUS
100
AcDbLine
 10
86.858245
 20
118.601615
 30
0.0
 11
85.817245
 21
118.601615
 31
0.0
  0
LINE
  5
193
100
AcDbEntity
  8
1
  6
CONTINUOUS
100
AcDbLine
 10
122.597245
 20
132.381615
 30
0.0
 11
122.597245
 21
136.281615
 31
0.0
  0
LINE
  5
194
100
AcDbEntity
  8
1
  6
CONTINUOUS
100
AcDbLine
 10
122.917245
 20
132.361615
 30
0.0
 11
122.917245
 21
136.281615
 31
0.0
  0
LINE
  5
195
100
AcDbEntity
  8
1
  6
CONTINUOUS
100
AcDbLine
 10
122.917245
 20
114.281615
 30
0.0
 11
122.597245
 21
114.281615
 31
0.0
  0
LINE
  5
196
100
AcDbEntity
  8
1
  6
CONTINUOUS
100
AcDbLine
 10
122.917245
 20
136.281615
 30
0.0
 11
122.597245
 21
136.281615
 31
0.0
  0
LINE
  5
197
100
AcDbEntity
  8
1
  6
CONTINUOUS
100
AcDbLine
 10
86.858245
 20
118.281615
 30
0.0
 11
86.858245
 21
132.281615
 31
0.0
  0
LINE
  5
198
100
AcDbEntity
  8
1
  6
CONTINUOUS
100
AcDbLine
 10
121.733245
 20
118.281615
 30
0.0
 11
121.733245
 21
132.281615
 31
0.0
  0
LINE
  5
199
100
AcDbEntity
  8
1
  6
CONTINUOUS
100
AcDbLine
 10
122.597245
 20
114.281615
 30
0.0
 11
122.597245
 21
118.181615
 31
0.0
  0
LINE
  5
19A
100
AcDbEntity
  8
1
  6
CONTINUOUS
100
AcDbLine
 10
122.917245
 20
114.281615
 30
0.0
 11
122.917245
 21
118.201615
 31
0.0
  0
LINE
  5
19B
100
AcDbEntity
  8
1
  6
CONTINUOUS
100
AcDbLine
 10
122.497245
 20
132.281615
 30
0.0
 11
79.635245
 21
132.281615
 31
0.0
  0
LINE
  5
19C
100
AcDbEntity
  8
1
  6
CONTINUOUS
100
AcDbLine
 10
122.497245
 20
118.281615
 30
0.0
 11
79.667245
 21
118.281615
 31
0.0
  0
LINE
  5
19D
100
AcDbEntity
  8
1
  6
CONTINUOUS
100
AcDbLine
 10
152.741245
 20
89.540615
 30
0.0
 11
152.697245
 21
89.503615
 31
0.0
  0
LINE
  5
19E
100
AcDbEntity
  8
1
  6
CONTINUOUS
100
AcDbLine
 10
152.697245
 20
89.503615
 30
0.0
 11
152.657245
 21
89.467615
 31
0.0
  0
LINE
  5
19F
100
AcDbEntity
  8
1
  6
CONTINUOUS
100
AcDbLine
 10
152.657245
 20
89.467615
 30
0.0
 11
152.657245
 21
89.467615
 31
0.0
  0
LINE
  5
1A0
100
AcDbEntity
  8
1
  6
CONTINUOUS
100
AcDbLine
 10
152.657245
 20
89.467615
 30
0.0
 11
152.591245
 21
89.379615
 31
0.0
  0
LINE
  5
1A1
100
AcDbEntity
  8
1
  6
CONTINUOUS
100
AcDbLine
 10
152.591245
 20
89.379615
 30
0.0
 11
152.556245
 21
89.300615
 31
0.0
  0
LINE
  5
1A2
100
AcDbEntity
  8
1
  6
CONTINUOUS
100
AcDbLine
 10
156.349245
 20
89.531615
 30
0.0
 11
156.389245
 21
89.499615
 31
0.0
  0
LINE
  5
1A3
100
AcDbEntity
  8
1
  6
CONTINUOUS
100
AcDbLine
 10
156.389245
 20
89.499615
 30
0.0
 11
156.423245
 21
89.467615
 31
0.0
  0
LINE
  5
1A4
100
AcDbEntity
  8
1
  6
CONTINUOUS
100
AcDbLine
 10
156.423245
 20
89.467615
 30
0.0
 11
156.423245
 21
89.467615
 31
0.0
  0
LINE
  5
1A5
100
AcDbEntity
  8
1
  6
CONTINUOUS
100
AcDbLine
 10
156.423245
 20
89.467615
 30
0.0
 11
156.482245
 21
89.394615
 31
0.0
  0
LINE
  5
1A6
100
AcDbEntity
  8
1
  6
CONTINUOUS
100
AcDbLine
 10
156.482245
 20
89.394615
 30
0.0
 11
156.516245
 21
89.327615
 31
0.0
  0
LINE
  5
1A7
100
AcDbEntity
  8
1
  6
CONTINUOUS
100
AcDbLine
 10
156.344245
 20
89.547615
 30
0.0
 11
155.909245
 21
89.707615
 31
0.0
  0
LINE
  5
1A8
100
AcDbEntity
  8
1
  6
CONTINUOUS
100
AcDbLine
 10
155.909245
 20
89.707615
 30
0.0
 11
154.544245
 21
89.847615
 31
0.0
  0
LINE
  5
1A9
100
AcDbEntity
  8
1
  6
CONTINUOUS
100
AcDbLine
 10
154.544245
 20
89.847615
 30
0.0
 11
154.544245
 21
89.847615
 31
0.0
  0
LINE
  5
1AA
100
AcDbEntity
  8
1
  6
CONTINUOUS
100
AcDbLine
 10
154.544245
 20
89.847615
 30
0.0
 11
153.177245
 21
89.707615
 31
0.0
  0
LINE
  5
1AB
100
AcDbEntity
  8
1
  6
CONTINUOUS
100
AcDbLine
 10
153.177245
 20
89.707615
 30
0.0
 11
152.744245
 21
89.547615
 31
0.0
  0
LINE
  5
1AC
100
AcDbEntity
  8
1
  6
CONTINUOUS
100
AcDbLine
 10
152.544245
 20
86.320615
 30
0.0
 11
152.582245
 21
86.223615
 31
0.0
  0
LINE
  5
1AD
100
AcDbEntity
  8
1
  6
CONTINUOUS
100
AcDbLine
 10
152.582245
 20
86.223615
 30
0.0
 11
152.696245
 21
86.129615
 31
0.0
  0
LINE
  5
1AE
100
AcDbEntity
  8
1
  6
CONTINUOUS
100
AcDbLine
 10
152.696245
 20
86.129615
 30
0.0
 11
152.881245
 21
86.043615
 31
0.0
  0
LINE
  5
1AF
100
AcDbEntity
  8
1
  6
CONTINUOUS
100
AcDbLine
 10
152.881245
 20
86.043615
 30
0.0
 11
153.129245
 21
85.967615
 31
0.0
  0
LINE
  5
1B0
100
AcDbEntity
  8
1
  6
CONTINUOUS
100
AcDbLine
 10
153.129245
 20
85.967615
 30
0.0
 11
153.433245
 21
85.905615
 31
0.0
  0
LINE
  5
1B1
100
AcDbEntity
  8
1
  6
CONTINUOUS
100
AcDbLine
 10
153.433245
 20
85.905615
 30
0.0
 11
153.778245
 21
85.859615
 31
0.0
  0
LINE
  5
1B2
100
AcDbEntity
  8
1
  6
CONTINUOUS
100
AcDbLine
 10
153.778245
 20
85.859615
 30
0.0
 11
154.153245
 21
85.830615
 31
0.0
  0
LINE
  5
1B3
100
AcDbEntity
  8
1
  6
CONTINUOUS
100
AcDbLine
 10
154.153245
 20
85.830615
 30
0.0
 11
154.544245
 21
85.820615
 31
0.0
  0
LINE
  5
1B4
100
AcDbEntity
  8
1
  6
CONTINUOUS
100
AcDbLine
 10
154.544245
 20
85.820615
 30
0.0
 11
154.933245
 21
85.830615
 31
0.0
  0
LINE
  5
1B5
100
AcDbEntity
  8
1
  6
CONTINUOUS
100
AcDbLine
 10
154.933245
 20
85.830615
 30
0.0
 11
155.309245
 21
85.859615
 31
0.0
  0
LINE
  5
1B6
100
AcDbEntity
  8
1
  6
CONTINUOUS
100
AcDbLine
 10
155.309245
 20
85.859615
 30
0.0
 11
155.654245
 21
85.905615
 31
0.0
  0
LINE
  5
1B7
100
AcDbEntity
  8
1
  6
CONTINUOUS
100
AcDbLine
 10
155.654245
 20
85.905615
 30
0.0
 11
155.957245
 21
85.967615
 31
0.0
  0
LINE
  5
1B8
100
AcDbEntity
  8
1
  6
CONTINUOUS
100
AcDbLine
 10
155.957245
 20
85.967615
 30
0.0
 11
156.206245
 21
86.043615
 31
0.0
  0
LINE
  5
1B9
100
AcDbEntity
  8
1
  6
CONTINUOUS
100
AcDbLine
 10
156.206245
 20
86.043615
 30
0.0
 11
156.391245
 21
86.129615
 31
0.0
  0
LINE
  5
1BA
100
AcDbEntity
  8
1
  6
CONTINUOUS
100
AcDbLine
 10
156.391245
 20
86.129615
 30
0.0
 11
156.505245
 21
86.223615
 31
0.0
  0
LINE
  5
1BB
100
AcDbEntity
  8
1
  6
CONTINUOUS
100
AcDbLine
 10
156.505245
 20
86.223615
 30
0.0
 11
156.544245
 21
86.320615
 31
0.0
  0
LINE
  5
1BC
100
AcDbEntity
  8
1
  6
CONTINUOUS
100
AcDbLine
 10
156.544245
 20
89.547615
 30
0.0
 11
156.509245
 21
89.639615
 31
0.0
  0
LINE
  5
1BD
100
AcDbEntity
  8
1
  6
CONTINUOUS
100
AcDbLine
 10
156.509245
 20
89.639615
 30
0.0
 11
156.409245
 21
89.727615
 31
0.0
  0
LINE
  5
1BE
100
AcDbEntity
  8
1
  6
CONTINUOUS
100
AcDbLine
 10
156.409245
 20
89.727615
 30
0.0
 11
156.244245
 21
89.810615
 31
0.0
  0
LINE
  5
1BF
100
AcDbEntity
  8
1
  6
CONTINUOUS
100
AcDbLine
 10
156.244245
 20
89.810615
 30
0.0
 11
156.021245
 21
89.883615
 31
0.0
  0
LINE
  5
1C0
100
AcDbEntity
  8
1
  6
CONTINUOUS
100
AcDbLine
 10
156.021245
 20
89.883615
 30
0.0
 11
155.749245
 21
89.946615
 31
0.0
  0
LINE
  5
1C1
100
AcDbEntity
  8
1
  6
CONTINUOUS
100
AcDbLine
 10
155.749245
 20
89.946615
 30
0.0
 11
155.435245
 21
89.995615
 31
0.0
  0
LINE
  5
1C2
100
AcDbEntity
  8
1
  6
CONTINUOUS
100
AcDbLine
 10
155.435245
 20
89.995615
 30
0.0
 11
155.091245
 21
90.027615
 31
0.0
  0
LINE
  5
1C3
100
AcDbEntity
  8
1
  6
CONTINUOUS
100
AcDbLine
 10
155.091245
 20
90.027615
 30
0.0
 11
154.728245
 21
90.044615
 31
0.0
  0
LINE
  5
1C4
100
AcDbEntity
  8
1
  6
CONTINUOUS
100
AcDbLine
 10
154.728245
 20
90.044615
 30
0.0
 11
154.359245
 21
90.044615
 31
0.0
  0
LINE
  5
1C5
100
AcDbEntity
  8
1
  6
CONTINUOUS
100
AcDbLine
 10
154.359245
 20
90.044615
 30
0.0
 11
153.996245
 21
90.027615
 31
0.0
  0
LINE
  5
1C6
100
AcDbEntity
  8
1
  6
CONTINUOUS
100
AcDbLine
 10
153.996245
 20
90.027615
 30
0.0
 11
153.652245
 21
89.995615
 31
0.0
  0
LINE
  5
1C7
100
AcDbEntity
  8
1
  6
CONTINUOUS
100
AcDbLine
 10
153.652245
 20
89.995615
 30
0.0
 11
153.338245
 21
89.946615
 31
0.0
  0
LINE
  5
1C8
100
AcDbEntity
  8
1
  6
CONTINUOUS
100
AcDbLine
 10
153.338245
 20
89.946615
 30
0.0
 11
153.065245
 21
89.883615
 31
0.0
  0
LINE
  5
1C9
100
AcDbEntity
  8
1
  6
CONTINUOUS
100
AcDbLine
 10
153.065245
 20
89.883615
 30
0.0
 11
152.843245
 21
89.810615
 31
0.0
  0
LINE
  5
1CA
100
AcDbEntity
  8
1
  6
CONTINUOUS
100
AcDbLine
 10
152.843245
 20
89.810615
 30
0.0
 11
152.678245
 21
89.727615
 31
0.0
  0
LINE
  5
1CB
100
AcDbEntity
  8
1
  6
CONTINUOUS
100
AcDbLine
 10
152.678245
 20
89.727615
 30
0.0
 11
152.577245
 21
89.639615
 31
0.0
  0
LINE
  5
1CC
100
AcDbEntity
  8
1
  6
CONTINUOUS
100
AcDbLine
 10
152.577245
 20
89.639615
 30
0.0
 11
152.544245
 21
89.547615
 31
0.0
  0
LINE
  5
1CD
100
AcDbEntity
  8
1
  6
CONTINUOUS
100
AcDbLine
 10
152.544245
 20
86.320615
 30
0.0
 11
152.544245
 21
89.547615
 31
0.0
  0
LINE
  5
1CE
100
AcDbEntity
  8
1
  6
CONTINUOUS
100
AcDbLine
 10
156.544245
 20
86.320615
 30
0.0
 11
156.544245
 21
89.547615
 31
0.0
  0
LINE
  5
1CF
100
AcDbEntity
  8
1
  6
CONTINUOUS
100
AcDbLine
 10
147.544245
 20
96.445615
 30
0.0
 11
161.544245
 21
96.445615
 31
0.0
  0
LINE
  5
1D0
100
AcDbEntity
  8
1
  6
CONTINUOUS
100
AcDbLine
 10
147.544245
 20
80.183615
 30
0.0
 11
161.544245
 21
80.183615
 31
0.0
  0
LINE
  5
1D1
100
AcDbEntity
  8
1
  6
CONTINUOUS
100
AcDbLine
 10
147.544245
 20
79.893615
 30
0.0
 11
161.544245
 21
79.893615
 31
0.0
  0
ARC
  5
1D2
100
AcDbEntity
  8
1
  6
CONTINUOUS
100
AcDbCircle
 10
164.544245
 20
55.418615
 30
0.0
 40
1.0
100
AcDbArc
 50
270.0
 51
0.0
  0
ARC
  5
1D3
100
AcDbEntity
  8
1
  6
CONTINUOUS
100
AcDbCircle
 10
144.544245
 20
55.418615
 30
0.0
 40
1.0
100
AcDbArc
 50
180.0
 51
270.0
  0
ARC
  5
1D4
100
AcDbEntity
  8
1
  6
CONTINUOUS
100
AcDbCircle
 10
159.544245
 20
55.418615
 30
0.0
 40
1.0
100
AcDbArc
 50
180.0
 51
270.0
  0
ARC
  5
1D5
100
AcDbEntity
  8
1
  6
CONTINUOUS
100
AcDbCircle
 10
149.544245
 20
55.418615
 30
0.0
 40
1.0
100
AcDbArc
 50
270.0
 51
0.0
  0
LINE
  5
1D6
100
AcDbEntity
  8
1
  6
CONTINUOUS
100
AcDbLine
 10
164.544245
 20
54.418615
 30
0.0
 11
159.544245
 21
54.418615
 31
0.0
  0
LINE
  5
1D7
100
AcDbEntity
  8
1
  6
CONTINUOUS
100
AcDbLine
 10
161.224245
 20
79.418615
 30
0.0
 11
161.544245
 21
79.418615
 31
0.0
  0
LINE
  5
1D8
100
AcDbEntity
  8
1
  6
CONTINUOUS
100
AcDbLine
 10
150.544245
 20
55.418615
 30
0.0
 11
150.544245
 21
79.893615
 31
0.0
  0
LINE
  5
1D9
100
AcDbEntity
  8
1
  6
CONTINUOUS
100
AcDbLine
 10
158.544245
 20
55.418615
 30
0.0
 11
158.544245
 21
79.893615
 31
0.0
  0
LINE
  5
1DA
100
AcDbEntity
  8
1
  6
CONTINUOUS
100
AcDbLine
 10
154.944245
 20
96.578615
 30
0.0
 11
161.124245
 21
96.578615
 31
0.0
  0
LINE
  5
1DB
100
AcDbEntity
  8
1
  6
CONTINUOUS
100
AcDbLine
 10
154.944245
 20
96.898615
 30
0.0
 11
161.144245
 21
96.898615
 31
0.0
  0
ARC
  5
1DC
100
AcDbEntity
  8
1
  6
CONTINUOUS
100
AcDbCircle
 10
147.944245
 20
96.498615
 30
0.0
 40
0.4
100
AcDbArc
 50
90.0
 51
180.0
  0
ARC
  5
1DD
100
AcDbEntity
  8
1
  6
CONTINUOUS
100
AcDbCircle
 10
161.144245
 20
96.498615
 30
0.0
 40
0.4
100
AcDbArc
 50
0.0
 51
90.0
  0
ARC
  5
1DE
100
AcDbEntity
  8
1
  6
CONTINUOUS
100
AcDbCircle
 10
147.964245
 20
96.478615
 30
0.0
 40
0.1
100
AcDbArc
 50
90.0
 51
180.0
  0
ARC
  5
1DF
100
AcDbEntity
  8
1
  6
CONTINUOUS
100
AcDbCircle
 10
161.124245
 20
96.478615
 30
0.0
 40
0.1
100
AcDbArc
 50
0.0
 51
90.0
  0
LINE
  5
1E0
100
AcDbEntity
  8
1
  6
CONTINUOUS
100
AcDbLine
 10
147.964245
 20
96.578615
 30
0.0
 11
154.144245
 21
96.578615
 31
0.0
  0
LINE
  5
1E1
100
AcDbEntity
  8
1
  6
CONTINUOUS
100
AcDbLine
 10
154.944245
 20
96.578615
 30
0.0
 11
154.944245
 21
96.898615
 31
0.0
  0
LINE
  5
1E2
100
AcDbEntity
  8
1
  6
CONTINUOUS
100
AcDbLine
 10
154.144245
 20
96.578615
 30
0.0
 11
154.144245
 21
96.898615
 31
0.0
  0
LINE
  5
1E3
100
AcDbEntity
  8
1
  6
CONTINUOUS
100
AcDbLine
 10
147.944245
 20
96.898615
 30
0.0
 11
154.144245
 21
96.898615
 31
0.0
  0
LINE
  5
1E4
100
AcDbEntity
  8
1
  6
CONTINUOUS
100
AcDbLine
 10
147.864245
 20
54.418615
 30
0.0
 11
147.864245
 21
79.893615
 31
0.0
  0
LINE
  5
1E5
100
AcDbEntity
  8
1
  6
CONTINUOUS
100
AcDbLine
 10
161.224245
 20
54.418615
 30
0.0
 11
161.224245
 21
79.893615
 31
0.0
  0
LINE
  5
1E6
100
AcDbEntity
  8
1
  6
CONTINUOUS
100
AcDbLine
 10
144.088245
 20
77.811615
 30
0.0
 11
143.544245
 21
76.958615
 31
0.0
  0
LINE
  5
1E7
100
AcDbEntity
  8
1
  6
CONTINUOUS
100
AcDbLine
 10
164.999245
 20
77.811615
 30
0.0
 11
165.544245
 21
76.958615
 31
0.0
  0
LINE
  5
1E8
100
AcDbEntity
  8
1
  6
CONTINUOUS
100
AcDbLine
 10
161.544245
 20
79.418615
 30
0.0
 11
164.999245
 21
77.811615
 31
0.0
  0
LINE
  5
1E9
100
AcDbEntity
  8
1
  6
CONTINUOUS
100
AcDbLine
 10
147.544245
 20
79.418615
 30
0.0
 11
144.088245
 21
77.811615
 31
0.0
  0
LINE
  5
1EA
100
AcDbEntity
  8
1
  6
CONTINUOUS
100
AcDbLine
 10
147.864245
 20
79.418615
 30
0.0
 11
147.544245
 21
79.418615
 31
0.0
  0
LINE
  5
1EB
100
AcDbEntity
  8
1
  6
CONTINUOUS
100
AcDbLine
 10
147.544245
 20
79.418615
 30
0.0
 11
147.544245
 21
96.498615
 31
0.0
  0
LINE
  5
1EC
100
AcDbEntity
  8
1
  6
CONTINUOUS
100
AcDbLine
 10
161.544245
 20
79.418615
 30
0.0
 11
161.544245
 21
96.498615
 31
0.0
  0
CIRCLE
  5
1ED
100
AcDbEntity
  8
1
  6
CONTINUOUS
100
AcDbCircle
 10
163.544245
 20
57.418615
 30
0.0
 40
0.8
  0
CIRCLE
  5
1EE
100
AcDbEntity
  8
1
  6
CONTINUOUS
100
AcDbCircle
 10
145.544245
 20
57.418615
 30
0.0
 40
0.8
  0
CIRCLE
  5
1EF
100
AcDbEntity
  8
1
  6
CONTINUOUS
100
AcDbCircle
 10
145.544245
 20
75.418615
 30
0.0
 40
0.8
  0
CIRCLE
  5
1F0
100
AcDbEntity
  8
1
  6
CONTINUOUS
100
AcDbCircle
 10
163.544245
 20
75.418615
 30
0.0
 40
0.8
  0
LINE
  5
1F1
100
AcDbEntity
  8
1
  6
CONTINUOUS
100
AcDbLine
 10
165.544245
 20
55.418615
 30
0.0
 11
165.544245
 21
76.958615
 31
0.0
  0
LINE
  5
1F2
100
AcDbEntity
  8
1
  6
CONTINUOUS
100
AcDbLine
 10
143.544245
 20
55.418615
 30
0.0
 11
143.544245
 21
76.958615
 31
0.0
  0
LINE
  5
1F3
100
AcDbEntity
  8
1
  6
CONTINUOUS
100
AcDbLine
 10
144.544245
 20
54.418615
 30
0.0
 11
149.544245
 21
54.418615
 31
0.0
  0
LINE
  5
1F4
100
AcDbEntity
  8
1
  6
CONTINUOUS
100
AcDbLine
 10
121.597245
 20
79.893615
 30
0.0
 11
122.597245
 21
79.427615
 31
0.0
  0
LINE
  5
1F5
100
AcDbEntity
  8
1
  6
CONTINUOUS
100
AcDbLine
 10
121.597245
 20
79.893615
 30
0.0
 11
121.733245
 21
80.183615
 31
0.0
  0
LINE
  5
1F6
100
AcDbEntity
  8
1
  6
CONTINUOUS
100
AcDbLine
 10
86.723245
 20
96.155615
 30
0.0
 11
86.858245
 21
96.445615
 31
0.0
  0
LINE
  5
1F7
100
AcDbEntity
  8
1
  6
CONTINUOUS
100
AcDbLine
 10
122.597245
 20
79.427615
 30
0.0
 11
122.917245
 21
79.427615
 31
0.0
  0
LINE
  5
1F8
100
AcDbEntity
  8
1
  6
CONTINUOUS
100
AcDbLine
 10
121.429245
 20
54.165615
 30
0.0
 11
121.625245
 21
54.418615
 31
0.0
  0
LINE
  5
1F9
100
AcDbEntity
  8
1
  6
CONTINUOUS
100
AcDbLine
 10
71.821245
 20
92.645615
 30
0.0
 11
72.017245
 21
92.898615
 31
0.0
  0
LINE
  5
1FA
100
AcDbEntity
  8
1
  6
CONTINUOUS
100
AcDbLine
 10
121.733245
 20
80.183615
 30
0.0
 11
86.858245
 21
96.445615
 31
0.0
  0
LINE
  5
1FB
100
AcDbEntity
  8
1
  6
CONTINUOUS
100
AcDbLine
 10
85.817245
 20
96.578615
 30
0.0
 11
86.723245
 21
96.155615
 31
0.0
  0
LINE
  5
1FC
100
AcDbEntity
  8
1
  6
CONTINUOUS
100
AcDbLine
 10
122.597245
 20
79.427615
 30
0.0
 11
122.597245
 21
54.418615
 31
0.0
  0
LINE
  5
1FD
100
AcDbEntity
  8
1
  6
CONTINUOUS
100
AcDbLine
 10
121.429245
 20
54.165615
 30
0.0
 11
71.821245
 21
92.645615
 31
0.0
  0
LINE
  5
1FE
100
AcDbEntity
  8
1
  6
CONTINUOUS
100
AcDbLine
 10
85.817245
 20
96.578615
 30
0.0
 11
85.817245
 21
96.898615
 31
0.0
  0
LINE
  5
1FF
100
AcDbEntity
  8
1
  6
CONTINUOUS
100
AcDbLine
 10
85.817245
 20
96.898615
 30
0.0
 11
72.017245
 21
96.898615
 31
0.0
  0
LINE
  5
200
100
AcDbEntity
  8
1
  6
CONTINUOUS
100
AcDbLine
 10
72.017245
 20
92.898615
 30
0.0
 11
72.017245
 21
96.898615
 31
0.0
  0
LINE
  5
201
100
AcDbEntity
  8
1
  6
CONTINUOUS
100
AcDbLine
 10
122.917245
 20
54.418615
 30
0.0
 11
121.625245
 21
54.418615
 31
0.0
  0
LINE
  5
202
100
AcDbEntity
  8
1
  6
CONTINUOUS
100
AcDbLine
 10
122.917245
 20
79.427615
 30
0.0
 11
122.917245
 21
54.418615
 31
0.0
  0
LINE
  5
20A
100
AcDbEntity
  8
1
100
AcDbLine
 10
145.544245
 20
57.418615
 30
0.0
 11
145.544245
 21
48.206296
 31
0.0
  0
LINE
  5
20B
100
AcDbEntity
  8
1
100
AcDbLine
 10
163.544245
 20
57.418615
 30
0.0
 11
163.544245
 21
48.206296
 31
0.0
  0
LINE
  5
20C
100
AcDbEntity
  8
1
100
AcDbLine
 10
146.544245
 20
48.206296
 30
0.0
 11
162.544245
 21
48.206296
 31
0.0
  0
INSERT
  5
20D
100
AcDbEntity
  8
1
100
AcDbBlockReference
  2
_OPEN30
 10
145.544245
 20
48.206296
 30
0.0
 50
180.0
  0
INSERT
  5
20E
100
AcDbEntity
  8
1
100
AcDbBlockReference
  2
_OPEN30
 10
163.544245
 20
48.206296
 30
0.0
  0
MTEXT
  5
20F
100
AcDbEntity
  8
1
100
AcDbMText
 10
154.544245
 20
49.354629
 30
0.0
 40
2.116667
 41
0.0
 71
     5
 72
     1
  1
\A1;90
  0
LINE
  5
210
100
AcDbEntity
  8
1
100
AcDbLine
 10
163.544245
 20
57.418615
 30
0.0
 11
172.969245
 21
57.418615
 31
0.0
  0
LINE
  5
211
100
AcDbEntity
  8
1
100
AcDbLine
 10
163.544245
 20
75.418615
 30
0.0
 11
172.969245
 21
75.418615
 31
0.0
  0
LINE
  5
212
100
AcDbEntity
  8
1
100
AcDbLine
 10
172.969245
 20
58.418615
 30
0.0
 11
172.969245
 21
74.418615
 31
0.0
  0
INSERT
  5
213
100
AcDbEntity
  8
1
100
AcDbBlockReference
  2
_OPEN30
 10
172.969245
 20
57.418615
 30
0.0
 50
270.0
  0
INSERT
  5
214
100
AcDbEntity
  8
1
100
AcDbBlockReference
  2
_OPEN30
 10
172.969245
 20
75.418615
 30
0.0
 50
90.0
  0
MTEXT
  5
215
100
AcDbEntity
  8
1
100
AcDbMText
 10
171.820912
 20
66.418615
 30
0.0
 40
2.116667
 41
0.0
 71
     5
 72
     1
  1
\A1;90
 11
0.0
 21
1.0
 31
0.0
  0
LINE
  5
216
100
AcDbEntity
  8
1
100
AcDbLine
 10
164.544245
 20
54.418615
 30
0.0
 11
173.196245
 21
54.418615
 31
0.0
  0
LINE
  5
217
100
AcDbEntity
  8
1
100
AcDbLine
 10
163.544245
 20
57.418615
 30
0.0
 11
173.196245
 21
57.418615
 31
0.0
  0
LINE
  5
21D
100
AcDbEntity
  8
1
100
AcDbLine
 10
164.544245
 20
54.418615
 30
0.0
 11
172.969245
 21
54.418615
 31
0.0
  0
LINE
  5
21E
100
AcDbEntity
  8
1
100
AcDbLine
 10
163.544245
 20
57.418615
 30
0.0
 11
172.969245
 21
57.418615
 31
0.0
  0
LINE
  5
21F
100
AcDbEntity
  8
1
100
AcDbLine
 10
172.969245
 20
55.418615
 30
0.0
 11
172.969245
 21
56.418615
 31
0.0
  0
LINE
  5
220
100
AcDbEntity
  8
1
100
AcDbLine
 10
172.969245
 20
57.418615
 30
0.0
 11
172.969245
 21
61.420838
 31
0.0
  0
INSERT
  5
221
100
AcDbEntity
  8
1
100
AcDbBlockReference
  2
_OPEN30
 10
172.969245
 20
54.418615
 30
0.0
 50
270.0
  0
INSERT
  5
222
100
AcDbEntity
  8
1
100
AcDbBlockReference
  2
_OPEN30
 10
172.969245
 20
57.418615
 30
0.0
 50
90.0
  0
MTEXT
  5
223
100
AcDbEntity
  8
1
100
AcDbMText
 10
172.949214
 20
51.881888
 30
0.0
 40
2.116667
 41
0.0
 71
     5
 72
     1
  1
\A1;15
 11
0.0
 21
1.0
 31
0.0
  0
LEADER
  5
228
100
AcDbEntity
  8
1
100
AcDbLeader
  3
STANDARD
 73
     0
 40
2.116667
 76
     3
 10
144.969245
 20
57.095615
 30
0.0
 10
138.969245
 20
49.095615
 30
0.0
 10
126.969245
 20
49.095615
 30
0.0
 77
   256
340
229
213
0.0
223
1.058333500000002
233
0.0
1001
ACAD
1000
DSTYLE
1002
{
1070
   140
1040
2.116667
1070
    74
1070
     0
1070
    73
1070
     0
1070
    77
1070
     2
1070
   173
1070
     1
1070
    42
1040
0.0
1070
    44
1040
0.0
1070
    43
1040
0.5
1070
   141
1040
0.0
1070
     7
1000
_OPEN30
1070
     6
1000
_OPEN30
1070
    41
1040
1.0
1070
   143
1040
1.0
1070
   171
1070
     0
1002
}
  0
MTEXT
  5
229
102
{ACAD_REACTORS
330
228
102
}
100
AcDbEntity
  8
1
100
AcDbMText
 10
96.91
 20
135.09
 30
0.0
 40
2.116667
 41
0.0
 71
     6
 72
     1
  1
\A1;
  0
TEXT
  5
22E
100
AcDbEntity
  8
1
100
AcDbText
 10
126.969245
 20
50.095615
 30
0.0
 40
2.0
  1
4-%%c8穴
  7
KANJI
100
AcDbText
  0
TEXT
  5
273
100
AcDbEntity
  8
1
  6
CONTINUOUS
 62
     7
100
AcDbText
 10
6.531
 20
42.913
 30
0.0
 40
2.304
  1
　
 41
0.573
  7
KANJI
100
AcDbText
  0
LINE
  5
27C
100
AcDbEntity
  8
0
100
AcDbLine
 10
281.0
 20
4.0
 30
0.0
 11
201.0
 21
4.0
 31
0.0
  0
LINE
  5
27D
100
AcDbEntity
  8
0
100
AcDbLine
 10
281.0
 20
20.0
 30
0.0
 11
281.0
 21
4.0
 31
0.0
  0
LINE
  5
27E
100
AcDbEntity
  8
0
100
AcDbLine
 10
281.0
 20
12.0
 30
0.0
 11
201.0
 21
12.0
 31
0.0
  0
LINE
  5
27F
100
AcDbEntity
  8
0
100
AcDbLine
 10
281.0
 20
20.0
 30
0.0
 11
201.0
 21
20.0
 31
0.0
  0
LINE
  5
280
100
AcDbEntity
  8
0
100
AcDbLine
 10
221.0
 20
20.0
 30
0.0
 11
221.0
 21
4.0
 31
0.0
  0
LINE
  5
281
100
AcDbEntity
  8
0
100
AcDbLine
 10
201.0
 20
20.0
 30
0.0
 11
201.0
 21
4.0
 31
0.0
  0
TEXT
  5
282
100
AcDbEntity
  8
0
100
AcDbText
 10
206.93529
 20
13.671686
 30
0.0
 40
4.0
  1
品名
  7
STANDARD1
100
AcDbText
  0
TEXT
  5
283
100
AcDbEntity
  8
0
100
AcDbText
 10
206.93529
 20
5.671686
 30
0.0
 40
4.0
  1
型名
  7
STANDARD1
100
AcDbText
  0
TEXT
  5
284
100
AcDbEntity
  8
0
100
AcDbText
 10
222.93529
 20
13.671686
 30
0.0
 40
4.0
  1
カメラケース取付台
  7
STANDARD1
100
AcDbText
  0
TEXT
  5
285
100
AcDbEntity
  8
0
100
AcDbText
 10
222.93529
 20
5.671686
 30
0.0
 40
4.0
  1
A-5615
  7
STANDARD1
100
AcDbText
  0
LINE
  5
291
100
AcDbEntity
  8
1
100
AcDbLine
 10
74.917245
 20
127.2673
 30
0.0
 11
74.917245
 21
136.439866
 31
0.0
  0
LINE
  5
292
100
AcDbEntity
  8
1
100
AcDbLine
 10
82.917245
 20
127.374824
 30
0.0
 11
82.917245
 21
136.439866
 31
0.0
  0
LINE
  5
293
100
AcDbEntity
  8
1
100
AcDbLine
 10
75.917245
 20
136.439866
 30
0.0
 11
81.917245
 21
136.439866
 31
0.0
  0
INSERT
  5
295
100
AcDbEntity
  8
1
100
AcDbBlockReference
  2
_OPEN30
 10
74.917245
 20
136.439866
 30
0.0
 50
180.0
  0
INSERT
  5
296
100
AcDbEntity
  8
1
100
AcDbBlockReference
  2
_OPEN30
 10
82.917245
 20
136.439866
 30
0.0
  0
TEXT
  5
298
100
AcDbEntity
  8
1
100
AcDbText
 10
79.747073
 20
136.811002
 30
0.0
 40
2.24
  1
40
 41
0.429
  7
KANJI
100
AcDbText
  0
LINE
  5
2A3
100
AcDbEntity
  8
1
  6
CENTER
 48
5.0
100
AcDbLine
 10
78.916745
 20
99.304856
 30
0.0
 11
78.916745
 21
142.23444
 31
0.0
  0
LINE
  5
2A4
100
AcDbEntity
  8
1
100
AcDbLine
 10
78.916745
 20
142.23444
 30
0.0
 11
78.916745
 21
140.854859
 31
0.0
  0
LINE
  5
2A5
100
AcDbEntity
  8
1
100
AcDbLine
 10
122.917245
 20
137.081615
 30
0.0
 11
122.917245
 21
140.854859
 31
0.0
  0
LINE
  5
2A6
100
AcDbEntity
  8
1
100
AcDbLine
 10
79.916745
 20
140.854859
 30
0.0
 11
121.917245
 21
140.854859
 31
0.0
  0
INSERT
  5
2A7
100
AcDbEntity
  8
1
100
AcDbBlockReference
  2
_OPEN30
 10
78.916745
 20
140.854859
 30
0.0
 50
180.0
  0
INSERT
  5
2A8
100
AcDbEntity
  8
1
100
AcDbBlockReference
  2
_OPEN30
 10
122.917245
 20
140.854859
 30
0.0
  0
TEXT
  5
2AA
100
AcDbEntity
  8
1
100
AcDbText
 10
99.404681
 20
141.114057
 30
0.0
 40
2.24
  1
220
 41
0.429
  7
KANJI
100
AcDbText
  0
LINE
  5
2AB
100
AcDbEntity
  8
1
100
AcDbLine
 10
164.544245
 20
54.418615
 30
0.0
 11
177.849733
 21
54.418615
 31
0.0
  0
LINE
  5
2AC
100
AcDbEntity
  8
1
100
AcDbLine
 10
161.544245
 20
79.418615
 30
0.0
 11
177.849733
 21
79.418615
 31
0.0
  0
LINE
  5
2AD
100
AcDbEntity
  8
1
100
AcDbLine
 10
177.849733
 20
55.418615
 30
0.0
 11
177.849733
 21
78.418615
 31
0.0
  0
INSERT
  5
2AE
100
AcDbEntity
  8
1
100
AcDbBlockReference
  2
_OPEN30
 10
177.849733
 20
54.418615
 30
0.0
 50
270.0
  0
INSERT
  5
2AF
100
AcDbEntity
  8
1
100
AcDbBlockReference
  2
_OPEN30
 10
177.849733
 20
79.418615
 30
0.0
 50
90.0
  0
MTEXT
  5
2B1
100
AcDbEntity
  8
1
100
AcDbMText
 10
176.546327
 20
66.418615
 30
0.0
 40
2.116667
 41
0.0
 71
     5
 72
     1
  1
125
 11
0.0
 21
1.0
 31
0.0
  0
LINE
  5
2B2
100
AcDbEntity
  8
1
100
AcDbLine
 10
147.864245
 20
54.203802
 30
0.0
 11
147.864245
 21
51.224027
 31
0.0
  0
LINE
  5
2B3
100
AcDbEntity
  8
1
100
AcDbLine
 10
161.224245
 20
54.203802
 30
0.0
 11
161.224245
 21
51.224027
 31
0.0
  0
LINE
  5
2B4
100
AcDbEntity
  8
1
100
AcDbLine
 10
148.864245
 20
51.224027
 30
0.0
 11
160.224245
 21
51.224027
 31
0.0
  0
INSERT
  5
2B5
100
AcDbEntity
  8
1
100
AcDbBlockReference
  2
_OPEN30
 10
147.864245
 20
51.224027
 30
0.0
 50
180.0
  0
INSERT
  5
2B6
100
AcDbEntity
  8
1
100
AcDbBlockReference
  2
_OPEN30
 10
161.224245
 20
51.224027
 30
0.0
  0
MTEXT
  5
2B7
100
AcDbEntity
  8
1
100
AcDbMText
 10
154.544245
 20
52.37236
 30
0.0
 40
2.116667
 41
0.0
 71
     5
 72
     1
  1
70
  0
ENDSEC
  0
SECTION
  2
OBJECTS
  0
DICTIONARY
  5
C
100
AcDbDictionary
  3
ACAD_GROUP
350
D
  3
ACAD_MLINESTYLE
350
1B
  0
DICTIONARY
  5
D
102
{ACAD_REACTORS
330
C
102
}
100
AcDbDictionary
  3
*A1
350
255
  3
*A2
350
256
  3
*A3
350
257
  3
*A4
350
258
  3
*A5
350
259
  3
*A6
350
287
  3
*A7
350
288
  3
*A8
350
289
  0
DICTIONARY
  5
1B
102
{ACAD_REACTORS
330
C
102
}
100
AcDbDictionary
  3
STANDARD
350
1C
  0
GROUP
  5
255
102
{ACAD_REACTORS
330
D
102
}
100
AcDbGroup
300

 70
     3
 71
     1
340
241
340
240
340
243
340
242
  0
GROUP
  5
256
102
{ACAD_REACTORS
330
D
102
}
100
AcDbGroup
300

 70
     3
 71
     1
340
23D
340
23C
340
23F
340
23E
  0
GROUP
  5
257
102
{ACAD_REACTORS
330
D
102
}
100
AcDbGroup
300

 70
     3
 71
     1
340
261
340
260
340
263
340
262
  0
GROUP
  5
258
102
{ACAD_REACTORS
330
D
102
}
100
AcDbGroup
300

 70
     3
 71
     1
340
25C
340
25D
340
25E
340
25F
  0
GROUP
  5
259
102
{ACAD_REACTORS
330
D
102
}
100
AcDbGroup
300

 70
     3
 71
     1
340
26E
340
261
340
260
340
263
340
262
  0
GROUP
  5
287
102
{ACAD_REACTORS
330
D
102
}
100
AcDbGroup
300

 70
     1
 71
     1
  0
GROUP
  5
288
102
{ACAD_REACTORS
330
D
102
}
100
AcDbGroup
300

 70
     1
 71
     1
  0
GROUP
  5
289
102
{ACAD_REACTORS
330
D
102
}
100
AcDbGroup
300

 70
     1
 71
     1
  0
MLINESTYLE
  5
1C
102
{ACAD_REACTORS
330
1B
102
}
100
AcDbMlineStyle
  2
STANDARD
 70
     0
  3

 62
   256
 51
90.0
 52
90.0
 71
     2
 49
0.5
 62
   256
  6
BYLAYER
 49
-0.5
 62
   256
  6
BYLAYER
  0
ENDSEC
  0
EOF
