  0
SECTION
  2
HEADER
  9
$ACADVER
  1
AC1014
  9
$ACADMAINTVER
 70
     0
  9
$DWGCODEPAGE
  3
ANSI_932
  9
$INSBASE
 10
0.0
 20
0.0
 30
0.0
  9
$EXTMIN
 10
-6.014528
 20
-6.013758
 30
-0.001526
  9
$EXTMAX
 10
291.010883
 20
204.014603
 30
0.0
  9
$LIMMIN
 10
-5.544612
 20
-6.096562
  9
$LIMMAX
 10
288.869668
 20
203.577113
  9
$ORTHOMODE
 70
     0
  9
$REGENMODE
 70
     1
  9
$FILLMODE
 70
     1
  9
$QTEXTMODE
 70
     0
  9
$MIRRTEXT
 70
     1
  9
$DRAGMODE
 70
     2
  9
$LTSCALE
 40
1.0
  9
$OSMODE
 70
    37
  9
$ATTMODE
 70
     1
  9
$TEXTSIZE
 40
1.411111
  9
$TRACEWID
 40
0.05
  9
$TEXTSTYLE
  7
STANDARD
  9
$CLAYER
  8
1
  9
$CELTYPE
  6
BYLAYER
  9
$CECOLOR
 62
   256
  9
$CELTSCALE
 40
1.0
  9
$DELOBJ
 70
     1
  9
$DISPSILH
 70
     0
  9
$DIMSCALE
 40
0.0
  9
$DIMASZ
 40
1.0
  9
$DIMEXO
 40
0.0
  9
$DIMDLI
 40
0.5
  9
$DIMRND
 40
0.0
  9
$DIMDLE
 40
0.0
  9
$DIMEXE
 40
0.0
  9
$DIMTP
 40
0.0
  9
$DIMTM
 40
0.0
  9
$DIMTXT
 40
2.116667
  9
$DIMCEN
 40
0.0
  9
$DIMTSZ
 40
0.0
  9
$DIMTOL
 70
     0
  9
$DIMLIM
 70
     0
  9
$DIMTIH
 70
     1
  9
$DIMTOH
 70
     1
  9
$DIMSE1
 70
     0
  9
$DIMSE2
 70
     0
  9
$DIMTAD
 70
     0
  9
$DIMZIN
 70
     0
  9
$DIMBLK
  1

  9
$DIMASO
 70
     0
  9
$DIMSHO
 70
     0
  9
$DIMPOST
  1

  9
$DIMAPOST
  1

  9
$DIMALT
 70
     0
  9
$DIMALTD
 70
     0
  9
$DIMALTF
 40
1.0
  9
$DIMLFAC
 40
1.0
  9
$DIMTOFL
 70
     0
  9
$DIMTVP
 40
0.0
  9
$DIMTIX
 70
     0
  9
$DIMSOXD
 70
     0
  9
$DIMSAH
 70
     1
  9
$DIMBLK1
  1
_OPEN30
  9
$DIMBLK2
  1
_OPEN30
  9
$DIMSTYLE
  2
STANDARD
  9
$DIMCLRD
 70
     0
  9
$DIMCLRE
 70
     0
  9
$DIMCLRT
 70
     0
  9
$DIMTFAC
 40
1.0
  9
$DIMGAP
 40
0.09
  9
$DIMJUST
 70
     0
  9
$DIMSD1
 70
     0
  9
$DIMSD2
 70
     0
  9
$DIMTOLJ
 70
     1
  9
$DIMTZIN
 70
     0
  9
$DIMALTZ
 70
     0
  9
$DIMALTTZ
 70
     0
  9
$DIMFIT
 70
     3
  9
$DIMUPT
 70
     0
  9
$DIMUNIT
 70
     2
  9
$DIMDEC
 70
     4
  9
$DIMTDEC
 70
     4
  9
$DIMALTU
 70
     2
  9
$DIMALTTD
 70
     2
  9
$DIMTXSTY
  7
STANDARD
  9
$DIMAUNIT
 70
     0
  9
$LUNITS
 70
     2
  9
$LUPREC
 70
     2
  9
$SKETCHINC
 40
1.0
  9
$FILLETRAD
 40
0.0
  9
$AUNITS
 70
     1
  9
$AUPREC
 70
     2
  9
$MENU
  1
ACAD
  9
$ELEVATION
 40
0.0
  9
$PELEVATION
 40
0.0
  9
$THICKNESS
 40
0.0
  9
$LIMCHECK
 70
     1
  9
$BLIPMODE
 70
     1
  9
$CHAMFERA
 40
0.0
  9
$CHAMFERB
 40
0.0
  9
$CHAMFERC
 40
0.0
  9
$CHAMFERD
 40
0.0
  9
$SKPOLY
 70
     0
  9
$TDCREATE
 40
0.0000000000
  9
$TDUPDATE
 40
0.0000000000
  9
$TDINDWG
 40
0.0000000000
  9
$TDUSRTIMER
 40
0.0000000000
  9
$USRTIMER
 70
     1
  9
$ANGBASE
 50
0.0
  9
$ANGDIR
 70
     0
  9
$PDMODE
 70
     0
  9
$PDSIZE
 40
0.4
  9
$PLINEWID
 40
0.0
  9
$COORDS
 70
     2
  9
$SPLFRAME
 70
     0
  9
$SPLINETYPE
 70
     6
  9
$SPLINESEGS
 70
     8
  9
$ATTDIA
 70
     0
  9
$ATTREQ
 70
     1
  9
$HANDLING
 70
     1
  9
$HANDSEED
  5
208
  9
$SURFTAB1
 70
     6
  9
$SURFTAB2
 70
     6
  9
$SURFTYPE
 70
     6
  9
$SURFU
 70
     6
  9
$SURFV
 70
     6
  9
$UCSNAME
  2

  9
$UCSORG
 10
0.0
 20
0.0
 30
0.0
  9
$UCSXDIR
 10
1.0
 20
0.0
 30
0.0
  9
$UCSYDIR
 10
0.0
 20
1.0
 30
0.0
  9
$PUCSNAME
  2

  9
$PUCSORG
 10
0.0
 20
0.0
 30
0.0
  9
$PUCSXDIR
 10
1.0
 20
0.0
 30
0.0
  9
$PUCSYDIR
 10
0.0
 20
1.0
 30
0.0
  9
$USERI1
 70
     0
  9
$USERI2
 70
     0
  9
$USERI3
 70
     0
  9
$USERI4
 70
     0
  9
$USERI5
 70
     0
  9
$USERR1
 40
0.0
  9
$USERR2
 40
0.0
  9
$USERR3
 40
0.0
  9
$USERR4
 40
0.0
  9
$USERR5
 40
0.0
  9
$WORLDVIEW
 70
     1
  9
$SHADEDGE
 70
     3
  9
$SHADEDIF
 70
    70
  9
$TILEMODE
 70
     1
  9
$MAXACTVP
 70
    48
  9
$PINSBASE
 10
0.0
 20
0.0
 30
0.0
  9
$PLIMCHECK
 70
     0
  9
$PEXTMIN
 10
1.000000E+20
 20
1.000000E+20
 30
1.000000E+20
  9
$PEXTMAX
 10
-1.000000E+20
 20
-1.000000E+20
 30
-1.000000E+20
  9
$PLIMMIN
 10
0.0
 20
0.0
  9
$PLIMMAX
 10
12.0
 20
9.0
  9
$UNITMODE
 70
     0
  9
$VISRETAIN
 70
     1
  9
$PLINEGEN
 70
     0
  9
$PSLTSCALE
 70
     1
  9
$TREEDEPTH
 70
  3020
  9
$PICKSTYLE
 70
     1
  9
$CMLSTYLE
  2
STANDARD
  9
$CMLJUST
 70
     0
  9
$CMLSCALE
 40
1.0
  9
$PROXYGRAPHICS
 70
     1
  9
$MEASUREMENT
 70
     0
  0
ENDSEC
  0
SECTION
  2
CLASSES
  0
ENDSEC
  0
SECTION
  2
TABLES
  0
TABLE
  2
VPORT
  5
8
100
AcDbSymbolTable
 70
     2
  0
VPORT
  5
207
100
AcDbSymbolTableRecord
100
AcDbViewportTableRecord
  2
*ACTIVE
 70
     0
 10
0.0
 20
0.0
 11
1.0
 21
1.0
 12
142.498178
 22
98.95902
 13
0.0
 23
0.0
 14
1.0
 24
1.0
 15
0.0
 25
0.0
 16
0.0
 26
0.0
 36
1.0
 17
0.0
 27
0.0
 37
0.0
 40
212.597688
 41
1.83004
 42
50.0
 43
0.0
 44
0.0
 50
0.0
 51
0.0
 71
     0
 72
   100
 73
     1
 74
     1
 75
     0
 76
     0
 77
     0
 78
     0
  0
ENDTAB
  0
TABLE
  2
LTYPE
  5
5
100
AcDbSymbolTable
 70
     5
  0
LTYPE
  5
12
100
AcDbSymbolTableRecord
100
AcDbLinetypeTableRecord
  2
BYBLOCK
 70
     0
  3

 72
    65
 73
     0
 40
0.0
  0
LTYPE
  5
13
100
AcDbSymbolTableRecord
100
AcDbLinetypeTableRecord
  2
BYLAYER
 70
     0
  3

 72
    65
 73
     0
 40
0.0
  0
LTYPE
  5
14
100
AcDbSymbolTableRecord
100
AcDbLinetypeTableRecord
  2
CONTINUOUS
 70
     0
  3
SolidLine
 72
    65
 73
     0
 40
0.0
  0
LTYPE
  5
20
100
AcDbSymbolTableRecord
100
AcDbLinetypeTableRecord
  2
HIDDEN
 70
     0
  3
- - - - - - - - - -
 72
    65
 73
     2
 40
3.0
 49
2.0
 74
     0
 49
-1.0
 74
     0
  0
LTYPE
  5
21
100
AcDbSymbolTableRecord
100
AcDbLinetypeTableRecord
  2
DOT
 70
     0
  3
･･･････････････････
 72
    65
 73
     2
 40
2.0
 49
0.5
 74
     0
 49
-1.5
 74
     0
  0
LTYPE
  5
22
100
AcDbSymbolTableRecord
100
AcDbLinetypeTableRecord
  2
DASHDOT
 70
     0
  3
-･-･-･-･-･-･-･-･-･-
 72
    65
 73
     4
 40
20.0
 49
15.0
 74
     0
 49
-2.0
 74
     0
 49
1.0
 74
     0
 49
-2.0
 74
     0
  0
LTYPE
  5
23
100
AcDbSymbolTableRecord
100
AcDbLinetypeTableRecord
  2
DIVIDE
 70
     0
  3
-･･-･･-･･-･･-･･-･･-
 72
    65
 73
     6
 40
20.0
 49
15.0
 74
     0
 49
-1.0
 74
     0
 49
1.0
 74
     0
 49
-1.0
 74
     0
 49
1.0
 74
     0
 49
-1.0
 74
     0
  0
ENDTAB
  0
TABLE
  2
LAYER
  5
2
100
AcDbSymbolTable
 70
    31
  0
LAYER
  5
E
100
AcDbSymbolTableRecord
100
AcDbLayerTableRecord
  2
0
 70
     0
 62
     7
  6
CONTINUOUS
  0
LAYER
  5
1F
100
AcDbSymbolTableRecord
100
AcDbLayerTableRecord
  2
1
 70
     0
 62
     7
  6
CONTINUOUS
  0
LAYER
  5
24
100
AcDbSymbolTableRecord
100
AcDbLayerTableRecord
  2
CONTINUOUS
 70
     0
 62
     7
  6
CONTINUOUS
  0
LAYER
  5
25
100
AcDbSymbolTableRecord
100
AcDbLayerTableRecord
  2
HIDDEN
 70
     0
 62
     2
  6
HIDDEN
  0
LAYER
  5
26
100
AcDbSymbolTableRecord
100
AcDbLayerTableRecord
  2
DOT
 70
     0
 62
     7
  6
DOT
  0
LAYER
  5
27
100
AcDbSymbolTableRecord
100
AcDbLayerTableRecord
  2
DASHDOT
 70
     0
 62
     6
  6
DASHDOT
  0
LAYER
  5
28
100
AcDbSymbolTableRecord
100
AcDbLayerTableRecord
  2
DIVIDE
 70
     0
 62
     5
  6
DIVIDE
  0
LAYER
  5
29
100
AcDbSymbolTableRecord
100
AcDbLayerTableRecord
  2
DIMENSION
 70
     0
 62
     7
  6
CONTINUOUS
  0
LAYER
  5
2A
100
AcDbSymbolTableRecord
100
AcDbLayerTableRecord
  2
2
 70
     0
 62
     7
  6
CONTINUOUS
  0
LAYER
  5
2B
100
AcDbSymbolTableRecord
100
AcDbLayerTableRecord
  2
3
 70
     0
 62
     7
  6
CONTINUOUS
  0
LAYER
  5
2C
100
AcDbSymbolTableRecord
100
AcDbLayerTableRecord
  2
4
 70
     0
 62
     7
  6
CONTINUOUS
  0
LAYER
  5
2D
100
AcDbSymbolTableRecord
100
AcDbLayerTableRecord
  2
5
 70
     0
 62
     7
  6
CONTINUOUS
  0
LAYER
  5
2E
100
AcDbSymbolTableRecord
100
AcDbLayerTableRecord
  2
6
 70
     0
 62
     7
  6
CONTINUOUS
  0
LAYER
  5
2F
100
AcDbSymbolTableRecord
100
AcDbLayerTableRecord
  2
7
 70
     0
 62
     7
  6
CONTINUOUS
  0
LAYER
  5
30
100
AcDbSymbolTableRecord
100
AcDbLayerTableRecord
  2
8
 70
     0
 62
     7
  6
CONTINUOUS
  0
LAYER
  5
31
100
AcDbSymbolTableRecord
100
AcDbLayerTableRecord
  2
9
 70
     0
 62
     7
  6
CONTINUOUS
  0
LAYER
  5
32
100
AcDbSymbolTableRecord
100
AcDbLayerTableRecord
  2
10
 70
     0
 62
     7
  6
CONTINUOUS
  0
LAYER
  5
33
100
AcDbSymbolTableRecord
100
AcDbLayerTableRecord
  2
11
 70
     0
 62
     7
  6
CONTINUOUS
  0
LAYER
  5
34
100
AcDbSymbolTableRecord
100
AcDbLayerTableRecord
  2
12
 70
     0
 62
     7
  6
CONTINUOUS
  0
LAYER
  5
35
100
AcDbSymbolTableRecord
100
AcDbLayerTableRecord
  2
13
 70
     0
 62
     7
  6
CONTINUOUS
  0
LAYER
  5
36
100
AcDbSymbolTableRecord
100
AcDbLayerTableRecord
  2
14
 70
     0
 62
     7
  6
CONTINUOUS
  0
LAYER
  5
37
100
AcDbSymbolTableRecord
100
AcDbLayerTableRecord
  2
15
 70
     0
 62
     7
  6
CONTINUOUS
  0
LAYER
  5
38
100
AcDbSymbolTableRecord
100
AcDbLayerTableRecord
  2
16
 70
     0
 62
     7
  6
CONTINUOUS
  0
LAYER
  5
39
100
AcDbSymbolTableRecord
100
AcDbLayerTableRecord
  2
17
 70
     0
 62
     7
  6
CONTINUOUS
  0
LAYER
  5
3A
100
AcDbSymbolTableRecord
100
AcDbLayerTableRecord
  2
18
 70
     0
 62
     7
  6
CONTINUOUS
  0
LAYER
  5
3B
100
AcDbSymbolTableRecord
100
AcDbLayerTableRecord
  2
19
 70
     0
 62
     7
  6
CONTINUOUS
  0
LAYER
  5
3C
100
AcDbSymbolTableRecord
100
AcDbLayerTableRecord
  2
HATCH
 70
     0
 62
     7
  6
CONTINUOUS
  0
LAYER
  5
3D
100
AcDbSymbolTableRecord
100
AcDbLayerTableRecord
  2
GUIDE1
 70
     0
 62
     4
  6
DASHDOT
  0
LAYER
  5
3E
100
AcDbSymbolTableRecord
100
AcDbLayerTableRecord
  2
GUIDE2
 70
     0
 62
     4
  6
DASHDOT
  0
LAYER
  5
3F
100
AcDbSymbolTableRecord
100
AcDbLayerTableRecord
  2
GUIDE3
 70
     0
 62
     4
  6
DASHDOT
  0
LAYER
  5
40
100
AcDbSymbolTableRecord
100
AcDbLayerTableRecord
  2
GUIDE4
 70
     0
 62
     4
  6
DASHDOT
  0
ENDTAB
  0
TABLE
  2
STYLE
  5
3
100
AcDbSymbolTable
 70
     3
  0
STYLE
  5
F
100
AcDbSymbolTableRecord
100
AcDbTextStyleTableRecord
  2
STANDARD
 70
     0
 40
0.0
 41
1.0
 50
0.0
 71
     0
 42
3.0
  3
TXT
  4

  0
STYLE
  5
41
100
AcDbSymbolTableRecord
100
AcDbTextStyleTableRecord
  2
KANJI
 70
     0
 40
0.0
 41
1.0
 50
0.0
 71
     0
 42
3.0
  3
TXT
  4
BIGFONT
  0
STYLE
  5
1CD
100
AcDbSymbolTableRecord
100
AcDbTextStyleTableRecord
  2
STANDARD1
 70
     0
 40
0.0
 41
1.0
 50
0.0
 71
     0
 42
4.0
  3
monotxt.shx
  4
bigfont.shx
  0
ENDTAB
  0
TABLE
  2
VIEW
  5
6
100
AcDbSymbolTable
 70
     0
  0
ENDTAB
  0
TABLE
  2
UCS
  5
7
100
AcDbSymbolTable
 70
     0
  0
ENDTAB
  0
TABLE
  2
APPID
  5
9
100
AcDbSymbolTable
 70
     5
  0
APPID
  5
10
100
AcDbSymbolTableRecord
100
AcDbRegAppTableRecord
  2
ACAD
 70
     0
  0
APPID
  5
1CE
100
AcDbSymbolTableRecord
100
AcDbRegAppTableRecord
  2
CONTENTTABDATA
 70
     0
  0
APPID
  5
1CF
100
AcDbSymbolTableRecord
100
AcDbRegAppTableRecord
  2
CONTENTCURRENTTAB
 70
     0
  0
APPID
  5
1D0
100
AcDbSymbolTableRecord
100
AcDbRegAppTableRecord
  2
CONTENTBLOCKDESCRIPTION
 70
     0
  0
APPID
  5
1D1
100
AcDbSymbolTableRecord
100
AcDbRegAppTableRecord
  2
CONTENTBLOCKICON
 70
     0
  0
ENDTAB
  0
TABLE
  2
DIMSTYLE
  5
A
100
AcDbSymbolTable
 70
     1
  0
DIMSTYLE
105
17D
100
AcDbSymbolTableRecord
100
AcDbDimStyleTableRecord
  2
STANDARD
 70
     0
  3

  4

  5

  6

  7

 40
1.0
 41
0.18
 42
0.0625
 43
0.38
 44
0.18
 45
0.0
 46
0.0
 47
0.0
 48
0.0
140
0.18
141
0.09
142
0.0
143
25.4
144
1.0
145
0.0
146
1.0
147
0.09
 71
     0
 72
     0
 73
     1
 74
     1
 75
     0
 76
     0
 77
     0
 78
     0
170
     0
171
     2
172
     0
173
     0
174
     0
175
     0
176
     0
177
     0
178
     0
270
     2
271
     4
272
     4
273
     2
274
     2
340
F
275
     0
280
     0
281
     0
282
     0
283
     1
284
     0
285
     0
286
     0
287
     3
288
     0
  0
ENDTAB
  0
TABLE
  2
BLOCK_RECORD
  5
1
100
AcDbSymbolTable
 70
     3
  0
BLOCK_RECORD
  5
18
100
AcDbSymbolTableRecord
100
AcDbBlockTableRecord
  2
*MODEL_SPACE
  0
BLOCK_RECORD
  5
15
100
AcDbSymbolTableRecord
100
AcDbBlockTableRecord
  2
*PAPER_SPACE
  0
BLOCK_RECORD
  5
190
100
AcDbSymbolTableRecord
100
AcDbBlockTableRecord
  2
_OPEN30
  0
BLOCK_RECORD
  5
1B8
100
AcDbSymbolTableRecord
100
AcDbBlockTableRecord
  2
外形枠
1001
CONTENTBLOCKICON
1071
        0
1004
2800000020000000200000000100040000000000000200000000000000000000000000000000000000000000000080000080000000808000800000008000800080800000C0C0C000808080000000FF0000FF000000FFFF00FF000000FF00FF00FFFF0000FFFFFF00FFFFFFFFFFFFFFFFFFFFFFFFFFFFFFFF
1004
FFFFFFFFFFFFFFFFFFFFFFFFFFFFFFFFFFFFFFFFFFFFFFFFFFFFFFFFFFFFFFFFFFFFFFFFFFFFFFFFFFFFFFFFFFFFFFFFFFFFFFFFFFFFFFFFFFFFFFFFFFFFFFFFFFFFFFFFFFFFFFFFFFFFFFFFFFFFFFFFFFFFFFFFFFFFFFFFFFFFFFFFFFFFFFFFFFFFFFFFFFFFFFFFFFFFFFFFFFFFFFFFFFFFFFFFFFFFFFFF
1004
FFFFFFFFFFFFFFFFFFFFFFFFFFFFFFFFFFFFFFFFFFFFFFFFFFFFFFFFFFFFFFFFFFFFFFFFFFFFFFFFFFFFFFFFFFFFFFFFFFFFFFFFFFFFFFFFFFFFFFFFFFFFFFFFFFFFFFFFFFFFFFFFFFFFFFFFFFFFFFFFFFFFFFFFFFFFFFFFFFFFFFFFFFFFFFFFFFFFFFFFFFFFFFFFFFFFFFFFFFFFFFFFFFFFFFFFFFFFFFFF
1004
FFFFFFFFFFFFFFFFFFFFFFFFFFFFFFFFFFFFFFFFFFFFFFFFFFFFFFFFFFFFFFFFFFFFFFFFFFFFFFFFFFFFFFFFFFFFFFFFFFFFFFFFFFFFFFFFFFFFFFFFFFFFFFFFFFFFFFFFFFFFFFFFFFFFFFFFFFFFFFFFFFFFFFFFFFFFFFFFFFFFFFFFFFFFFFFFFFFFFFFFFFFFFFFFFFFFFFFFFFFFFFFFFFFFFFFFFFFFFFFF
1004
FFFFFFFFFFFFFFFFFFFFFFFFFFFFFFFFFFFFFFFFFFFFFFFFFFFFFFFFFFFFFFFFFFFFFFFFFFFFFFFFFFFFFFFFFFFFFFFFFFFFFFFFFFFFFFFFFFFFFFFFFFFFFFFFFFFFFFFFFFFFFFFFFFFFFFFFFFFFFFFFFFFFFFFFFFFFFFFFFFFFFFFFFFFFFFFFFFFFFFFFFFFFFFFFFFFFFFFFFFFFFFFFFFFFFFFFFFFFFFFF
1004
FFFFFFFFFFFFFFFFFFFFFFFFFFFFFFFF
  0
BLOCK_RECORD
  5
1D7
100
AcDbSymbolTableRecord
100
AcDbBlockTableRecord
  2
外形枠２
1001
CONTENTBLOCKICON
1071
        0
1004
2800000020000000200000000100040000000000000200000000000000000000000000000000000000000000000080000080000000808000800000008000800080800000C0C0C000808080000000FF0000FF000000FFFF00FF000000FF00FF00FFFF0000FFFFFF00FFFFFFFFFFFFFFFFFFFFFFFFFFFFFFFF
1004
FFFFFFFFFFFFFFFFFFFFFFFFFFFFFFFFFFFFFFFFFFFFFFFFFFFFFFFFFFFFFFFFFFFFFFFFFFFFFFFFFFFFFFFFFFFFFFFFFFFFFFFFFFFFFFFFFFFFFFFFFFFFFFFFFFFFFFFFFFFFFFFFFFFFFFFFFFFFFFFFFFFFFFFFFFFFFFFFFFFFFFFFFFFFFFFFFFFFFFFFFFFFFFFFFFFFFFFFFFFFFFFFFFFFFFFFFFFFFFFF
1004
FFFFFFFFFFFFFFFFFFFFFFFFFFFFFFFFFFFFFFFFFFFFFFFFFFFFFFFFFFFFFFFFFFFFFFFFFFFFFFFFFFFFFFFFFFFFFFFFFFFFFFFFFFFFFFFFFFFFFFFFFFFFFFFFFFFFFFFFFFFFFFFFFFFFFFFFFFFFFFFFFFFFFFFFFFFFFFFFFFFFFFFFFFFFFFFFFFFFFFFFFFFFFFFFFFFFFFFFFFFFFFFFFFFFFFFFFFFFFFFF
1004
FFFFFFFFFFFFFFFFFFFFFFFFFFFFFFFFFFFFFFFFFFFFFFFFFFFFFFFFFFFFFFFFFFFFFFFFFFFFFFFFFFFFFFFFFFFFFFFFFFFFFFFFFFFFFFFFFFFFFFFFFFFFFFFFFFFFFFFFFFFFFFFFFFFFFFFFFFFFFFFFFFFFFFFFFFFFFFFFFFFFFFFFFFFFFFFFFFFFFFFFFFFFFFFFFFFFFFFFFFFFFFFFFFFFFFFFFFFFFFFF
1004
FFFFFFFFFFFFFFFFFFFFFFFFFFFFFFFFFFFFFFFFFFFFFFFFFFFFFFFFFFFFFFFFFFFFFFFFFFFFFFFFFFFFFFFFFFFFFFFFFFFFFFFFFFFFFFFFFFFFFFFFFFFFFFFFFFFFFFFFFFFFFFFFFFFFFFFFFFFFFFFFFFFFFFFFFFFFFFFFFFFFFFFFFFFFFFFFFFFFFFFFFFFFFFFFFFFFFFFFFFFFFFFFFFFFFFFFFFFFFFFF
1004
FFFFFFFFFFFFFFFFFFFFFFFFFFFFFFFF
  0
ENDTAB
  0
ENDSEC
  0
SECTION
  2
BLOCKS
  0
BLOCK
  5
19
100
AcDbEntity
  8
0
100
AcDbBlockBegin
  2
*MODEL_SPACE
 70
     0
 10
0.0
 20
0.0
 30
0.0
  3
*MODEL_SPACE
  1

  0
ENDBLK
  5
1A
100
AcDbEntity
  8
0
100
AcDbBlockEnd
  0
BLOCK
  5
16
100
AcDbEntity
 67
     1
  8
0
100
AcDbBlockBegin
  2
*PAPER_SPACE
 70
     0
 10
0.0
 20
0.0
 30
0.0
  3
*PAPER_SPACE
  1

  0
ENDBLK
  5
17
100
AcDbEntity
 67
     1
  8
0
100
AcDbBlockEnd
  0
BLOCK
  5
191
100
AcDbEntity
  8
0
100
AcDbBlockBegin
  2
_OPEN30
 70
     0
 10
0.0
 20
0.0
 30
0.0
  3
_OPEN30
  1

  0
LINE
  5
192
100
AcDbEntity
  8
0
  6
BYBLOCK
 62
     0
100
AcDbLine
 10
-1.0
 20
0.267949
 30
0.0
 11
0.0
 21
0.0
 31
0.0
  0
LINE
  5
193
100
AcDbEntity
  8
0
  6
BYBLOCK
 62
     0
100
AcDbLine
 10
0.0
 20
0.0
 30
0.0
 11
-1.0
 21
-0.267949
 31
0.0
  0
LINE
  5
194
100
AcDbEntity
  8
0
  6
BYBLOCK
 62
     0
100
AcDbLine
 10
0.0
 20
0.0
 30
0.0
 11
-1.0
 21
0.0
 31
0.0
  0
ENDBLK
  5
195
100
AcDbEntity
  8
0
100
AcDbBlockEnd
  0
BLOCK
  5
1CB
100
AcDbEntity
  8
0
100
AcDbBlockBegin
  2
外形枠
 70
     0
 10
0.0
 20
0.0
 30
0.0
  3
外形枠
  1

  0
LINE
  5
1B9
102
{ACAD_REACTORS
330
1D3
102
}
100
AcDbEntity
  8
0
100
AcDbLine
 10
0.0
 20
0.0
 30
0.0
 11
0.0
 21
210.0
 31
0.0
  0
LINE
  5
1BA
102
{ACAD_REACTORS
330
1D3
102
}
100
AcDbEntity
  8
0
100
AcDbLine
 10
0.0
 20
210.0
 30
0.0
 11
297.0
 21
210.0
 31
0.0
  0
LINE
  5
1BB
102
{ACAD_REACTORS
330
1D3
102
}
100
AcDbEntity
  8
0
100
AcDbLine
 10
297.0
 20
210.0
 30
0.0
 11
297.0
 21
0.0
 31
0.0
  0
LINE
  5
1BC
102
{ACAD_REACTORS
330
1D3
102
}
100
AcDbEntity
  8
0
100
AcDbLine
 10
297.0
 20
0.0
 30
0.0
 11
0.0
 21
0.0
 31
0.0
  0
LINE
  5
1BD
102
{ACAD_REACTORS
330
1D2
102
}
100
AcDbEntity
  8
0
100
AcDbLine
 10
6.0
 20
6.0
 30
0.0
 11
6.0
 21
204.0
 31
0.0
  0
LINE
  5
1BE
102
{ACAD_REACTORS
330
1D2
102
}
100
AcDbEntity
  8
0
100
AcDbLine
 10
6.0
 20
204.0
 30
0.0
 11
292.0
 21
204.0
 31
0.0
  0
LINE
  5
1BF
102
{ACAD_REACTORS
330
1D2
102
}
100
AcDbEntity
  8
0
100
AcDbLine
 10
292.0
 20
204.0
 30
0.0
 11
292.0
 21
6.0
 31
0.0
  0
LINE
  5
1C0
102
{ACAD_REACTORS
330
1D2
102
}
100
AcDbEntity
  8
0
100
AcDbLine
 10
292.0
 20
6.0
 30
0.0
 11
6.0
 21
6.0
 31
0.0
  0
LINE
  5
1C1
100
AcDbEntity
  8
0
100
AcDbLine
 10
287.0
 20
10.0
 30
0.0
 11
207.0
 21
10.0
 31
0.0
  0
LINE
  5
1C2
100
AcDbEntity
  8
0
100
AcDbLine
 10
287.0
 20
26.0
 30
0.0
 11
287.0
 21
10.0
 31
0.0
  0
LINE
  5
1C3
100
AcDbEntity
  8
0
100
AcDbLine
 10
287.0
 20
18.0
 30
0.0
 11
207.0
 21
18.0
 31
0.0
  0
LINE
  5
1C4
100
AcDbEntity
  8
0
100
AcDbLine
 10
287.0
 20
26.0
 30
0.0
 11
207.0
 21
26.0
 31
0.0
  0
LINE
  5
1C5
100
AcDbEntity
  8
0
100
AcDbLine
 10
227.0
 20
26.0
 30
0.0
 11
227.0
 21
10.0
 31
0.0
  0
LINE
  5
1C6
100
AcDbEntity
  8
0
100
AcDbLine
 10
207.0
 20
26.0
 30
0.0
 11
207.0
 21
10.0
 31
0.0
  0
TEXT
  5
1C7
100
AcDbEntity
  8
0
100
AcDbText
 10
212.93529
 20
19.671686
 30
0.0
 40
4.0
  1
品名
  7
STANDARD1
100
AcDbText
  0
TEXT
  5
1C8
100
AcDbEntity
  8
0
100
AcDbText
 10
212.93529
 20
11.671686
 30
0.0
 40
4.0
  1
型名
  7
STANDARD1
100
AcDbText
  0
TEXT
  5
1C9
100
AcDbEntity
  8
0
100
AcDbText
 10
228.93529
 20
19.671686
 30
0.0
 40
4.0
  1
カラーカメラ
  7
STANDARD1
100
AcDbText
  0
TEXT
  5
1CA
100
AcDbEntity
  8
0
100
AcDbText
 10
228.93529
 20
11.671686
 30
0.0
 40
4.0
  1
CIT-771
  7
STANDARD1
100
AcDbText
  0
ENDBLK
  5
1CC
100
AcDbEntity
  8
0
100
AcDbBlockEnd
  0
BLOCK
  5
1EC
100
AcDbEntity
  8
0
100
AcDbBlockBegin
  2
外形枠２
 70
     0
 10
0.0
 20
0.0
 30
0.0
  3
外形枠２
  1

  0
TEXT
  5
1D8
100
AcDbEntity
  8
1
  6
CONTINUOUS
 62
     7
100
AcDbText
 10
6.531
 20
42.913
 30
0.0
 40
2.304
  1
　
 41
0.573
  7
KANJI
100
AcDbText
  0
LINE
  5
1D9
102
{ACAD_REACTORS
330
1D5
102
}
100
AcDbEntity
  8
0
100
AcDbLine
 10
-6.0
 20
-6.0
 30
0.0
 11
-6.0
 21
204.0
 31
0.0
  0
LINE
  5
1DA
102
{ACAD_REACTORS
330
1D5
102
}
100
AcDbEntity
  8
0
100
AcDbLine
 10
-6.0
 20
204.0
 30
0.0
 11
291.0
 21
204.0
 31
0.0
  0
LINE
  5
1DB
102
{ACAD_REACTORS
330
1D5
102
}
100
AcDbEntity
  8
0
100
AcDbLine
 10
291.0
 20
204.0
 30
0.0
 11
291.0
 21
-6.0
 31
0.0
  0
LINE
  5
1DC
102
{ACAD_REACTORS
330
1D5
102
}
100
AcDbEntity
  8
0
100
AcDbLine
 10
291.0
 20
-6.0
 30
0.0
 11
-6.0
 21
-6.0
 31
0.0
  0
LINE
  5
1DD
102
{ACAD_REACTORS
330
1D4
330
1D6
102
}
100
AcDbEntity
  8
0
100
AcDbLine
 10
0.0
 20
0.0
 30
0.0
 11
0.0
 21
198.0
 31
0.0
  0
LINE
  5
1DE
102
{ACAD_REACTORS
330
1D4
330
1D6
102
}
100
AcDbEntity
  8
0
100
AcDbLine
 10
0.0
 20
198.0
 30
0.0
 11
286.0
 21
198.0
 31
0.0
  0
LINE
  5
1DF
102
{ACAD_REACTORS
330
1D4
330
1D6
102
}
100
AcDbEntity
  8
0
100
AcDbLine
 10
286.0
 20
198.0
 30
0.0
 11
286.0
 21
0.0
 31
0.0
  0
LINE
  5
1E0
102
{ACAD_REACTORS
330
1D4
330
1D6
102
}
100
AcDbEntity
  8
0
100
AcDbLine
 10
286.0
 20
0.0
 30
0.0
 11
0.0
 21
0.0
 31
0.0
  0
LINE
  5
1E1
100
AcDbEntity
  8
0
100
AcDbLine
 10
281.0
 20
4.0
 30
0.0
 11
201.0
 21
4.0
 31
0.0
  0
LINE
  5
1E2
100
AcDbEntity
  8
0
100
AcDbLine
 10
281.0
 20
20.0
 30
0.0
 11
281.0
 21
4.0
 31
0.0
  0
LINE
  5
1E3
100
AcDbEntity
  8
0
100
AcDbLine
 10
281.0
 20
12.0
 30
0.0
 11
201.0
 21
12.0
 31
0.0
  0
LINE
  5
1E4
100
AcDbEntity
  8
0
100
AcDbLine
 10
281.0
 20
20.0
 30
0.0
 11
201.0
 21
20.0
 31
0.0
  0
LINE
  5
1E5
100
AcDbEntity
  8
0
100
AcDbLine
 10
221.0
 20
20.0
 30
0.0
 11
221.0
 21
4.0
 31
0.0
  0
LINE
  5
1E6
100
AcDbEntity
  8
0
100
AcDbLine
 10
201.0
 20
20.0
 30
0.0
 11
201.0
 21
4.0
 31
0.0
  0
TEXT
  5
1E7
100
AcDbEntity
  8
0
100
AcDbText
 10
206.93529
 20
13.671686
 30
0.0
 40
4.0
  1
品名
  7
STANDARD1
100
AcDbText
  0
TEXT
  5
1E8
100
AcDbEntity
  8
0
100
AcDbText
 10
206.93529
 20
5.671686
 30
0.0
 40
4.0
  1
型名
  7
STANDARD1
100
AcDbText
  0
TEXT
  5
1E9
100
AcDbEntity
  8
0
100
AcDbText
 10
222.93529
 20
13.671686
 30
0.0
 40
4.0
  1
カラーカメラ
  7
STANDARD1
100
AcDbText
  0
TEXT
  5
1EA
100
AcDbEntity
  8
0
100
AcDbText
 10
222.93529
 20
5.671686
 30
0.0
 40
4.0
  1
CIT-7110
  7
STANDARD1
100
AcDbText
  0
LINE
  5
1EB
102
{ACAD_REACTORS
330
1D6
102
}
100
AcDbEntity
  8
0
100
AcDbLine
 10
0.0
 20
190.0
 30
0.0
 11
286.0
 21
190.0
 31
0.0
  0
ENDBLK
  5
1ED
100
AcDbEntity
  8
0
100
AcDbBlockEnd
  0
ENDSEC
  0
SECTION
  2
ENTITIES
  0
TEXT
  5
43
100
AcDbEntity
  8
1
100
AcDbText
 10
20.74
 20
66.197
 30
0.0
 40
3.0
  1
　　　　　　　　
  7
KANJI
100
AcDbText
  0
LINE
  5
5D
100
AcDbEntity
  8
1
  6
CONTINUOUS
100
AcDbLine
 10
163.862402
 20
69.236532
 30
0.0
 11
163.613402
 21
68.985532
 31
0.0
  0
LINE
  5
5E
100
AcDbEntity
  8
1
  6
CONTINUOUS
100
AcDbLine
 10
163.862402
 20
69.236532
 30
0.0
 11
163.613402
 21
69.485532
 31
0.0
  0
LINE
  5
5F
100
AcDbEntity
  8
1
  6
CONTINUOUS
100
AcDbLine
 10
163.420402
 20
70.176532
 30
0.0
 11
163.420402
 21
68.296532
 31
0.0
  0
LINE
  5
60
100
AcDbEntity
  8
1
  6
CONTINUOUS
100
AcDbLine
 10
163.362402
 20
70.176532
 30
0.0
 11
163.362402
 21
68.296532
 31
0.0
  0
LINE
  5
61
100
AcDbEntity
  8
1
  6
CONTINUOUS
100
AcDbLine
 10
163.362402
 20
68.296532
 30
0.0
 11
163.420402
 21
68.296532
 31
0.0
  0
LINE
  5
62
100
AcDbEntity
  8
1
  6
CONTINUOUS
100
AcDbLine
 10
163.362402
 20
70.176532
 30
0.0
 11
163.420402
 21
70.176532
 31
0.0
  0
POINT
  5
63
100
AcDbEntity
  8
1
100
AcDbPoint
 10
163.362402
 20
69.236532
 30
0.0
  0
ARC
  5
64
100
AcDbEntity
  8
1
  6
CONTINUOUS
100
AcDbCircle
 10
162.642402
 20
69.236532
 30
0.0
 40
1.22
100
AcDbArc
 50
309.602
 51
50.398
  0
LINE
  5
65
100
AcDbEntity
  8
1
  6
CONTINUOUS
100
AcDbLine
 10
154.662402
 20
126.445532
 30
0.0
 11
154.662402
 21
136.045532
 31
0.0
  0
LINE
  5
66
100
AcDbEntity
  8
1
  6
CONTINUOUS
100
AcDbLine
 10
160.762402
 20
136.045532
 30
0.0
 11
160.762402
 21
126.445532
 31
0.0
  0
LINE
  5
67
100
AcDbEntity
  8
1
  6
CONTINUOUS
100
AcDbLine
 10
160.562402
 20
136.245532
 30
0.0
 11
154.862402
 21
136.245532
 31
0.0
  0
LINE
  5
68
100
AcDbEntity
  8
1
  6
CONTINUOUS
100
AcDbLine
 10
160.562402
 20
126.245532
 30
0.0
 11
154.862402
 21
126.245532
 31
0.0
  0
ARC
  5
69
100
AcDbEntity
  8
1
  6
CONTINUOUS
100
AcDbCircle
 10
154.862402
 20
136.045532
 30
0.0
 40
0.2
100
AcDbArc
 50
90.0
 51
180.0
  0
ARC
  5
6A
100
AcDbEntity
  8
1
  6
CONTINUOUS
100
AcDbCircle
 10
154.862402
 20
126.445532
 30
0.0
 40
0.2
100
AcDbArc
 50
180.0
 51
270.0
  0
ARC
  5
6B
100
AcDbEntity
  8
1
  6
CONTINUOUS
100
AcDbCircle
 10
160.562402
 20
126.445532
 30
0.0
 40
0.2
100
AcDbArc
 50
270.0
 51
0.0
  0
ARC
  5
6C
100
AcDbEntity
  8
1
  6
CONTINUOUS
100
AcDbCircle
 10
160.562402
 20
136.045532
 30
0.0
 40
0.2
100
AcDbArc
 50
0.0
 51
90.0
  0
LINE
  5
6D
100
AcDbEntity
  8
1
  6
CONTINUOUS
100
AcDbLine
 10
163.862402
 20
92.665532
 30
0.0
 11
163.613402
 21
92.916532
 31
0.0
  0
LINE
  5
6E
100
AcDbEntity
  8
1
  6
CONTINUOUS
100
AcDbLine
 10
163.862402
 20
92.665532
 30
0.0
 11
163.613402
 21
92.416532
 31
0.0
  0
LINE
  5
6F
100
AcDbEntity
  8
1
  6
CONTINUOUS
100
AcDbLine
 10
163.420402
 20
91.725532
 30
0.0
 11
163.420402
 21
93.605532
 31
0.0
  0
LINE
  5
70
100
AcDbEntity
  8
1
  6
CONTINUOUS
100
AcDbLine
 10
163.362402
 20
91.725532
 30
0.0
 11
163.362402
 21
93.605532
 31
0.0
  0
LINE
  5
71
100
AcDbEntity
  8
1
  6
CONTINUOUS
100
AcDbLine
 10
163.362402
 20
93.605532
 30
0.0
 11
163.420402
 21
93.605532
 31
0.0
  0
LINE
  5
72
100
AcDbEntity
  8
1
  6
CONTINUOUS
100
AcDbLine
 10
163.362402
 20
91.725532
 30
0.0
 11
163.420402
 21
91.725532
 31
0.0
  0
POINT
  5
73
100
AcDbEntity
  8
1
100
AcDbPoint
 10
163.362402
 20
92.665532
 30
0.0
  0
ARC
  5
74
100
AcDbEntity
  8
1
  6
CONTINUOUS
100
AcDbCircle
 10
162.642402
 20
92.665532
 30
0.0
 40
1.22
100
AcDbArc
 50
309.602
 51
50.398
  0
LINE
  5
75
100
AcDbEntity
  8
1
  6
CONTINUOUS
100
AcDbLine
 10
196.460402
 20
92.962532
 30
0.0
 11
195.865402
 21
92.369532
 31
0.0
  0
LINE
  5
76
100
AcDbEntity
  8
1
  6
CONTINUOUS
100
AcDbLine
 10
196.460402
 20
92.369532
 30
0.0
 11
195.865402
 21
92.962532
 31
0.0
  0
POINT
  5
77
100
AcDbEntity
  8
1
100
AcDbPoint
 10
196.162402
 20
92.665532
 30
0.0
  0
CIRCLE
  5
78
100
AcDbEntity
  8
1
  6
CONTINUOUS
100
AcDbCircle
 10
196.162402
 20
92.665532
 30
0.0
 40
0.94
  0
LINE
  5
79
100
AcDbEntity
  8
1
  6
CONTINUOUS
100
AcDbLine
 10
163.862402
 20
131.256532
 30
0.0
 11
163.613402
 21
131.505532
 31
0.0
  0
LINE
  5
7A
100
AcDbEntity
  8
1
  6
CONTINUOUS
100
AcDbLine
 10
163.862402
 20
131.256532
 30
0.0
 11
163.613402
 21
131.005532
 31
0.0
  0
LINE
  5
7B
100
AcDbEntity
  8
1
  6
CONTINUOUS
100
AcDbLine
 10
163.420402
 20
130.901532
 30
0.0
 11
163.420402
 21
132.196532
 31
0.0
  0
LINE
  5
7C
100
AcDbEntity
  8
1
  6
CONTINUOUS
100
AcDbLine
 10
163.362402
 20
130.316532
 30
0.0
 11
163.362402
 21
132.196532
 31
0.0
  0
LINE
  5
7D
100
AcDbEntity
  8
1
  6
CONTINUOUS
100
AcDbLine
 10
163.362402
 20
132.196532
 30
0.0
 11
163.420402
 21
132.196532
 31
0.0
  0
POINT
  5
7E
100
AcDbEntity
  8
1
100
AcDbPoint
 10
163.362402
 20
131.256532
 30
0.0
  0
ARC
  5
7F
100
AcDbEntity
  8
1
  6
CONTINUOUS
100
AcDbCircle
 10
162.642402
 20
131.256532
 30
0.0
 40
1.22
100
AcDbArc
 50
333.023
 51
50.398
  0
LINE
  5
80
100
AcDbEntity
  8
1
  6
CONTINUOUS
100
AcDbLine
 10
187.562402
 20
111.245532
 30
0.0
 11
196.162402
 21
111.245532
 31
0.0
  0
LINE
  5
81
100
AcDbEntity
  8
1
  6
CONTINUOUS
100
AcDbLine
 10
204.762402
 20
111.245532
 30
0.0
 11
196.162402
 21
111.245532
 31
0.0
  0
LINE
  5
82
100
AcDbEntity
  8
1
  6
CONTINUOUS
100
AcDbLine
 10
204.762402
 20
111.045532
 30
0.0
 11
187.562402
 21
111.045532
 31
0.0
  0
LINE
  5
83
100
AcDbEntity
  8
1
  6
CONTINUOUS
100
AcDbLine
 10
185.162402
 20
108.845532
 30
0.0
 11
185.162402
 21
93.645532
 31
0.0
  0
LINE
  5
84
100
AcDbEntity
  8
1
  6
CONTINUOUS
100
AcDbLine
 10
185.362402
 20
108.845532
 30
0.0
 11
185.362402
 21
93.645532
 31
0.0
  0
LINE
  5
85
100
AcDbEntity
  8
1
  6
CONTINUOUS
100
AcDbLine
 10
207.162402
 20
108.845532
 30
0.0
 11
207.162402
 21
93.645532
 31
0.0
  0
LINE
  5
86
100
AcDbEntity
  8
1
  6
CONTINUOUS
100
AcDbLine
 10
206.962402
 20
93.645532
 30
0.0
 11
206.962402
 21
108.845532
 31
0.0
  0
LINE
  5
87
100
AcDbEntity
  8
1
  6
CONTINUOUS
100
AcDbLine
 10
204.762402
 20
91.245532
 30
0.0
 11
196.162402
 21
91.245532
 31
0.0
  0
LINE
  5
88
100
AcDbEntity
  8
1
  6
CONTINUOUS
100
AcDbLine
 10
187.562402
 20
91.245532
 30
0.0
 11
196.162402
 21
91.245532
 31
0.0
  0
LINE
  5
89
100
AcDbEntity
  8
1
  6
CONTINUOUS
100
AcDbLine
 10
187.562402
 20
91.445532
 30
0.0
 11
204.762402
 21
91.445532
 31
0.0
  0
LINE
  5
8A
100
AcDbEntity
  8
1
  6
CONTINUOUS
100
AcDbLine
 10
163.362402
 20
91.445532
 30
0.0
 11
163.362402
 21
101.245532
 31
0.0
  0
LINE
  5
8B
100
AcDbEntity
  8
1
  6
CONTINUOUS
100
AcDbLine
 10
163.362402
 20
111.245532
 30
0.0
 11
163.362402
 21
91.245532
 31
0.0
  0
LINE
  5
8C
100
AcDbEntity
  8
1
  6
CONTINUOUS
100
AcDbLine
 10
163.362402
 20
80.245532
 30
0.0
 11
163.362402
 21
80.045532
 31
0.0
  0
LINE
  5
8D
100
AcDbEntity
  8
1
  6
CONTINUOUS
100
AcDbLine
 10
163.362402
 20
80.045532
 30
0.0
 11
163.362402
 21
69.245532
 31
0.0
  0
LINE
  5
8E
100
AcDbEntity
  8
1
  6
CONTINUOUS
100
AcDbLine
 10
163.362402
 20
58.245532
 30
0.0
 11
163.362402
 21
69.245532
 31
0.0
  0
LINE
  5
8F
100
AcDbEntity
  8
1
  6
CONTINUOUS
100
AcDbLine
 10
207.322402
 20
94.245532
 30
0.0
 11
207.322402
 21
94.245532
 31
0.0
  0
LINE
  5
91
100
AcDbEntity
  8
1
  6
DASHDOT
100
AcDbLine
 10
129.162402
 20
70.163532
 30
0.0
 11
129.162402
 21
68.373532
 31
0.0
  0
CIRCLE
  5
93
100
AcDbEntity
  8
1
  6
CONTINUOUS
100
AcDbCircle
 10
129.162402
 20
69.245532
 30
0.0
 40
0.5
  0
CIRCLE
  5
94
100
AcDbEntity
  8
1
  6
CONTINUOUS
100
AcDbCircle
 10
133.762402
 20
69.245532
 30
0.0
 40
0.3
  0
CIRCLE
  5
95
100
AcDbEntity
  8
1
  6
CONTINUOUS
100
AcDbCircle
 10
125.762402
 20
69.245532
 30
0.0
 40
0.3
  0
CIRCLE
  5
96
100
AcDbEntity
  8
1
  6
CONTINUOUS
100
AcDbCircle
 10
125.762402
 20
69.245532
 30
0.0
 40
0.4
  0
CIRCLE
  5
97
100
AcDbEntity
  8
1
  6
CONTINUOUS
100
AcDbCircle
 10
133.762402
 20
69.245532
 30
0.0
 40
0.4
  0
CIRCLE
  5
98
100
AcDbEntity
  8
1
  6
CONTINUOUS
100
AcDbCircle
 10
129.162402
 20
69.245532
 30
0.0
 40
0.6
  0
LINE
  5
99
100
AcDbEntity
  8
1
  6
CONTINUOUS
100
AcDbLine
 10
163.362402
 20
91.245532
 30
0.0
 11
99.362402
 21
91.245532
 31
0.0
  0
LINE
  5
9A
100
AcDbEntity
  8
1
  6
CONTINUOUS
100
AcDbLine
 10
163.362402
 20
111.245532
 30
0.0
 11
99.362402
 21
111.245532
 31
0.0
  0
LINE
  5
9B
100
AcDbEntity
  8
1
  6
CONTINUOUS
100
AcDbLine
 10
163.362402
 20
58.245532
 30
0.0
 11
99.362402
 21
58.245532
 31
0.0
  0
LINE
  5
9C
100
AcDbEntity
  8
1
  6
CONTINUOUS
100
AcDbLine
 10
163.362402
 20
80.245532
 30
0.0
 11
99.362402
 21
80.245532
 31
0.0
  0
LINE
  5
9D
100
AcDbEntity
  8
1
  6
DASHDOT
100
AcDbLine
 10
135.402402
 20
69.245532
 30
0.0
 11
124.122402
 21
69.245532
 31
0.0
  0
ARC
  5
9E
100
AcDbEntity
  8
1
  6
CONTINUOUS
100
AcDbCircle
 10
162.482402
 20
101.961532
 30
0.0
 40
2.0
100
AcDbArc
 50
296.104
 51
0.0
  0
ARC
  5
9F
100
AcDbEntity
  8
1
  6
CONTINUOUS
100
AcDbCircle
 10
162.482402
 20
104.369532
 30
0.0
 40
2.0
100
AcDbArc
 50
0.0
 51
63.896
  0
LINE
  5
A0
100
AcDbEntity
  8
1
  6
CONTINUOUS
100
AcDbLine
 10
164.482402
 20
104.369532
 30
0.0
 11
164.482402
 21
101.961532
 31
0.0
  0
CIRCLE
  5
A1
100
AcDbEntity
  8
1
  6
CONTINUOUS
100
AcDbCircle
 10
100.962402
 20
69.245532
 30
0.0
 40
0.387
  0
LINE
  5
A2
100
AcDbEntity
  8
1
  6
HIDDEN
100
AcDbLine
 10
141.722402
 20
91.245532
 30
0.0
 11
141.722402
 21
91.245532
 31
0.0
  0
LINE
  5
A3
100
AcDbEntity
  8
1
  6
CONTINUOUS
100
AcDbLine
 10
141.762402
 20
91.245532
 30
0.0
 11
141.762402
 21
91.245532
 31
0.0
  0
ARC
  5
A4
100
AcDbEntity
  8
1
  6
CONTINUOUS
100
AcDbCircle
 10
187.562402
 20
108.845532
 30
0.0
 40
2.4
100
AcDbArc
 50
90.0
 51
180.0
  0
ARC
  5
A5
100
AcDbEntity
  8
1
  6
CONTINUOUS
100
AcDbCircle
 10
204.762402
 20
108.845532
 30
0.0
 40
2.4
100
AcDbArc
 50
0.0
 51
90.0
  0
ARC
  5
A6
100
AcDbEntity
  8
1
  6
CONTINUOUS
100
AcDbCircle
 10
204.762402
 20
93.645532
 30
0.0
 40
2.4
100
AcDbArc
 50
270.0
 51
0.0
  0
ARC
  5
A7
100
AcDbEntity
  8
1
  6
CONTINUOUS
100
AcDbCircle
 10
187.562402
 20
93.645532
 30
0.0
 40
2.4
100
AcDbArc
 50
180.0
 51
270.0
  0
ARC
  5
A8
100
AcDbEntity
  8
1
  6
CONTINUOUS
100
AcDbCircle
 10
187.562402
 20
93.645532
 30
0.0
 40
2.2
100
AcDbArc
 50
180.0
 51
270.0
  0
ARC
  5
A9
100
AcDbEntity
  8
1
  6
CONTINUOUS
100
AcDbCircle
 10
204.762402
 20
93.645532
 30
0.0
 40
2.2
100
AcDbArc
 50
270.0
 51
0.0
  0
ARC
  5
AA
100
AcDbEntity
  8
1
  6
CONTINUOUS
100
AcDbCircle
 10
204.762402
 20
108.845532
 30
0.0
 40
2.2
100
AcDbArc
 50
0.0
 51
90.0
  0
ARC
  5
AB
100
AcDbEntity
  8
1
  6
CONTINUOUS
100
AcDbCircle
 10
187.562402
 20
108.845532
 30
0.0
 40
2.2
100
AcDbArc
 50
90.0
 51
180.0
  0
LINE
  5
AC
100
AcDbEntity
  8
1
  6
CONTINUOUS
100
AcDbLine
 10
204.762402
 20
110.945532
 30
0.0
 11
187.562402
 21
110.945532
 31
0.0
  0
ARC
  5
AD
100
AcDbEntity
  8
1
  6
CONTINUOUS
100
AcDbCircle
 10
187.562402
 20
108.845532
 30
0.0
 40
2.1
100
AcDbArc
 50
90.0
 51
180.0
  0
LINE
  5
AE
100
AcDbEntity
  8
1
  6
CONTINUOUS
100
AcDbLine
 10
185.462402
 20
108.845532
 30
0.0
 11
185.462402
 21
93.645532
 31
0.0
  0
ARC
  5
AF
100
AcDbEntity
  8
1
  6
CONTINUOUS
100
AcDbCircle
 10
187.562402
 20
93.645532
 30
0.0
 40
2.1
100
AcDbArc
 50
180.0
 51
270.0
  0
LINE
  5
B0
100
AcDbEntity
  8
1
  6
CONTINUOUS
100
AcDbLine
 10
187.562402
 20
91.545532
 30
0.0
 11
204.762402
 21
91.545532
 31
0.0
  0
ARC
  5
B1
100
AcDbEntity
  8
1
  6
CONTINUOUS
100
AcDbCircle
 10
204.762402
 20
108.845532
 30
0.0
 40
2.1
100
AcDbArc
 50
0.0
 51
90.0
  0
LINE
  5
B2
100
AcDbEntity
  8
1
  6
CONTINUOUS
100
AcDbLine
 10
206.862402
 20
93.645532
 30
0.0
 11
206.862402
 21
108.845532
 31
0.0
  0
ARC
  5
B3
100
AcDbEntity
  8
1
  6
CONTINUOUS
100
AcDbCircle
 10
204.762402
 20
93.645532
 30
0.0
 40
2.1
100
AcDbArc
 50
270.0
 51
0.0
  0
LINE
  5
B4
100
AcDbEntity
  8
1
  6
CONTINUOUS
100
AcDbLine
 10
76.760402
 20
105.545532
 30
0.0
 11
78.363402
 21
107.149532
 31
0.0
  0
LINE
  5
B5
100
AcDbEntity
  8
1
  6
CONTINUOUS
100
AcDbLine
 10
77.043402
 20
105.263532
 30
0.0
 11
78.646402
 21
106.865532
 31
0.0
  0
LINE
  5
B6
100
AcDbEntity
  8
1
  6
CONTINUOUS
100
AcDbLine
 10
90.765402
 20
96.945532
 30
0.0
 11
89.162402
 21
95.343532
 31
0.0
  0
LINE
  5
B7
100
AcDbEntity
  8
1
  6
CONTINUOUS
100
AcDbLine
 10
90.482402
 20
97.229532
 30
0.0
 11
88.879402
 21
95.625532
 31
0.0
  0
LINE
  5
B8
100
AcDbEntity
  8
1
  6
CONTINUOUS
100
AcDbLine
 10
98.562402
 20
69.245532
 30
0.0
 11
98.562402
 21
58.545532
 31
0.0
  0
ARC
  5
B9
100
AcDbEntity
  8
1
  6
CONTINUOUS
100
AcDbCircle
 10
99.262402
 20
58.145532
 30
0.0
 40
0.1
100
AcDbArc
 50
270.0
 51
0.0
  0
LINE
  5
BA
100
AcDbEntity
  8
1
  6
CONTINUOUS
100
AcDbLine
 10
99.362402
 20
69.245532
 30
0.0
 11
99.362402
 21
58.145532
 31
0.0
  0
LINE
  5
BB
100
AcDbEntity
  8
1
  6
CONTINUOUS
100
AcDbLine
 10
99.262402
 20
58.045532
 30
0.0
 11
99.062402
 21
58.045532
 31
0.0
  0
ARC
  5
BC
100
AcDbEntity
  8
1
  6
CONTINUOUS
100
AcDbCircle
 10
99.062402
 20
58.545532
 30
0.0
 40
0.5
100
AcDbArc
 50
180.0
 51
270.0
  0
ARC
  5
BD
100
AcDbEntity
  8
1
  6
CONTINUOUS
100
AcDbCircle
 10
99.062402
 20
79.945532
 30
0.0
 40
0.5
100
AcDbArc
 50
90.0
 51
180.0
  0
LINE
  5
BE
100
AcDbEntity
  8
1
  6
CONTINUOUS
100
AcDbLine
 10
99.262402
 20
80.445532
 30
0.0
 11
99.062402
 21
80.445532
 31
0.0
  0
LINE
  5
BF
100
AcDbEntity
  8
1
  6
CONTINUOUS
100
AcDbLine
 10
99.362402
 20
69.245532
 30
0.0
 11
99.362402
 21
80.345532
 31
0.0
  0
ARC
  5
C0
100
AcDbEntity
  8
1
  6
CONTINUOUS
100
AcDbCircle
 10
99.262402
 20
80.345532
 30
0.0
 40
0.1
100
AcDbArc
 50
0.0
 51
90.0
  0
LINE
  5
C1
100
AcDbEntity
  8
1
  6
CONTINUOUS
100
AcDbLine
 10
98.562402
 20
69.245532
 30
0.0
 11
98.562402
 21
79.945532
 31
0.0
  0
LINE
  5
C2
100
AcDbEntity
  8
1
  6
CONTINUOUS
100
AcDbLine
 10
98.562402
 20
101.245532
 30
0.0
 11
98.562402
 21
110.945532
 31
0.0
  0
ARC
  5
C3
100
AcDbEntity
  8
1
  6
CONTINUOUS
100
AcDbCircle
 10
99.262402
 20
111.345532
 30
0.0
 40
0.1
100
AcDbArc
 50
0.0
 51
90.0
  0
LINE
  5
C4
100
AcDbEntity
  8
1
  6
CONTINUOUS
100
AcDbLine
 10
99.362402
 20
101.245532
 30
0.0
 11
99.362402
 21
111.345532
 31
0.0
  0
LINE
  5
C5
100
AcDbEntity
  8
1
  6
CONTINUOUS
100
AcDbLine
 10
99.262402
 20
111.445532
 30
0.0
 11
99.062402
 21
111.445532
 31
0.0
  0
ARC
  5
C6
100
AcDbEntity
  8
1
  6
CONTINUOUS
100
AcDbCircle
 10
99.062402
 20
110.945532
 30
0.0
 40
0.5
100
AcDbArc
 50
90.0
 51
180.0
  0
ARC
  5
C7
100
AcDbEntity
  8
1
  6
CONTINUOUS
100
AcDbCircle
 10
99.262402
 20
91.145532
 30
0.0
 40
0.1
100
AcDbArc
 50
270.0
 51
0.0
  0
ARC
  5
C8
100
AcDbEntity
  8
1
  6
CONTINUOUS
100
AcDbCircle
 10
99.062402
 20
91.545532
 30
0.0
 40
0.5
100
AcDbArc
 50
180.0
 51
270.0
  0
LINE
  5
C9
100
AcDbEntity
  8
1
  6
CONTINUOUS
100
AcDbLine
 10
98.562402
 20
101.245532
 30
0.0
 11
98.562402
 21
91.545532
 31
0.0
  0
ARC
  5
CA
100
AcDbEntity
  8
1
  6
CONTINUOUS
100
AcDbCircle
 10
92.362402
 20
108.845532
 30
0.0
 40
1.4
100
AcDbArc
 50
0.0
 51
90.0
  0
LINE
  5
CB
100
AcDbEntity
  8
1
  6
CONTINUOUS
100
AcDbLine
 10
93.762402
 20
93.645532
 30
0.0
 11
93.762402
 21
108.845532
 31
0.0
  0
ARC
  5
CC
100
AcDbEntity
  8
1
  6
CONTINUOUS
100
AcDbCircle
 10
92.362402
 20
93.645532
 30
0.0
 40
1.4
100
AcDbArc
 50
270.0
 51
0.0
  0
LINE
  5
CD
100
AcDbEntity
  8
1
  6
CONTINUOUS
100
AcDbLine
 10
75.162402
 20
92.245532
 30
0.0
 11
92.362402
 21
92.245532
 31
0.0
  0
ARC
  5
CE
100
AcDbEntity
  8
1
  6
CONTINUOUS
100
AcDbCircle
 10
75.162402
 20
93.645532
 30
0.0
 40
1.4
100
AcDbArc
 50
180.0
 51
270.0
  0
LINE
  5
CF
100
AcDbEntity
  8
1
  6
CONTINUOUS
100
AcDbLine
 10
73.762402
 20
108.845532
 30
0.0
 11
73.762402
 21
93.645532
 31
0.0
  0
ARC
  5
D0
100
AcDbEntity
  8
1
  6
CONTINUOUS
100
AcDbCircle
 10
75.162402
 20
108.845532
 30
0.0
 40
1.4
100
AcDbArc
 50
90.0
 51
180.0
  0
LINE
  5
D1
100
AcDbEntity
  8
1
  6
CONTINUOUS
100
AcDbLine
 10
92.362402
 20
110.245532
 30
0.0
 11
75.162402
 21
110.245532
 31
0.0
  0
LINE
  5
D2
100
AcDbEntity
  8
1
  6
CONTINUOUS
100
AcDbLine
 10
72.562402
 20
93.645532
 30
0.0
 11
72.562402
 21
101.245532
 31
0.0
  0
ARC
  5
D3
100
AcDbEntity
  8
1
  6
CONTINUOUS
100
AcDbCircle
 10
75.162402
 20
93.645532
 30
0.0
 40
2.6
100
AcDbArc
 50
180.0
 51
270.0
  0
LINE
  5
D4
100
AcDbEntity
  8
1
  6
CONTINUOUS
100
AcDbLine
 10
83.762402
 20
91.045532
 30
0.0
 11
75.162402
 21
91.045532
 31
0.0
  0
LINE
  5
D5
100
AcDbEntity
  8
1
  6
CONTINUOUS
100
AcDbLine
 10
94.962402
 20
93.645532
 30
0.0
 11
94.962402
 21
101.245532
 31
0.0
  0
ARC
  5
D6
100
AcDbEntity
  8
1
  6
CONTINUOUS
100
AcDbCircle
 10
92.362402
 20
93.645532
 30
0.0
 40
2.6
100
AcDbArc
 50
270.0
 51
0.0
  0
LINE
  5
D7
100
AcDbEntity
  8
1
  6
CONTINUOUS
100
AcDbLine
 10
83.762402
 20
91.045532
 30
0.0
 11
92.362402
 21
91.045532
 31
0.0
  0
LINE
  5
D8
100
AcDbEntity
  8
1
  6
CONTINUOUS
100
AcDbLine
 10
94.962402
 20
108.845532
 30
0.0
 11
94.962402
 21
101.245532
 31
0.0
  0
ARC
  5
D9
100
AcDbEntity
  8
1
  6
CONTINUOUS
100
AcDbCircle
 10
92.362402
 20
108.845532
 30
0.0
 40
2.6
100
AcDbArc
 50
0.0
 51
90.0
  0
LINE
  5
DA
100
AcDbEntity
  8
1
  6
CONTINUOUS
100
AcDbLine
 10
83.762402
 20
111.445532
 30
0.0
 11
92.362402
 21
111.445532
 31
0.0
  0
ARC
  5
DB
100
AcDbEntity
  8
1
  6
CONTINUOUS
100
AcDbCircle
 10
75.162402
 20
108.845532
 30
0.0
 40
2.6
100
AcDbArc
 50
90.0
 51
180.0
  0
ARC
  5
DC
100
AcDbEntity
  8
1
  6
CONTINUOUS
100
AcDbCircle
 10
75.762402
 20
108.245532
 30
0.0
 40
0.6
100
AcDbArc
 50
90.0
 51
180.0
  0
ARC
  5
DD
100
AcDbEntity
  8
1
  6
CONTINUOUS
100
AcDbCircle
 10
75.762402
 20
94.245532
 30
0.0
 40
0.6
100
AcDbArc
 50
180.0
 51
270.0
  0
ARC
  5
DE
100
AcDbEntity
  8
1
  6
CONTINUOUS
100
AcDbCircle
 10
91.762402
 20
94.245532
 30
0.0
 40
0.6
100
AcDbArc
 50
270.0
 51
0.0
  0
ARC
  5
DF
100
AcDbEntity
  8
1
  6
CONTINUOUS
100
AcDbCircle
 10
91.762402
 20
108.245532
 30
0.0
 40
0.6
100
AcDbArc
 50
0.0
 51
90.0
  0
LINE
  5
E0
100
AcDbEntity
  8
1
  6
CONTINUOUS
100
AcDbLine
 10
91.762402
 20
93.645532
 30
0.0
 11
75.762402
 21
93.645532
 31
0.0
  0
LINE
  5
E1
100
AcDbEntity
  8
1
  6
CONTINUOUS
100
AcDbLine
 10
91.762402
 20
108.845532
 30
0.0
 11
75.762402
 21
108.845532
 31
0.0
  0
LINE
  5
E2
100
AcDbEntity
  8
1
  6
CONTINUOUS
100
AcDbLine
 10
75.162402
 20
94.245532
 30
0.0
 11
75.162402
 21
108.245532
 31
0.0
  0
LINE
  5
E3
100
AcDbEntity
  8
1
  6
CONTINUOUS
100
AcDbLine
 10
92.362402
 20
94.245532
 30
0.0
 11
92.362402
 21
108.245532
 31
0.0
  0
LINE
  5
E4
100
AcDbEntity
  8
1
  6
DASHDOT
100
AcDbLine
 10
83.762402
 20
89.637532
 30
0.0
 11
83.762402
 21
113.514532
 31
0.0
  0
LINE
  5
E5
100
AcDbEntity
  8
1
  6
CONTINUOUS
100
AcDbLine
 10
99.362402
 20
101.245532
 30
0.0
 11
99.362402
 21
91.145532
 31
0.0
  0
LINE
  5
E6
100
AcDbEntity
  8
1
  6
CONTINUOUS
100
AcDbLine
 10
99.262402
 20
91.045532
 30
0.0
 11
99.062402
 21
91.045532
 31
0.0
  0
LINE
  5
E7
100
AcDbEntity
  8
1
  6
CONTINUOUS
100
AcDbLine
 10
83.762402
 20
111.445532
 30
0.0
 11
75.162402
 21
111.445532
 31
0.0
  0
LINE
  5
E8
100
AcDbEntity
  8
1
  6
CONTINUOUS
100
AcDbLine
 10
72.562402
 20
108.845532
 30
0.0
 11
72.562402
 21
101.245532
 31
0.0
  0
LINE
  5
E9
100
AcDbEntity
  8
1
  6
DASHDOT
100
AcDbLine
 10
97.068402
 20
101.245532
 30
0.0
 11
70.365402
 21
101.245532
 31
0.0
  0
LINE
  5
EA
100
AcDbEntity
  8
1
  6
CONTINUOUS
100
AcDbLine
 10
134.162402
 20
129.245532
 30
0.0
 11
122.162402
 21
129.245532
 31
0.0
  0
LINE
  5
EB
100
AcDbEntity
  8
1
  6
CONTINUOUS
100
AcDbLine
 10
134.162402
 20
133.245532
 30
0.0
 11
122.162402
 21
133.245532
 31
0.0
  0
LINE
  5
EC
100
AcDbEntity
  8
1
  6
CONTINUOUS
100
AcDbLine
 10
134.162402
 20
129.245532
 30
0.0
 11
134.162402
 21
133.245532
 31
0.0
  0
LINE
  5
ED
100
AcDbEntity
  8
1
  6
CONTINUOUS
100
AcDbLine
 10
122.162402
 20
129.245532
 30
0.0
 11
122.162402
 21
133.245532
 31
0.0
  0
CIRCLE
  5
EE
100
AcDbEntity
  8
1
  6
HIDDEN
100
AcDbCircle
 10
124.562402
 20
131.245532
 30
0.0
 40
0.8
  0
CIRCLE
  5
EF
100
AcDbEntity
  8
1
  6
HIDDEN
100
AcDbCircle
 10
129.162402
 20
131.245532
 30
0.0
 40
0.4
  0
CIRCLE
  5
F0
100
AcDbEntity
  8
1
  6
HIDDEN
100
AcDbCircle
 10
132.162402
 20
131.245532
 30
0.0
 40
0.4
  0
CIRCLE
  5
F1
100
AcDbEntity
  8
1
  6
CONTINUOUS
100
AcDbCircle
 10
100.922402
 20
131.245532
 30
0.0
 40
0.5
  0
LINE
  5
F2
100
AcDbEntity
  8
1
  6
CONTINUOUS
100
AcDbLine
 10
163.362402
 20
120.245532
 30
0.0
 11
99.362402
 21
120.245532
 31
0.0
  0
LINE
  5
F3
100
AcDbEntity
  8
1
  6
CONTINUOUS
100
AcDbLine
 10
163.362402
 20
142.245532
 30
0.0
 11
99.362402
 21
142.245532
 31
0.0
  0
LINE
  5
F4
100
AcDbEntity
  8
1
  6
CONTINUOUS
100
AcDbLine
 10
163.362402
 20
120.445532
 30
0.0
 11
163.362402
 21
142.245532
 31
0.0
  0
LINE
  5
F5
100
AcDbEntity
  8
1
  6
CONTINUOUS
100
AcDbLine
 10
163.362402
 20
120.245532
 30
0.0
 11
163.362402
 21
120.445532
 31
0.0
  0
LINE
  5
F6
100
AcDbEntity
  8
1
  6
CONTINUOUS
100
AcDbLine
 10
163.362402
 20
142.045532
 30
0.0
 11
163.362402
 21
131.245532
 31
0.0
  0
LINE
  5
F7
100
AcDbEntity
  8
1
  6
CONTINUOUS
100
AcDbLine
 10
163.362402
 20
120.445532
 30
0.0
 11
163.362402
 21
131.245532
 31
0.0
  0
LINE
  5
F8
100
AcDbEntity
  8
1
  6
CONTINUOUS
100
AcDbLine
 10
98.562402
 20
131.245532
 30
0.0
 11
98.562402
 21
120.545532
 31
0.0
  0
ARC
  5
F9
100
AcDbEntity
  8
1
  6
CONTINUOUS
100
AcDbCircle
 10
99.262402
 20
120.145532
 30
0.0
 40
0.1
100
AcDbArc
 50
270.0
 51
0.0
  0
LINE
  5
FA
100
AcDbEntity
  8
1
  6
CONTINUOUS
100
AcDbLine
 10
99.362402
 20
131.245532
 30
0.0
 11
99.362402
 21
120.145532
 31
0.0
  0
LINE
  5
FB
100
AcDbEntity
  8
1
  6
CONTINUOUS
100
AcDbLine
 10
99.262402
 20
120.045532
 30
0.0
 11
99.062402
 21
120.045532
 31
0.0
  0
ARC
  5
FC
100
AcDbEntity
  8
1
  6
CONTINUOUS
100
AcDbCircle
 10
99.062402
 20
120.545532
 30
0.0
 40
0.5
100
AcDbArc
 50
180.0
 51
270.0
  0
ARC
  5
FD
100
AcDbEntity
  8
1
  6
CONTINUOUS
100
AcDbCircle
 10
99.062402
 20
141.945532
 30
0.0
 40
0.5
100
AcDbArc
 50
90.0
 51
180.0
  0
LINE
  5
FE
100
AcDbEntity
  8
1
  6
CONTINUOUS
100
AcDbLine
 10
99.262402
 20
142.445532
 30
0.0
 11
99.062402
 21
142.445532
 31
0.0
  0
LINE
  5
FF
100
AcDbEntity
  8
1
  6
CONTINUOUS
100
AcDbLine
 10
99.362402
 20
131.245532
 30
0.0
 11
99.362402
 21
142.345532
 31
0.0
  0
ARC
  5
100
100
AcDbEntity
  8
1
  6
CONTINUOUS
100
AcDbCircle
 10
99.262402
 20
142.345532
 30
0.0
 40
0.1
100
AcDbArc
 50
0.0
 51
90.0
  0
LINE
  5
101
100
AcDbEntity
  8
1
  6
CONTINUOUS
100
AcDbLine
 10
98.562402
 20
131.245532
 30
0.0
 11
98.562402
 21
141.945532
 31
0.0
  0
CIRCLE
  5
102
100
AcDbEntity
  8
1
  6
CONTINUOUS
100
AcDbCircle
 10
199.962402
 20
103.165532
 30
0.0
 40
3.0
  0
ARC
  5
103
100
AcDbEntity
  8
1
  6
CONTINUOUS
100
AcDbCircle
 10
162.482402
 20
136.449532
 30
0.0
 40
2.0
100
AcDbArc
 50
0.0
 51
63.896
  0
LINE
  5
104
100
AcDbEntity
  8
1
  6
CONTINUOUS
100
AcDbLine
 10
164.482402
 20
134.041532
 30
0.0
 11
164.482402
 21
136.449532
 31
0.0
  0
ARC
  5
105
100
AcDbEntity
  8
1
  6
CONTINUOUS
100
AcDbCircle
 10
162.482402
 20
134.041532
 30
0.0
 40
2.0
100
AcDbArc
 50
296.104
 51
0.0
  0
LINE
  5
106
100
AcDbEntity
  8
1
  6
DASHDOT
100
AcDbLine
 10
179.362402
 20
111.245532
 30
0.0
 11
164.324402
 21
111.245532
 31
0.0
  0
LINE
  5
107
100
AcDbEntity
  8
1
  6
DASHDOT
100
AcDbLine
 10
179.362402
 20
111.245532
 30
0.0
 11
179.362402
 21
91.245532
 31
0.0
  0
LINE
  5
108
100
AcDbEntity
  8
1
  6
DASHDOT
100
AcDbLine
 10
179.362402
 20
91.245532
 30
0.0
 11
164.324402
 21
91.245532
 31
0.0
  0
LINE
  5
109
100
AcDbEntity
  8
1
  6
CONTINUOUS
100
AcDbLine
 10
173.123402
 20
84.655532
 30
0.0
 11
169.473402
 21
84.655532
 31
0.0
  0
TEXT
  5
10A
100
AcDbEntity
  8
1
100
AcDbText
 10
166.491402
 20
85.797532
 30
0.0
 40
2.4
  1
(305)
 41
0.6
  7
KANJI
100
AcDbText
  0
LINE
  5
10B
100
AcDbEntity
  8
1
  6
CONTINUOUS
100
AcDbLine
 10
163.362402
 20
90.645532
 30
0.0
 11
163.362402
 21
83.397532
 31
0.0
  0
LINE
  5
10C
100
AcDbEntity
  8
1
  6
CONTINUOUS
100
AcDbLine
 10
179.362402
 20
90.445532
 30
0.0
 11
179.362402
 21
83.397532
 31
0.0
  0
LINE
  5
10D
100
AcDbEntity
  8
1
  6
CONTINUOUS
100
AcDbLine
 10
163.362402
 20
84.997532
 30
0.0
 11
179.362402
 21
84.997532
 31
0.0
  0
LINE
  5
10E
100
AcDbEntity
  8
1
  6
CONTINUOUS
100
AcDbLine
 10
163.362402
 20
84.997532
 30
0.0
 11
164.908402
 21
85.412532
 31
0.0
  0
LINE
  5
10F
100
AcDbEntity
  8
1
  6
CONTINUOUS
100
AcDbLine
 10
163.362402
 20
84.997532
 30
0.0
 11
164.908402
 21
84.583532
 31
0.0
  0
LINE
  5
110
100
AcDbEntity
  8
1
  6
CONTINUOUS
100
AcDbLine
 10
179.362402
 20
84.997532
 30
0.0
 11
177.817402
 21
84.583532
 31
0.0
  0
LINE
  5
111
100
AcDbEntity
  8
1
  6
CONTINUOUS
100
AcDbLine
 10
179.362402
 20
84.997532
 30
0.0
 11
177.817402
 21
85.412532
 31
0.0
  0
TEXT
  5
112
100
AcDbEntity
  8
1
100
AcDbText
 10
129.522402
 20
85.797532
 30
0.0
 40
2.24
  1
324
 41
0.429
  7
KANJI
100
AcDbText
  0
LINE
  5
113
100
AcDbEntity
  8
1
  6
CONTINUOUS
100
AcDbLine
 10
163.362402
 20
90.645532
 30
0.0
 11
163.362402
 21
83.397532
 31
0.0
  0
LINE
  5
114
100
AcDbEntity
  8
1
  6
CONTINUOUS
100
AcDbLine
 10
98.562402
 20
90.745532
 30
0.0
 11
98.562402
 21
83.397532
 31
0.0
  0
LINE
  5
115
100
AcDbEntity
  8
1
  6
CONTINUOUS
100
AcDbLine
 10
163.362402
 20
84.997532
 30
0.0
 11
98.562402
 21
84.997532
 31
0.0
  0
LINE
  5
116
100
AcDbEntity
  8
1
  6
CONTINUOUS
100
AcDbLine
 10
163.362402
 20
84.997532
 30
0.0
 11
161.817402
 21
84.583532
 31
0.0
  0
LINE
  5
117
100
AcDbEntity
  8
1
  6
CONTINUOUS
100
AcDbLine
 10
163.362402
 20
84.997532
 30
0.0
 11
161.817402
 21
85.412532
 31
0.0
  0
LINE
  5
118
100
AcDbEntity
  8
1
  6
CONTINUOUS
100
AcDbLine
 10
98.562402
 20
84.997532
 30
0.0
 11
100.108402
 21
85.412532
 31
0.0
  0
LINE
  5
119
100
AcDbEntity
  8
1
  6
CONTINUOUS
100
AcDbLine
 10
98.562402
 20
84.997532
 30
0.0
 11
100.108402
 21
84.583532
 31
0.0
  0
TEXT
  5
11A
100
AcDbEntity
  8
1
100
AcDbText
 10
112.422402
 20
55.497532
 30
0.0
 40
2.24
  1
150
 41
0.429
  7
KANJI
100
AcDbText
  0
LINE
  5
11B
100
AcDbEntity
  8
1
  6
CONTINUOUS
100
AcDbLine
 10
129.162402
 20
67.573532
 30
0.0
 11
129.162402
 21
53.097532
 31
0.0
  0
LINE
  5
11C
100
AcDbEntity
  8
1
  6
CONTINUOUS
100
AcDbLine
 10
98.562402
 20
57.745532
 30
0.0
 11
98.562402
 21
53.097532
 31
0.0
  0
LINE
  5
11D
100
AcDbEntity
  8
1
  6
CONTINUOUS
100
AcDbLine
 10
129.162402
 20
54.697532
 30
0.0
 11
98.562402
 21
54.697532
 31
0.0
  0
LINE
  5
11E
100
AcDbEntity
  8
1
  6
CONTINUOUS
100
AcDbLine
 10
129.162402
 20
54.697532
 30
0.0
 11
127.617402
 21
54.283532
 31
0.0
  0
LINE
  5
11F
100
AcDbEntity
  8
1
  6
CONTINUOUS
100
AcDbLine
 10
129.162402
 20
54.697532
 30
0.0
 11
127.617402
 21
55.112532
 31
0.0
  0
LINE
  5
120
100
AcDbEntity
  8
1
  6
CONTINUOUS
100
AcDbLine
 10
98.562402
 20
54.697532
 30
0.0
 11
100.108402
 21
55.112532
 31
0.0
  0
LINE
  5
121
100
AcDbEntity
  8
1
  6
CONTINUOUS
100
AcDbLine
 10
98.562402
 20
54.697532
 30
0.0
 11
100.108402
 21
54.283532
 31
0.0
  0
CIRCLE
  5
122
100
AcDbEntity
  8
1
  6
CONTINUOUS
100
AcDbCircle
 10
192.362402
 20
103.165532
 30
0.0
 40
3.5
  0
LINE
  5
123
100
AcDbEntity
  8
1
  6
DASHDOT
100
AcDbLine
 10
199.962402
 20
106.965532
 30
0.0
 11
199.962402
 21
99.365532
 31
0.0
  0
LINE
  5
124
100
AcDbEntity
  8
1
  6
DASHDOT
100
AcDbLine
 10
203.762402
 20
103.165532
 30
0.0
 11
196.162402
 21
103.165532
 31
0.0
  0
LINE
  5
125
100
AcDbEntity
  8
1
  6
DASHDOT
100
AcDbLine
 10
192.362402
 20
107.465532
 30
0.0
 11
192.362402
 21
98.865532
 31
0.0
  0
LINE
  5
126
100
AcDbEntity
  8
1
  6
DASHDOT
100
AcDbLine
 10
196.662402
 20
103.165532
 30
0.0
 11
188.062402
 21
103.165532
 31
0.0
  0
LINE
  5
127
100
AcDbEntity
  8
1
  6
CONTINUOUS
100
AcDbLine
 10
205.448402
 20
83.665532
 30
0.0
 11
194.133402
 21
100.146532
 31
0.0
  0
LINE
  5
128
100
AcDbEntity
  8
1
  6
CONTINUOUS
100
AcDbLine
 10
194.133402
 20
100.146532
 30
0.0
 11
195.349402
 21
99.106532
 31
0.0
  0
LINE
  5
129
100
AcDbEntity
  8
1
  6
CONTINUOUS
100
AcDbLine
 10
194.133402
 20
100.146532
 30
0.0
 11
194.665402
 21
98.637532
 31
0.0
  0
TEXT
  5
12A
100
AcDbEntity
  8
1
100
AcDbText
 10
199.512402
 20
88.745532
 30
0.0
 40
2.24
  1
A
 41
0.6
  7
KANJI
100
AcDbText
  0
TEXT
  5
12B
100
AcDbEntity
  8
1
100
AcDbText
 10
204.920402
 20
88.777532
 30
0.0
 40
2.24
  1
B
 41
0.6
  7
KANJI
100
AcDbText
  0
LINE
  5
12C
100
AcDbEntity
  8
1
  6
CONTINUOUS
100
AcDbLine
 10
164.482402
 20
125.741532
 30
0.0
 11
164.482402
 21
129.149532
 31
0.0
  0
ARC
  5
12D
100
AcDbEntity
  8
1
  6
CONTINUOUS
100
AcDbCircle
 10
162.482402
 20
129.149532
 30
0.0
 40
2.0
100
AcDbArc
 50
0.0
 51
63.896
  0
ARC
  5
12E
100
AcDbEntity
  8
1
  6
CONTINUOUS
100
AcDbCircle
 10
162.482402
 20
125.741532
 30
0.0
 40
2.0
100
AcDbArc
 50
296.104
 51
0.0
  0
ARC
  5
12F
100
AcDbEntity
  8
1
  6
CONTINUOUS
100
AcDbCircle
 10
162.482402
 20
64.041532
 30
0.0
 40
2.0
100
AcDbArc
 50
296.104
 51
0.0
  0
LINE
  5
130
100
AcDbEntity
  8
1
  6
CONTINUOUS
100
AcDbLine
 10
164.482402
 20
66.449532
 30
0.0
 11
164.482402
 21
64.041532
 31
0.0
  0
ARC
  5
131
100
AcDbEntity
  8
1
  6
CONTINUOUS
100
AcDbCircle
 10
162.482402
 20
66.449532
 30
0.0
 40
2.0
100
AcDbArc
 50
0.0
 51
63.896
  0
LINE
  5
132
100
AcDbEntity
  8
1
  6
CONTINUOUS
100
AcDbLine
 10
164.482402
 20
74.749532
 30
0.0
 11
164.482402
 21
71.341532
 31
0.0
  0
ARC
  5
133
100
AcDbEntity
  8
1
  6
CONTINUOUS
100
AcDbCircle
 10
162.482402
 20
74.749532
 30
0.0
 40
2.0
100
AcDbArc
 50
0.0
 51
63.896
  0
ARC
  5
134
100
AcDbEntity
  8
1
  6
CONTINUOUS
100
AcDbCircle
 10
162.482402
 20
71.341532
 30
0.0
 40
2.0
100
AcDbArc
 50
307.918
 51
0.0
  0
POINT
  5
135
100
AcDbEntity
  8
2
100
AcDbPoint
 10
99.362402
 20
69.245532
 30
0.0
  0
TEXT
  5
136
100
AcDbEntity
  8
2
100
AcDbText
 10
82.322402
 20
86.156532
 30
0.0
 40
2.24
  1
112
 41
0.429
  7
KANJI
100
AcDbText
  0
LINE
  5
137
100
AcDbEntity
  8
2
  6
CONTINUOUS
100
AcDbLine
 10
72.562402
 20
92.845532
 30
0.0
 11
72.562402
 21
83.756532
 31
0.0
  0
LINE
  5
138
100
AcDbEntity
  8
2
  6
CONTINUOUS
100
AcDbLine
 10
94.962402
 20
92.845532
 30
0.0
 11
94.962402
 21
83.756532
 31
0.0
  0
LINE
  5
139
100
AcDbEntity
  8
2
  6
CONTINUOUS
100
AcDbLine
 10
72.562402
 20
85.356532
 30
0.0
 11
94.962402
 21
85.356532
 31
0.0
  0
LINE
  5
13A
100
AcDbEntity
  8
2
  6
CONTINUOUS
100
AcDbLine
 10
72.562402
 20
85.356532
 30
0.0
 11
74.108402
 21
85.770532
 31
0.0
  0
LINE
  5
13B
100
AcDbEntity
  8
2
  6
CONTINUOUS
100
AcDbLine
 10
72.562402
 20
85.356532
 30
0.0
 11
74.108402
 21
84.942532
 31
0.0
  0
LINE
  5
13C
100
AcDbEntity
  8
2
  6
CONTINUOUS
100
AcDbLine
 10
94.962402
 20
85.356532
 30
0.0
 11
93.417402
 21
84.942532
 31
0.0
  0
LINE
  5
13D
100
AcDbEntity
  8
2
  6
CONTINUOUS
100
AcDbLine
 10
94.962402
 20
85.356532
 30
0.0
 11
93.417402
 21
85.770532
 31
0.0
  0
TEXT
  5
13E
100
AcDbEntity
  8
2
100
AcDbText
 10
67.168402
 20
99.805532
 30
0.0
 40
2.24
  1
102
 50
90.0
 41
0.429
  7
KANJI
100
AcDbText
  0
LINE
  5
13F
100
AcDbEntity
  8
2
  6
CONTINUOUS
100
AcDbLine
 10
74.362402
 20
111.445532
 30
0.0
 11
66.368402
 21
111.445532
 31
0.0
  0
LINE
  5
140
100
AcDbEntity
  8
2
  6
CONTINUOUS
100
AcDbLine
 10
74.362402
 20
91.045532
 30
0.0
 11
66.368402
 21
91.045532
 31
0.0
  0
LINE
  5
141
100
AcDbEntity
  8
2
  6
CONTINUOUS
100
AcDbLine
 10
67.968402
 20
111.445532
 30
0.0
 11
67.968402
 21
91.045532
 31
0.0
  0
LINE
  5
142
100
AcDbEntity
  8
2
  6
CONTINUOUS
100
AcDbLine
 10
67.968402
 20
111.445532
 30
0.0
 11
68.381402
 21
109.900532
 31
0.0
  0
LINE
  5
143
100
AcDbEntity
  8
2
  6
CONTINUOUS
100
AcDbLine
 10
67.968402
 20
111.445532
 30
0.0
 11
67.553402
 21
109.900532
 31
0.0
  0
LINE
  5
144
100
AcDbEntity
  8
2
  6
CONTINUOUS
100
AcDbLine
 10
67.968402
 20
91.045532
 30
0.0
 11
67.553402
 21
92.591532
 31
0.0
  0
LINE
  5
145
100
AcDbEntity
  8
2
  6
CONTINUOUS
100
AcDbLine
 10
67.968402
 20
91.045532
 30
0.0
 11
68.381402
 21
92.591532
 31
0.0
  0
LINE
  5
147
100
AcDbEntity
  8
2
  6
CONTINUOUS
100
AcDbLine
 10
129.162402
 20
67.573532
 30
0.0
 11
129.162402
 21
59.537532
 31
0.0
  0
LINE
  5
14F
100
AcDbEntity
  8
2
  6
CONTINUOUS
100
AcDbLine
 10
129.162402
 20
67.573532
 30
0.0
 11
129.162402
 21
59.537532
 31
0.0
  0
LINE
  5
156
100
AcDbEntity
  8
2
  6
CONTINUOUS
100
AcDbLine
 10
113.589742
 20
71.846079
 30
0.0
 11
127.389742
 21
71.846079
 31
0.0
  0
LINE
  5
157
100
AcDbEntity
  8
2
  6
CONTINUOUS
100
AcDbLine
 10
127.389742
 20
71.846079
 30
0.0
 11
128.801742
 21
69.598079
 31
0.0
  0
LINE
  5
158
100
AcDbEntity
  8
2
  6
CONTINUOUS
100
AcDbLine
 10
128.801742
 20
69.598079
 30
0.0
 11
128.215742
 21
70.142079
 31
0.0
  0
LINE
  5
159
100
AcDbEntity
  8
2
  6
CONTINUOUS
100
AcDbLine
 10
128.801742
 20
69.598079
 30
0.0
 11
128.565742
 21
70.363079
 31
0.0
  0
TEXT
  5
15A
100
AcDbEntity
  8
2
100
AcDbText
 10
113.557742
 20
73.926079
 30
0.0
 40
1.28
  1
2-1/4-20UNC�ﾆ�ｺ�ﾜ
 41
0.658
  7
KANJI
100
AcDbText
  0
TEXT
  5
15B
100
AcDbEntity
  8
2
100
AcDbText
 10
113.557742
 20
72.246079
 30
0.0
 40
1.28
  1
�ﾆ�ｺ�ﾜ深さ10以下
 41
0.765
  7
KANJI
100
AcDbText
  0
LINE
  5
15C
100
AcDbEntity
  8
2
  6
CONTINUOUS
100
AcDbLine
 10
147.34284
 20
71.933819
 30
0.0
 11
135.66284
 21
71.933819
 31
0.0
  0
LINE
  5
15D
100
AcDbEntity
  8
2
  6
CONTINUOUS
100
AcDbLine
 10
135.66284
 20
71.933819
 30
0.0
 11
133.98884
 21
69.616819
 31
0.0
  0
LINE
  5
15E
100
AcDbEntity
  8
2
  6
CONTINUOUS
100
AcDbLine
 10
133.98884
 20
69.616819
 30
0.0
 11
134.27284
 21
70.364819
 31
0.0
  0
LINE
  5
15F
100
AcDbEntity
  8
2
  6
CONTINUOUS
100
AcDbLine
 10
133.98884
 20
69.616819
 30
0.0
 11
134.60884
 21
70.121819
 31
0.0
  0
TEXT
  5
160
100
AcDbEntity
  8
2
100
AcDbText
 10
137.70284
 20
74.013819
 30
0.0
 40
1.28
  1
2X2-M5�ﾆ�ｺ�ﾜ
 41
0.656
  7
KANJI
100
AcDbText
  0
TEXT
  5
161
100
AcDbEntity
  8
2
100
AcDbText
 10
137.70284
 20
72.333819
 30
0.0
 40
1.28
  1
�ﾆ�ｺ�ﾜ深さ10以下
 41
0.765
  7
KANJI
100
AcDbText
  0
TEXT
  5
162
100
AcDbEntity
  8
2
100
AcDbText
 10
135.42084
 20
70.830819
 30
0.0
 40
1.12
  1
（対面共）
 41
0.88
  7
KANJI
100
AcDbText
  0
TEXT
  5
163
100
AcDbEntity
  8
2
100
AcDbText
 10
114.252742
 20
70.695079
 30
0.0
 40
1.12
  1
（対面共）
 41
0.88
  7
KANJI
100
AcDbText
  0
LINE
  5
164
100
AcDbEntity
  8
3
  6
CONTINUOUS
100
AcDbLine
 10
170.853402
 20
125.257532
 30
0.0
 11
163.373402
 21
125.257532
 31
0.0
  0
LINE
  5
165
100
AcDbEntity
  8
3
  6
CONTINUOUS
100
AcDbLine
 10
163.373402
 20
125.257532
 30
0.0
 11
160.781402
 21
127.609532
 31
0.0
  0
LINE
  5
166
100
AcDbEntity
  8
3
  6
CONTINUOUS
100
AcDbLine
 10
160.781402
 20
127.609532
 30
0.0
 11
161.492402
 21
127.243532
 31
0.0
  0
LINE
  5
167
100
AcDbEntity
  8
3
  6
CONTINUOUS
100
AcDbLine
 10
160.781402
 20
127.609532
 30
0.0
 11
161.213402
 21
126.936532
 31
0.0
  0
TEXT
  5
168
100
AcDbEntity
  8
3
100
AcDbText
 10
165.413402
 20
125.657532
 30
0.0
 40
1.28
  1
定格銘板
 41
0.873
  7
KANJI
100
AcDbText
  0
LINE
  5
169
100
AcDbEntity
  8
3
  6
CONTINUOUS
100
AcDbLine
 10
158.262402
 20
135.745532
 30
0.0
 11
158.262402
 21
126.745532
 31
0.0
  0
LINE
  5
16A
100
AcDbEntity
  8
3
  6
CONTINUOUS
100
AcDbLine
 10
157.762402
 20
135.745532
 30
0.0
 11
157.762402
 21
126.745532
 31
0.0
  0
LINE
  5
16B
100
AcDbEntity
  8
3
  6
CONTINUOUS
100
AcDbLine
 10
158.762402
 20
135.745532
 30
0.0
 11
158.762402
 21
126.745532
 31
0.0
  0
TEXT
  5
16C
100
AcDbEntity
  8
3
100
AcDbText
 10
167.314402
 20
88.703532
 30
0.0
 40
1.12
  1
引抜きストロ－ク
 41
0.765
  7
KANJI
100
AcDbText
  0
TEXT
  5
16D
100
AcDbEntity
  8
3
100
AcDbText
 10
206.282402
 20
81.138532
 30
0.0
 40
2.24
  1
導入可能ケ－ブル径
 41
0.876
  7
KANJI
100
AcDbText
  0
TEXT
  5
16E
100
AcDbEntity
  8
3
100
AcDbText
 10
206.282402
 20
78.098532
 30
0.0
 40
2.24
  1
Ａ：φ６～φ１５
 41
0.874
  7
KANJI
100
AcDbText
  0
TEXT
  5
16F
100
AcDbEntity
  8
3
100
AcDbText
 10
206.282402
 20
75.058532
 30
0.0
 40
2.24
  1
Ｂ：φ３～φ９
 41
0.871
  7
KANJI
100
AcDbText
  0
TEXT
  5
170
100
AcDbEntity
  8
3
100
AcDbText
 10
195.169402
 20
82.435532
 30
0.0
 40
2.4
  1
後
 41
0.75
  7
KANJI
100
AcDbText
  0
LINE
  5
171
100
AcDbEntity
  8
3
  6
CONTINUOUS
100
AcDbLine
 10
228.588402
 20
83.669532
 30
0.0
 11
205.468402
 21
83.669532
 31
0.0
  0
LINE
  5
172
100
AcDbEntity
  8
3
  6
CONTINUOUS
100
AcDbLine
 10
205.468402
 20
83.669532
 30
0.0
 11
201.133402
 21
100.379532
 31
0.0
  0
LINE
  5
173
100
AcDbEntity
  8
3
  6
CONTINUOUS
100
AcDbLine
 10
201.133402
 20
100.379532
 30
0.0
 11
201.922402
 21
98.987532
 31
0.0
  0
LINE
  5
174
100
AcDbEntity
  8
3
  6
CONTINUOUS
100
AcDbLine
 10
201.133402
 20
100.379532
 30
0.0
 11
201.121402
 21
98.779532
 31
0.0
  0
TEXT
  5
175
100
AcDbEntity
  8
3
100
AcDbText
 10
209.548402
 20
87.829532
 30
0.0
 40
2.56
  1
ケ－ブル引込用
 41
0.878
  7
KANJI
100
AcDbText
  0
TEXT
  5
176
100
AcDbEntity
  8
3
100
AcDbText
 10
209.548402
 20
84.469532
 30
0.0
 40
2.56
  1
防塵ブッシュ
 41
0.877
  7
KANJI
100
AcDbText
  0
TEXT
  5
177
100
AcDbEntity
  8
3
100
AcDbText
 10
82.203402
 20
81.843532
 30
0.0
 40
2.4
  1
前
 41
0.75
  7
KANJI
100
AcDbText
  0
LINE
  5
178
100
AcDbEntity
  8
3
  6
CONTINUOUS
100
AcDbLine
 10
142.673402
 20
138.763532
 30
0.0
 11
133.833402
 21
138.763532
 31
0.0
  0
LINE
  5
179
100
AcDbEntity
  8
3
  6
CONTINUOUS
100
AcDbLine
 10
133.833402
 20
138.763532
 30
0.0
 11
132.129402
 21
133.227532
 31
0.0
  0
LINE
  5
17A
100
AcDbEntity
  8
3
  6
CONTINUOUS
100
AcDbLine
 10
132.129402
 20
133.227532
 30
0.0
 11
132.158402
 21
134.027532
 31
0.0
  0
LINE
  5
17B
100
AcDbEntity
  8
3
  6
CONTINUOUS
100
AcDbLine
 10
132.129402
 20
133.227532
 30
0.0
 11
132.554402
 21
133.905532
 31
0.0
  0
TEXT
  5
17C
100
AcDbEntity
  8
3
100
AcDbText
 10
135.873402
 20
139.163532
 30
0.0
 40
1.28
  1
防塵シ－ル
 41
0.875
  7
KANJI
100
AcDbText
  0
LINE
  5
17E
100
AcDbEntity
  8
1
  6
DASHDOT
100
AcDbLine
 10
133.762402
 20
70.163532
 30
0.0
 11
133.762402
 21
68.373532
 31
0.0
  0
LINE
  5
180
100
AcDbEntity
  8
1
  6
DASHDOT
100
AcDbLine
 10
125.762402
 20
70.163532
 30
0.0
 11
125.762402
 21
68.373532
 31
0.0
  0
LINE
  5
182
100
AcDbEntity
  8
1
100
AcDbLine
 10
129.162402
 20
69.245532
 30
0.0
 11
129.162402
 21
63.698871
 31
0.0
  0
LINE
  5
183
100
AcDbEntity
  8
1
100
AcDbLine
 10
133.762402
 20
69.245532
 30
0.0
 11
133.762402
 21
63.698871
 31
0.0
  0
LINE
  5
196
100
AcDbEntity
  8
1
100
AcDbLine
 10
129.162402
 20
69.245532
 30
0.0
 11
129.162402
 21
64.340741
 31
0.0
  0
LINE
  5
197
100
AcDbEntity
  8
1
100
AcDbLine
 10
133.762402
 20
69.245532
 30
0.0
 11
133.762402
 21
64.340741
 31
0.0
  0
LINE
  5
198
100
AcDbEntity
  8
1
100
AcDbLine
 10
130.162402
 20
64.340741
 30
0.0
 11
132.762402
 21
64.340741
 31
0.0
  0
INSERT
  5
19A
100
AcDbEntity
  8
1
100
AcDbBlockReference
  2
_OPEN30
 10
129.162402
 20
64.340741
 30
0.0
 50
180.0
  0
INSERT
  5
19B
100
AcDbEntity
  8
1
100
AcDbBlockReference
  2
_OPEN30
 10
133.762402
 20
64.340741
 30
0.0
  0
MTEXT
  5
19C
100
AcDbEntity
  8
1
100
AcDbMText
 10
131.586096
 20
65.367733
 30
0.0
 40
1.5
 41
0.0
 71
     5
 72
     1
  1
23
  0
LINE
  5
1A4
100
AcDbEntity
  8
1
100
AcDbLine
 10
125.762402
 20
69.245532
 30
0.0
 11
125.762402
 21
61.426606
 31
0.0
  0
LINE
  5
1A5
100
AcDbEntity
  8
1
100
AcDbLine
 10
133.762402
 20
69.245532
 30
0.0
 11
133.762402
 21
61.426606
 31
0.0
  0
LINE
  5
1A6
100
AcDbEntity
  8
1
100
AcDbLine
 10
126.762402
 20
61.426606
 30
0.0
 11
132.762402
 21
61.426606
 31
0.0
  0
INSERT
  5
1A8
100
AcDbEntity
  8
1
100
AcDbBlockReference
  2
_OPEN30
 10
125.762402
 20
61.426606
 30
0.0
 50
180.0
  0
INSERT
  5
1A9
100
AcDbEntity
  8
1
100
AcDbBlockReference
  2
_OPEN30
 10
133.762402
 20
61.426606
 30
0.0
  0
MTEXT
  5
1AA
100
AcDbEntity
  8
1
100
AcDbMText
 10
131.441823
 20
62.421504
 30
0.0
 40
1.5
 41
0.0
 71
     5
 72
     1
  1
40
  0
TEXT
  5
1F0
100
AcDbEntity
  8
1
  6
CONTINUOUS
 62
     7
100
AcDbText
 10
6.531
 20
42.913
 30
0.0
 40
2.304
  1
　
 41
0.573
  7
KANJI
100
AcDbText
  0
LINE
  5
1F9
100
AcDbEntity
  8
0
100
AcDbLine
 10
281.0
 20
4.0
 30
0.0
 11
201.0
 21
4.0
 31
0.0
  0
LINE
  5
1FA
100
AcDbEntity
  8
0
100
AcDbLine
 10
281.0
 20
20.0
 30
0.0
 11
281.0
 21
4.0
 31
0.0
  0
LINE
  5
1FB
100
AcDbEntity
  8
0
100
AcDbLine
 10
281.0
 20
12.0
 30
0.0
 11
201.0
 21
12.0
 31
0.0
  0
LINE
  5
1FC
100
AcDbEntity
  8
0
100
AcDbLine
 10
281.0
 20
20.0
 30
0.0
 11
201.0
 21
20.0
 31
0.0
  0
LINE
  5
1FD
100
AcDbEntity
  8
0
100
AcDbLine
 10
221.0
 20
20.0
 30
0.0
 11
221.0
 21
4.0
 31
0.0
  0
LINE
  5
1FE
100
AcDbEntity
  8
0
100
AcDbLine
 10
201.0
 20
20.0
 30
0.0
 11
201.0
 21
4.0
 31
0.0
  0
TEXT
  5
1FF
100
AcDbEntity
  8
0
100
AcDbText
 10
206.93529
 20
13.671686
 30
0.0
 40
4.0
  1
品名
  7
STANDARD1
100
AcDbText
  0
TEXT
  5
200
100
AcDbEntity
  8
0
100
AcDbText
 10
206.93529
 20
5.671686
 30
0.0
 40
4.0
  1
型名
  7
STANDARD1
100
AcDbText
  0
TEXT
  5
201
100
AcDbEntity
  8
0
100
AcDbText
 10
222.93529
 20
13.671686
 30
0.0
 40
4.0
  1
屋内形カメラケース
  7
STANDARD1
100
AcDbText
  0
TEXT
  5
202
100
AcDbEntity
  8
0
100
AcDbText
 10
222.93529
 20
5.671686
 30
0.0
 40
4.0
  1
B-1130
  7
STANDARD1
100
AcDbText
  0
ENDSEC
  0
SECTION
  2
OBJECTS
  0
DICTIONARY
  5
C
100
AcDbDictionary
  3
ACAD_GROUP
350
D
  3
ACAD_MLINESTYLE
350
1B
  0
DICTIONARY
  5
D
102
{ACAD_REACTORS
330
C
102
}
100
AcDbDictionary
  3
*A1
350
1D2
  3
*A2
350
1D3
  3
*A3
350
1D4
  3
*A4
350
1D5
  3
*A5
350
1D6
  3
*A6
350
204
  3
*A7
350
205
  3
*A8
350
206
  0
DICTIONARY
  5
1B
102
{ACAD_REACTORS
330
C
102
}
100
AcDbDictionary
  3
STANDARD
350
1C
  0
GROUP
  5
1D2
102
{ACAD_REACTORS
330
D
102
}
100
AcDbGroup
300

 70
     3
 71
     1
340
1BE
340
1BD
340
1C0
340
1BF
  0
GROUP
  5
1D3
102
{ACAD_REACTORS
330
D
102
}
100
AcDbGroup
300

 70
     3
 71
     1
340
1BA
340
1B9
340
1BC
340
1BB
  0
GROUP
  5
1D4
102
{ACAD_REACTORS
330
D
102
}
100
AcDbGroup
300

 70
     3
 71
     1
340
1DE
340
1DD
340
1E0
340
1DF
  0
GROUP
  5
1D5
102
{ACAD_REACTORS
330
D
102
}
100
AcDbGroup
300

 70
     3
 71
     1
340
1D9
340
1DA
340
1DB
340
1DC
  0
GROUP
  5
1D6
102
{ACAD_REACTORS
330
D
102
}
100
AcDbGroup
300

 70
     3
 71
     1
340
1EB
340
1DE
340
1DD
340
1E0
340
1DF
  0
GROUP
  5
204
102
{ACAD_REACTORS
330
D
102
}
100
AcDbGroup
300

 70
     1
 71
     1
  0
GROUP
  5
205
102
{ACAD_REACTORS
330
D
102
}
100
AcDbGroup
300

 70
     1
 71
     1
  0
GROUP
  5
206
102
{ACAD_REACTORS
330
D
102
}
100
AcDbGroup
300

 70
     1
 71
     1
  0
MLINESTYLE
  5
1C
102
{ACAD_REACTORS
330
1B
102
}
100
AcDbMlineStyle
  2
STANDARD
 70
     0
  3

 62
   256
 51
90.0
 52
90.0
 71
     2
 49
0.5
 62
   256
  6
BYLAYER
 49
-0.5
 62
   256
  6
BYLAYER
  0
ENDSEC
  0
EOF
