  0
SECTION
  2
HEADER
  9
$ACADVER
  1
AC1014
  9
$ACADMAINTVER
 70
     0
  9
$DWGCODEPAGE
  3
ANSI_932
  9
$INSBASE
 10
0.0
 20
0.0
 30
0.0
  9
$EXTMIN
 10
10.3838
 20
4.0
 30
0.0
  9
$EXTMAX
 10
281.0
 20
188.566501
 30
0.0
  9
$LIMMIN
 10
0.0
 20
0.0
  9
$LIMMAX
 10
12.0
 20
9.0
  9
$ORTHOMODE
 70
     0
  9
$REGENMODE
 70
     1
  9
$FILLMODE
 70
     1
  9
$QTEXTMODE
 70
     0
  9
$MIRRTEXT
 70
     1
  9
$DRAGMODE
 70
     2
  9
$LTSCALE
 40
1.0
  9
$OSMODE
 70
     0
  9
$ATTMODE
 70
     1
  9
$TEXTSIZE
 40
0.2
  9
$TRACEWID
 40
0.05
  9
$TEXTSTYLE
  7
STANDARD
  9
$CLAYER
  8
0
  9
$CELTYPE
  6
CONTINUOUS
  9
$CECOLOR
 62
   256
  9
$CELTSCALE
 40
1.0
  9
$DELOBJ
 70
     1
  9
$DISPSILH
 70
     0
  9
$DIMSCALE
 40
1.0
  9
$DIMASZ
 40
0.18
  9
$DIMEXO
 40
0.0625
  9
$DIMDLI
 40
0.38
  9
$DIMRND
 40
0.0
  9
$DIMDLE
 40
0.0
  9
$DIMEXE
 40
0.18
  9
$DIMTP
 40
0.0
  9
$DIMTM
 40
0.0
  9
$DIMTXT
 40
0.18
  9
$DIMCEN
 40
0.09
  9
$DIMTSZ
 40
0.0
  9
$DIMTOL
 70
     0
  9
$DIMLIM
 70
     0
  9
$DIMTIH
 70
     1
  9
$DIMTOH
 70
     1
  9
$DIMSE1
 70
     0
  9
$DIMSE2
 70
     0
  9
$DIMTAD
 70
     0
  9
$DIMZIN
 70
     0
  9
$DIMBLK
  1

  9
$DIMASO
 70
     1
  9
$DIMSHO
 70
     1
  9
$DIMPOST
  1

  9
$DIMAPOST
  1

  9
$DIMALT
 70
     0
  9
$DIMALTD
 70
     2
  9
$DIMALTF
 40
25.4
  9
$DIMLFAC
 40
1.0
  9
$DIMTOFL
 70
     0
  9
$DIMTVP
 40
0.0
  9
$DIMTIX
 70
     0
  9
$DIMSOXD
 70
     0
  9
$DIMSAH
 70
     0
  9
$DIMBLK1
  1

  9
$DIMBLK2
  1

  9
$DIMSTYLE
  2
STANDARD
  9
$DIMCLRD
 70
     0
  9
$DIMCLRE
 70
     0
  9
$DIMCLRT
 70
     0
  9
$DIMTFAC
 40
1.0
  9
$DIMGAP
 40
0.09
  9
$DIMJUST
 70
     0
  9
$DIMSD1
 70
     0
  9
$DIMSD2
 70
     0
  9
$DIMTOLJ
 70
     1
  9
$DIMTZIN
 70
     0
  9
$DIMALTZ
 70
     0
  9
$DIMALTTZ
 70
     0
  9
$DIMFIT
 70
     3
  9
$DIMUPT
 70
     0
  9
$DIMUNIT
 70
     2
  9
$DIMDEC
 70
     4
  9
$DIMTDEC
 70
     4
  9
$DIMALTU
 70
     2
  9
$DIMALTTD
 70
     2
  9
$DIMTXSTY
  7
STANDARD
  9
$DIMAUNIT
 70
     0
  9
$LUNITS
 70
     2
  9
$LUPREC
 70
     4
  9
$SKETCHINC
 40
0.1
  9
$FILLETRAD
 40
0.0
  9
$AUNITS
 70
     0
  9
$AUPREC
 70
     0
  9
$MENU
  1
acad
  9
$ELEVATION
 40
0.0
  9
$PELEVATION
 40
0.0
  9
$THICKNESS
 40
0.0
  9
$LIMCHECK
 70
     0
  9
$BLIPMODE
 70
     0
  9
$CHAMFERA
 40
0.0
  9
$CHAMFERB
 40
0.0
  9
$CHAMFERC
 40
0.0
  9
$CHAMFERD
 40
0.0
  9
$SKPOLY
 70
     0
  9
$TDCREATE
 40
0.0000000000
  9
$TDUPDATE
 40
0.0000000000
  9
$TDINDWG
 40
0.0000000000
  9
$TDUSRTIMER
 40
0.0000000000
  9
$USRTIMER
 70
     1
  9
$ANGBASE
 50
0.0
  9
$ANGDIR
 70
     0
  9
$PDMODE
 70
     0
  9
$PDSIZE
 40
0.0
  9
$PLINEWID
 40
0.0
  9
$COORDS
 70
     1
  9
$SPLFRAME
 70
     0
  9
$SPLINETYPE
 70
     6
  9
$SPLINESEGS
 70
     8
  9
$ATTDIA
 70
     0
  9
$ATTREQ
 70
     1
  9
$HANDLING
 70
     1
  9
$HANDSEED
  5
F6A
  9
$SURFTAB1
 70
     6
  9
$SURFTAB2
 70
     6
  9
$SURFTYPE
 70
     6
  9
$SURFU
 70
     6
  9
$SURFV
 70
     6
  9
$UCSNAME
  2

  9
$UCSORG
 10
0.0
 20
0.0
 30
0.0
  9
$UCSXDIR
 10
1.0
 20
0.0
 30
0.0
  9
$UCSYDIR
 10
0.0
 20
1.0
 30
0.0
  9
$PUCSNAME
  2

  9
$PUCSORG
 10
0.0
 20
0.0
 30
0.0
  9
$PUCSXDIR
 10
1.0
 20
0.0
 30
0.0
  9
$PUCSYDIR
 10
0.0
 20
1.0
 30
0.0
  9
$USERI1
 70
     0
  9
$USERI2
 70
     0
  9
$USERI3
 70
     0
  9
$USERI4
 70
     0
  9
$USERI5
 70
     0
  9
$USERR1
 40
0.0
  9
$USERR2
 40
0.0
  9
$USERR3
 40
0.0
  9
$USERR4
 40
0.0
  9
$USERR5
 40
0.0
  9
$WORLDVIEW
 70
     1
  9
$SHADEDGE
 70
     3
  9
$SHADEDIF
 70
    70
  9
$TILEMODE
 70
     1
  9
$MAXACTVP
 70
    48
  9
$PINSBASE
 10
0.0
 20
0.0
 30
0.0
  9
$PLIMCHECK
 70
     0
  9
$PEXTMIN
 10
1.000000E+20
 20
1.000000E+20
 30
1.000000E+20
  9
$PEXTMAX
 10
-1.000000E+20
 20
-1.000000E+20
 30
-1.000000E+20
  9
$PLIMMIN
 10
0.0
 20
0.0
  9
$PLIMMAX
 10
12.0
 20
9.0
  9
$UNITMODE
 70
     0
  9
$VISRETAIN
 70
     1
  9
$PLINEGEN
 70
     0
  9
$PSLTSCALE
 70
     1
  9
$TREEDEPTH
 70
  3020
  9
$PICKSTYLE
 70
     1
  9
$CMLSTYLE
  2
STANDARD
  9
$CMLJUST
 70
     0
  9
$CMLSCALE
 40
1.0
  9
$PROXYGRAPHICS
 70
     1
  9
$MEASUREMENT
 70
     0
  0
ENDSEC
  0
SECTION
  2
CLASSES
  0
ENDSEC
  0
SECTION
  2
TABLES
  0
TABLE
  2
VPORT
  5
8
100
AcDbSymbolTable
 70
     2
  0
VPORT
  5
F69
100
AcDbSymbolTableRecord
100
AcDbViewportTableRecord
  2
*ACTIVE
 70
     0
 10
0.0
 20
0.0
 11
1.0
 21
1.0
 12
140.5
 22
94.28325
 13
0.0
 23
0.0
 14
1.0
 24
1.0
 15
0.0
 25
0.0
 16
0.0
 26
0.0
 36
1.0
 17
0.0
 27
0.0
 37
0.0
 40
381.596114
 41
1.83004
 42
50.0
 43
0.0
 44
0.0
 50
0.0
 51
0.0
 71
     0
 72
   100
 73
     1
 74
     1
 75
     1
 76
     0
 77
     0
 78
     0
  0
ENDTAB
  0
TABLE
  2
LTYPE
  5
5
100
AcDbSymbolTable
 70
     8
  0
LTYPE
  5
12
100
AcDbSymbolTableRecord
100
AcDbLinetypeTableRecord
  2
BYBLOCK
 70
     0
  3

 72
    65
 73
     0
 40
0.0
  0
LTYPE
  5
13
100
AcDbSymbolTableRecord
100
AcDbLinetypeTableRecord
  2
BYLAYER
 70
     0
  3

 72
    65
 73
     0
 40
0.0
  0
LTYPE
  5
14
100
AcDbSymbolTableRecord
100
AcDbLinetypeTableRecord
  2
CONTINUOUS
 70
     0
  3
Solid line
 72
    65
 73
     0
 40
0.0
  0
LTYPE
  5
1F
100
AcDbSymbolTableRecord
100
AcDbLinetypeTableRecord
  2
DASHED
 70
     0
  3
__ __ __ __ __ __ __ __ __ __ __ __ __ __ __
 72
    65
 73
     2
 40
3.5
 49
2.0
 74
     0
 49
-1.5
 74
     0
  0
LTYPE
  5
20
100
AcDbSymbolTableRecord
100
AcDbLinetypeTableRecord
  2
CENTER
 70
     0
  3
____ _ ____ _ ____ _ ____ _ ____ _ ____ _ ____
 72
    65
 73
     4
 40
17.5
 49
13.0
 74
     0
 49
-1.5
 74
     0
 49
1.5
 74
     0
 49
-1.5
 74
     0
  0
LTYPE
  5
21
100
AcDbSymbolTableRecord
100
AcDbLinetypeTableRecord
  2
PHANTOM
 70
     0
  3
_____ _ _ _____ _ _ _____ _ _ _____ _ _ ____  
 72
    65
 73
     6
 40
15.5
 49
8.0
 74
     0
 49
-1.5
 74
     0
 49
1.5
 74
     0
 49
-1.5
 74
     0
 49
1.5
 74
     0
 49
-1.5
 74
     0
  0
LTYPE
  5
BF8
100
AcDbSymbolTableRecord
100
AcDbLinetypeTableRecord
  2
HIDDEN
 70
     0
  3
------------------------
 72
    65
 73
     2
 40
12.6
 49
8.4
 74
     0
 49
-4.2
 74
     0
  0
LTYPE
  5
BF9
100
AcDbSymbolTableRecord
100
AcDbLinetypeTableRecord
  2
DOT
 70
     0
  3
････････････････････････
 72
    65
 73
     2
 40
8.0
 49
6.0
 74
     0
 49
-2.0
 74
     0
  0
LTYPE
  5
BFA
100
AcDbSymbolTableRecord
100
AcDbLinetypeTableRecord
  2
DASHDOT
 70
     0
  3
--･--･--･--･--･--･--･--
 72
    65
 73
     4
 40
50.5
 49
30.0
 74
     0
 49
-9.0
 74
     0
 49
2.5
 74
     0
 49
-9.0
 74
     0
  0
LTYPE
  5
BFB
100
AcDbSymbolTableRecord
100
AcDbLinetypeTableRecord
  2
DIVIDE
 70
     0
  3
--･･--･･--･･--･･--･･--
 72
    65
 73
     6
 40
58.0
 49
30.0
 74
     0
 49
-9.0
 74
     0
 49
2.5
 74
     0
 49
-5.0
 74
     0
 49
2.5
 74
     0
 49
-9.0
 74
     0
  0
ENDTAB
  0
TABLE
  2
LAYER
  5
2
100
AcDbSymbolTable
 70
    13
  0
LAYER
  5
E
100
AcDbSymbolTableRecord
100
AcDbLayerTableRecord
  2
0
 70
     0
 62
     7
  6
CONTINUOUS
  0
LAYER
  5
82
100
AcDbSymbolTableRecord
100
AcDbLayerTableRecord
  2
3
 70
     0
 62
     7
  6
CONTINUOUS
  0
LAYER
  5
BFC
100
AcDbSymbolTableRecord
100
AcDbLayerTableRecord
  2
1
 70
     0
 62
     7
  6
CONTINUOUS
  0
LAYER
  5
BFD
100
AcDbSymbolTableRecord
100
AcDbLayerTableRecord
  2
2
 70
     0
 62
     7
  6
CONTINUOUS
  0
LAYER
  5
BFE
100
AcDbSymbolTableRecord
100
AcDbLayerTableRecord
  2
4
 70
     0
 62
     7
  6
CONTINUOUS
  0
LAYER
  5
BFF
100
AcDbSymbolTableRecord
100
AcDbLayerTableRecord
  2
5
 70
     0
 62
     7
  6
CONTINUOUS
  0
LAYER
  5
C00
100
AcDbSymbolTableRecord
100
AcDbLayerTableRecord
  2
6
 70
     0
 62
     7
  6
CONTINUOUS
  0
LAYER
  5
C01
100
AcDbSymbolTableRecord
100
AcDbLayerTableRecord
  2
7
 70
     0
 62
     7
  6
CONTINUOUS
  0
LAYER
  5
C02
100
AcDbSymbolTableRecord
100
AcDbLayerTableRecord
  2
8
 70
     0
 62
     7
  6
CONTINUOUS
  0
LAYER
  5
C03
100
AcDbSymbolTableRecord
100
AcDbLayerTableRecord
  2
9
 70
     0
 62
     7
  6
CONTINUOUS
  0
LAYER
  5
C04
100
AcDbSymbolTableRecord
100
AcDbLayerTableRecord
  2
10
 70
     0
 62
     7
  6
CONTINUOUS
  0
LAYER
  5
C05
100
AcDbSymbolTableRecord
100
AcDbLayerTableRecord
  2
11
 70
     0
 62
     7
  6
CONTINUOUS
  0
LAYER
  5
C06
100
AcDbSymbolTableRecord
100
AcDbLayerTableRecord
  2
15
 70
     0
 62
     7
  6
CONTINUOUS
  0
ENDTAB
  0
TABLE
  2
STYLE
  5
3
100
AcDbSymbolTable
 70
     3
  0
STYLE
  5
F
100
AcDbSymbolTableRecord
100
AcDbTextStyleTableRecord
  2
STANDARD
 70
     0
 40
0.0
 41
1.0
 50
0.0
 71
     0
 42
0.2
  3
txt
  4
BIGFONT
  0
STYLE
  5
C07
100
AcDbSymbolTableRecord
100
AcDbTextStyleTableRecord
  2
KANJI
 70
     0
 40
0.0
 41
1.0
 50
0.0
 71
     0
 42
0.2
  3
TXT
  4
BIGFONT
  0
STYLE
  5
C08
100
AcDbSymbolTableRecord
100
AcDbTextStyleTableRecord
  2
STANDARD1
 70
     0
 40
0.0
 41
1.0
 50
0.0
 71
     0
 42
4.0
  3
monotxt.shx
  4
bigfont.shx
  0
ENDTAB
  0
TABLE
  2
VIEW
  5
6
100
AcDbSymbolTable
 70
     0
  0
ENDTAB
  0
TABLE
  2
UCS
  5
7
100
AcDbSymbolTable
 70
     0
  0
ENDTAB
  0
TABLE
  2
APPID
  5
9
100
AcDbSymbolTable
 70
     5
  0
APPID
  5
10
100
AcDbSymbolTableRecord
100
AcDbRegAppTableRecord
  2
ACAD
 70
     0
  0
APPID
  5
C09
100
AcDbSymbolTableRecord
100
AcDbRegAppTableRecord
  2
CONTENTTABDATA
 70
     0
  0
APPID
  5
C0A
100
AcDbSymbolTableRecord
100
AcDbRegAppTableRecord
  2
CONTENTCURRENTTAB
 70
     0
  0
APPID
  5
C0B
100
AcDbSymbolTableRecord
100
AcDbRegAppTableRecord
  2
CONTENTBLOCKDESCRIPTION
 70
     0
  0
APPID
  5
C0C
100
AcDbSymbolTableRecord
100
AcDbRegAppTableRecord
  2
CONTENTBLOCKICON
 70
     0
  0
ENDTAB
  0
TABLE
  2
DIMSTYLE
  5
A
100
AcDbSymbolTable
 70
     1
  0
DIMSTYLE
105
BC8
100
AcDbSymbolTableRecord
100
AcDbDimStyleTableRecord
  2
STANDARD
 70
     0
  3

  4

  5

  6

  7

 40
1.0
 41
0.18
 42
0.0625
 43
0.38
 44
0.18
 45
0.0
 46
0.0
 47
0.0
 48
0.0
140
0.18
141
0.09
142
0.0
143
25.4
144
1.0
145
0.0
146
1.0
147
0.09
 71
     0
 72
     0
 73
     1
 74
     1
 75
     0
 76
     0
 77
     0
 78
     0
170
     0
171
     2
172
     0
173
     0
174
     0
175
     0
176
     0
177
     0
178
     0
270
     2
271
     4
272
     4
273
     2
274
     2
340
F
275
     0
280
     0
281
     0
282
     0
283
     1
284
     0
285
     0
286
     0
287
     3
288
     0
  0
ENDTAB
  0
TABLE
  2
BLOCK_RECORD
  5
1
100
AcDbSymbolTable
 70
    53
  0
BLOCK_RECORD
  5
18
100
AcDbSymbolTableRecord
100
AcDbBlockTableRecord
  2
*MODEL_SPACE
  0
BLOCK_RECORD
  5
15
100
AcDbSymbolTableRecord
100
AcDbBlockTableRecord
  2
*PAPER_SPACE
  0
BLOCK_RECORD
  5
23
100
AcDbSymbolTableRecord
100
AcDbBlockTableRecord
  2
*D0
  0
BLOCK_RECORD
  5
2E
100
AcDbSymbolTableRecord
100
AcDbBlockTableRecord
  2
*D1
  0
BLOCK_RECORD
  5
39
100
AcDbSymbolTableRecord
100
AcDbBlockTableRecord
  2
*D2
  0
BLOCK_RECORD
  5
44
100
AcDbSymbolTableRecord
100
AcDbBlockTableRecord
  2
*D3
  0
BLOCK_RECORD
  5
4F
100
AcDbSymbolTableRecord
100
AcDbBlockTableRecord
  2
*D4
  0
BLOCK_RECORD
  5
5B
100
AcDbSymbolTableRecord
100
AcDbBlockTableRecord
  2
*D5
  0
BLOCK_RECORD
  5
66
100
AcDbSymbolTableRecord
100
AcDbBlockTableRecord
  2
*D6
  0
BLOCK_RECORD
  5
71
100
AcDbSymbolTableRecord
100
AcDbBlockTableRecord
  2
*D7
  0
BLOCK_RECORD
  5
7C
100
AcDbSymbolTableRecord
100
AcDbBlockTableRecord
  2
*D8
  0
BLOCK_RECORD
  5
84
100
AcDbSymbolTableRecord
100
AcDbBlockTableRecord
  2
*D9
  0
BLOCK_RECORD
  5
8F
100
AcDbSymbolTableRecord
100
AcDbBlockTableRecord
  2
*D10
  0
BLOCK_RECORD
  5
9B
100
AcDbSymbolTableRecord
100
AcDbBlockTableRecord
  2
*D11
  0
BLOCK_RECORD
  5
A2
100
AcDbSymbolTableRecord
100
AcDbBlockTableRecord
  2
*D12
  0
BLOCK_RECORD
  5
AB
100
AcDbSymbolTableRecord
100
AcDbBlockTableRecord
  2
*D13
  0
BLOCK_RECORD
  5
B4
100
AcDbSymbolTableRecord
100
AcDbBlockTableRecord
  2
*D14
  0
BLOCK_RECORD
  5
BF
100
AcDbSymbolTableRecord
100
AcDbBlockTableRecord
  2
*D15
  0
BLOCK_RECORD
  5
CA
100
AcDbSymbolTableRecord
100
AcDbBlockTableRecord
  2
*D16
  0
BLOCK_RECORD
  5
D5
100
AcDbSymbolTableRecord
100
AcDbBlockTableRecord
  2
*D17
  0
BLOCK_RECORD
  5
E0
100
AcDbSymbolTableRecord
100
AcDbBlockTableRecord
  2
*D18
  0
BLOCK_RECORD
  5
EB
100
AcDbSymbolTableRecord
100
AcDbBlockTableRecord
  2
*D19
  0
BLOCK_RECORD
  5
F6
100
AcDbSymbolTableRecord
100
AcDbBlockTableRecord
  2
*D20
  0
BLOCK_RECORD
  5
101
100
AcDbSymbolTableRecord
100
AcDbBlockTableRecord
  2
*D21
  0
BLOCK_RECORD
  5
10C
100
AcDbSymbolTableRecord
100
AcDbBlockTableRecord
  2
*D22
  0
BLOCK_RECORD
  5
117
100
AcDbSymbolTableRecord
100
AcDbBlockTableRecord
  2
*D23
  0
BLOCK_RECORD
  5
122
100
AcDbSymbolTableRecord
100
AcDbBlockTableRecord
  2
*D24
  0
BLOCK_RECORD
  5
12D
100
AcDbSymbolTableRecord
100
AcDbBlockTableRecord
  2
*D25
  0
BLOCK_RECORD
  5
138
100
AcDbSymbolTableRecord
100
AcDbBlockTableRecord
  2
*D26
  0
BLOCK_RECORD
  5
143
100
AcDbSymbolTableRecord
100
AcDbBlockTableRecord
  2
*D27
  0
BLOCK_RECORD
  5
14B
100
AcDbSymbolTableRecord
100
AcDbBlockTableRecord
  2
*D28
  0
BLOCK_RECORD
  5
156
100
AcDbSymbolTableRecord
100
AcDbBlockTableRecord
  2
*D29
  0
BLOCK_RECORD
  5
161
100
AcDbSymbolTableRecord
100
AcDbBlockTableRecord
  2
*D30
  0
BLOCK_RECORD
  5
16E
100
AcDbSymbolTableRecord
100
AcDbBlockTableRecord
  2
*D31
  0
BLOCK_RECORD
  5
179
100
AcDbSymbolTableRecord
100
AcDbBlockTableRecord
  2
*D32
  0
BLOCK_RECORD
  5
184
100
AcDbSymbolTableRecord
100
AcDbBlockTableRecord
  2
*D33
  0
BLOCK_RECORD
  5
18F
100
AcDbSymbolTableRecord
100
AcDbBlockTableRecord
  2
*D34
  0
BLOCK_RECORD
  5
19A
100
AcDbSymbolTableRecord
100
AcDbBlockTableRecord
  2
*D35
  0
BLOCK_RECORD
  5
1A5
100
AcDbSymbolTableRecord
100
AcDbBlockTableRecord
  2
*D36
  0
BLOCK_RECORD
  5
1B0
100
AcDbSymbolTableRecord
100
AcDbBlockTableRecord
  2
*D37
  0
BLOCK_RECORD
  5
1BB
100
AcDbSymbolTableRecord
100
AcDbBlockTableRecord
  2
*D38
  0
BLOCK_RECORD
  5
1C6
100
AcDbSymbolTableRecord
100
AcDbBlockTableRecord
  2
*D39
  0
BLOCK_RECORD
  5
1D1
100
AcDbSymbolTableRecord
100
AcDbBlockTableRecord
  2
*D40
  0
BLOCK_RECORD
  5
1DC
100
AcDbSymbolTableRecord
100
AcDbBlockTableRecord
  2
*D41
  0
BLOCK_RECORD
  5
1E7
100
AcDbSymbolTableRecord
100
AcDbBlockTableRecord
  2
*D42
  0
BLOCK_RECORD
  5
1F2
100
AcDbSymbolTableRecord
100
AcDbBlockTableRecord
  2
*D43
  0
BLOCK_RECORD
  5
1FD
100
AcDbSymbolTableRecord
100
AcDbBlockTableRecord
  2
*D44
  0
BLOCK_RECORD
  5
208
100
AcDbSymbolTableRecord
100
AcDbBlockTableRecord
  2
*D45
  0
BLOCK_RECORD
  5
213
100
AcDbSymbolTableRecord
100
AcDbBlockTableRecord
  2
*D46
  0
BLOCK_RECORD
  5
21E
100
AcDbSymbolTableRecord
100
AcDbBlockTableRecord
  2
*D47
  0
BLOCK_RECORD
  5
229
100
AcDbSymbolTableRecord
100
AcDbBlockTableRecord
  2
*D48
  0
BLOCK_RECORD
  5
234
100
AcDbSymbolTableRecord
100
AcDbBlockTableRecord
  2
*D49
  0
BLOCK_RECORD
  5
23F
100
AcDbSymbolTableRecord
100
AcDbBlockTableRecord
  2
*D50
  0
BLOCK_RECORD
  5
BE3
100
AcDbSymbolTableRecord
100
AcDbBlockTableRecord
  2
外形枠
1001
CONTENTBLOCKICON
1071
        0
1004
2800000020000000200000000100040000000000000200000000000000000000000000000000000000000000000080000080000000808000800000008000800080800000C0C0C000808080000000FF0000FF000000FFFF00FF000000FF00FF00FFFF0000FFFFFF00FFFFFFFFFFFFFFFFFFFFFFFFFFFFFFFF
1004
FFFFFFFFFFFFFFFFFFFFFFFFFFFFFFFFFFFFFFFFFFFFFFFFFFFFFFFFFFFFFFFFFFFFFFFFFFFFFFFFFFFFFFFFFFFFFFFFFFFFFFFFFFFFFFFFFFFFFFFFFFFFFFFFFFFFFFFFFFFFFFFFFFFFFFFFFFFFFFFFFFFFFFFFFFFFFFFFFFFFFFFFFFFFFFFFFFFFFFFFFFFFFFFFFFFFFFFFFFFFFFFFFFFFFFFFFFFFFFFF
1004
FFFFFFFFFFFFFFFFFFFFFFFFFFFFFFFFFFFFFFFFFFFFFFFFFFFFFFFFFFFFFFFFFFFFFFFFFFFFFFFFFFFFFFFFFFFFFFFFFFFFFFFFFFFFFFFFFFFFFFFFFFFFFFFFFFFFFFFFFFFFFFFFFFFFFFFFFFFFFFFFFFFFFFFFFFFFFFFFFFFFFFFFFFFFFFFFFFFFFFFFFFFFFFFFFFFFFFFFFFFFFFFFFFFFFFFFFFFFFFFF
1004
FFFFFFFFFFFFFFFFFFFFFFFFFFFFFFFFFFFFFFFFFFFFFFFFFFFFFFFFFFFFFFFFFFFFFFFFFFFFFFFFFFFFFFFFFFFFFFFFFFFFFFFFFFFFFFFFFFFFFFFFFFFFFFFFFFFFFFFFFFFFFFFFFFFFFFFFFFFFFFFFFFFFFFFFFFFFFFFFFFFFFFFFFFFFFFFFFFFFFFFFFFFFFFFFFFFFFFFFFFFFFFFFFFFFFFFFFFFFFFFF
1004
FFFFFFFFFFFFFFFFFFFFFFFFFFFFFFFFFFFFFFFFFFFFFFFFFFFFFFFFFFFFFFFFFFFFFFFFFFFFFFFFFFFFFFFFFFFFFFFFFFFFFFFFFFFFFFFFFFFFFFFFFFFFFFFFFFFFFFFFFFFFFFFFFFFFFFFFFFFFFFFFFFFFFFFFFFFFFFFFFFFFFFFFFFFFFFFFFFFFFFFFFFFFFFFFFFFFFFFFFFFFFFFFFFFFFFFFFFFFFFFF
1004
FFFFFFFFFFFFFFFFFFFFFFFFFFFFFFFF
  0
BLOCK_RECORD
  5
C11
100
AcDbSymbolTableRecord
100
AcDbBlockTableRecord
  2
外形枠２
1001
CONTENTBLOCKICON
1071
        0
1004
2800000020000000200000000100040000000000000200000000000000000000000000000000000000000000000080000080000000808000800000008000800080800000C0C0C000808080000000FF0000FF000000FFFF00FF000000FF00FF00FFFF0000FFFFFF00FFFFFFFFFFFFFFFFFFFFFFFFFFFFFFFF
1004
FFFFFFFFFFFFFFFFFFFFFFFFFFFFFFFFFFFFFFFFFFFFFFFFFFFFFFFFFFFFFFFFFFFFFFFFFFFFFFFFFFFFFFFFFFFFFFFFFFFFFFFFFFFFFFFFFFFFFFFFFFFFFFFFFFFFFFFFFFFFFFFFFFFFFFFFFFFFFFFFFFFFFFFFFFFFFFFFFFFFFFFFFFFFFFFFFFFFFFFFFFFFFFFFFFFFFFFFFFFFFFFFFFFFFFFFFFFFFFFF
1004
FFFFFFFFFFFFFFFFFFFFFFFFFFFFFFFFFFFFFFFFFFFFFFFFFFFFFFFFFFFFFFFFFFFFFFFFFFFFFFFFFFFFFFFFFFFFFFFFFFFFFFFFFFFFFFFFFFFFFFFFFFFFFFFFFFFFFFFFFFFFFFFFFFFFFFFFFFFFFFFFFFFFFFFFFFFFFFFFFFFFFFFFFFFFFFFFFFFFFFFFFFFFFFFFFFFFFFFFFFFFFFFFFFFFFFFFFFFFFFFF
1004
FFFFFFFFFFFFFFFFFFFFFFFFFFFFFFFFFFFFFFFFFFFFFFFFFFFFFFFFFFFFFFFFFFFFFFFFFFFFFFFFFFFFFFFFFFFFFFFFFFFFFFFFFFFFFFFFFFFFFFFFFFFFFFFFFFFFFFFFFFFFFFFFFFFFFFFFFFFFFFFFFFFFFFFFFFFFFFFFFFFFFFFFFFFFFFFFFFFFFFFFFFFFFFFFFFFFFFFFFFFFFFFFFFFFFFFFFFFFFFFF
1004
FFFFFFFFFFFFFFFFFFFFFFFFFFFFFFFFFFFFFFFFFFFFFFFFFFFFFFFFFFFFFFFFFFFFFFFFFFFFFFFFFFFFFFFFFFFFFFFFFFFFFFFFFFFFFFFFFFFFFFFFFFFFFFFFFFFFFFFFFFFFFFFFFFFFFFFFFFFFFFFFFFFFFFFFFFFFFFFFFFFFFFFFFFFFFFFFFFFFFFFFFFFFFFFFFFFFFFFFFFFFFFFFFFFFFFFFFFFFFFFF
1004
FFFFFFFFFFFFFFFFFFFFFFFFFFFFFFFF
  0
ENDTAB
  0
ENDSEC
  0
SECTION
  2
BLOCKS
  0
BLOCK
  5
19
100
AcDbEntity
  8
0
100
AcDbBlockBegin
  2
*MODEL_SPACE
 70
     0
 10
0.0
 20
0.0
 30
0.0
  3
*MODEL_SPACE
  1

  0
ENDBLK
  5
1A
100
AcDbEntity
  8
0
100
AcDbBlockEnd
  0
BLOCK
  5
16
100
AcDbEntity
 67
     1
  8
0
100
AcDbBlockBegin
  2
*PAPER_SPACE
 70
     0
 10
0.0
 20
0.0
 30
0.0
  3
*PAPER_SPACE
  1

  0
ENDBLK
  5
17
100
AcDbEntity
 67
     1
  8
0
100
AcDbBlockEnd
  0
BLOCK
  5
24
100
AcDbEntity
  8
0
100
AcDbBlockBegin
  2
*D0
 70
     1
 10
0.0
 20
0.0
 30
0.0
  3
*D0
  1

  0
LINE
  5
25
100
AcDbEntity
  8
0
  6
BYBLOCK
 62
     7
100
AcDbLine
 10
-65.0
 20
5.00002
 30
0.0
 11
-65.0
 21
60.557499
 31
0.0
  0
LINE
  5
26
100
AcDbEntity
  8
0
  6
BYBLOCK
 62
     7
100
AcDbLine
 10
65.0
 20
5.00002
 30
0.0
 11
65.0
 21
60.557499
 31
0.0
  0
LINE
  5
27
100
AcDbEntity
  8
0
  6
BYBLOCK
 62
     7
100
AcDbLine
 10
-65.0
 20
59.057499
 30
0.0
 11
65.0
 21
59.057499
 31
0.0
  0
LINE
  5
28
100
AcDbEntity
  8
0
  6
BYBLOCK
 62
     7
100
AcDbLine
 10
-65.0
 20
59.057499
 30
0.0
 11
-62.102222
 21
58.28104
 31
0.0
  0
LINE
  5
29
100
AcDbEntity
  8
0
  6
BYBLOCK
 62
     7
100
AcDbLine
 10
-65.0
 20
59.057499
 30
0.0
 11
-62.102222
 21
59.833958
 31
0.0
  0
LINE
  5
2A
100
AcDbEntity
  8
0
  6
BYBLOCK
 62
     7
100
AcDbLine
 10
65.0
 20
59.057499
 30
0.0
 11
62.102222
 21
59.833954
 31
0.0
  0
LINE
  5
2B
100
AcDbEntity
  8
0
  6
BYBLOCK
 62
     7
100
AcDbLine
 10
65.0
 20
59.057499
 30
0.0
 11
62.102222
 21
58.28104
 31
0.0
  0
TEXT
  5
2C
100
AcDbEntity
  8
0
 62
     7
100
AcDbText
 10
-4.125699
 20
60.264042
 30
0.0
 40
3.0
  1
130
 50
359.899994
 41
0.936
100
AcDbText
  0
ENDBLK
  5
2D
100
AcDbEntity
  8
0
100
AcDbBlockEnd
  0
BLOCK
  5
2F
100
AcDbEntity
  8
0
100
AcDbBlockBegin
  2
*D1
 70
     1
 10
0.0
 20
0.0
 30
0.0
  3
*D1
  1

  0
LINE
  5
30
100
AcDbEntity
  8
0
  6
BYBLOCK
 62
     7
100
AcDbLine
 10
0.000015
 20
35.0
 30
0.0
 11
93.593697
 21
35.0
 31
0.0
  0
LINE
  5
31
100
AcDbEntity
  8
0
  6
BYBLOCK
 62
     7
100
AcDbLine
 10
0.000015
 20
-25.0
 30
0.0
 11
93.593697
 21
-25.0
 31
0.0
  0
LINE
  5
32
100
AcDbEntity
  8
0
  6
BYBLOCK
 62
     7
100
AcDbLine
 10
92.093697
 20
35.0
 30
0.0
 11
92.093697
 21
-25.0
 31
0.0
  0
LINE
  5
33
100
AcDbEntity
  8
0
  6
BYBLOCK
 62
     7
100
AcDbLine
 10
92.093697
 20
35.0
 30
0.0
 11
91.317238
 21
32.102222
 31
0.0
  0
LINE
  5
34
100
AcDbEntity
  8
0
  6
BYBLOCK
 62
     7
100
AcDbLine
 10
92.093697
 20
35.0
 30
0.0
 11
92.870155
 21
32.102222
 31
0.0
  0
LINE
  5
35
100
AcDbEntity
  8
0
  6
BYBLOCK
 62
     7
100
AcDbLine
 10
92.093697
 20
-25.0
 30
0.0
 11
92.870155
 21
-22.102222
 31
0.0
  0
LINE
  5
36
100
AcDbEntity
  8
0
  6
BYBLOCK
 62
     7
100
AcDbLine
 10
92.093697
 20
-25.0
 30
0.0
 11
91.317238
 21
-22.102222
 31
0.0
  0
TEXT
  5
37
100
AcDbEntity
  8
0
 62
     7
100
AcDbText
 10
90.889336
 20
2.502098
 30
0.0
 40
3.0
  1
60
 50
89.900002
 41
0.96
100
AcDbText
  0
ENDBLK
  5
38
100
AcDbEntity
  8
0
100
AcDbBlockEnd
  0
BLOCK
  5
3A
100
AcDbEntity
  8
0
100
AcDbBlockBegin
  2
*D2
 70
     1
 10
0.0
 20
0.0
 30
0.0
  3
*D2
  1

  0
LINE
  5
3B
100
AcDbEntity
  8
0
  6
BYBLOCK
 62
     7
100
AcDbLine
 10
-77.099998
 20
8.99136
 30
0.0
 11
-77.099998
 21
66.806099
 31
0.0
  0
LINE
  5
3C
100
AcDbEntity
  8
0
  6
BYBLOCK
 62
     7
100
AcDbLine
 10
77.099998
 20
8.99136
 30
0.0
 11
77.099998
 21
66.806099
 31
0.0
  0
LINE
  5
3D
100
AcDbEntity
  8
0
  6
BYBLOCK
 62
     7
100
AcDbLine
 10
-77.099998
 20
65.306099
 30
0.0
 11
77.099998
 21
65.306099
 31
0.0
  0
LINE
  5
3E
100
AcDbEntity
  8
0
  6
BYBLOCK
 62
     7
100
AcDbLine
 10
-77.099998
 20
65.306099
 30
0.0
 11
-74.202225
 21
64.52964
 31
0.0
  0
LINE
  5
3F
100
AcDbEntity
  8
0
  6
BYBLOCK
 62
     7
100
AcDbLine
 10
-77.099998
 20
65.306099
 30
0.0
 11
-74.202225
 21
66.082558
 31
0.0
  0
LINE
  5
40
100
AcDbEntity
  8
0
  6
BYBLOCK
 62
     7
100
AcDbLine
 10
77.099998
 20
65.306099
 30
0.0
 11
74.202217
 21
66.082558
 31
0.0
  0
LINE
  5
41
100
AcDbEntity
  8
0
  6
BYBLOCK
 62
     7
100
AcDbLine
 10
77.099998
 20
65.306099
 30
0.0
 11
74.202225
 21
64.52964
 31
0.0
  0
TEXT
  5
42
100
AcDbEntity
  8
0
 62
     7
100
AcDbText
 10
-8.662834
 20
66.52137
 30
0.0
 40
3.0
  1
(154.2)
 50
359.899994
 41
0.848571
100
AcDbText
  0
ENDBLK
  5
43
100
AcDbEntity
  8
0
100
AcDbBlockEnd
  0
BLOCK
  5
45
100
AcDbEntity
  8
0
100
AcDbBlockBegin
  2
*D3
 70
     1
 10
0.0
 20
0.0
 30
0.0
  3
*D3
  1

  0
LINE
  5
46
100
AcDbEntity
  8
0
  6
BYBLOCK
 62
     7
100
AcDbLine
 10
59.767502
 20
135.565002
 30
0.0
 11
85.616501
 21
135.565002
 31
0.0
  0
LINE
  5
47
100
AcDbEntity
  8
0
  6
BYBLOCK
 62
     7
100
AcDbLine
 10
31.0
 20
85.564796
 30
0.0
 11
85.616501
 21
85.564796
 31
0.0
  0
LINE
  5
48
100
AcDbEntity
  8
0
  6
BYBLOCK
 62
     7
100
AcDbLine
 10
84.116501
 20
135.565002
 30
0.0
 11
84.116501
 21
85.564796
 31
0.0
  0
LINE
  5
49
100
AcDbEntity
  8
0
  6
BYBLOCK
 62
     7
100
AcDbLine
 10
84.116501
 20
135.565002
 30
0.0
 11
83.340042
 21
132.667221
 31
0.0
  0
LINE
  5
4A
100
AcDbEntity
  8
0
  6
BYBLOCK
 62
     7
100
AcDbLine
 10
84.116501
 20
135.565002
 30
0.0
 11
84.89296
 21
132.667221
 31
0.0
  0
LINE
  5
4B
100
AcDbEntity
  8
0
  6
BYBLOCK
 62
     7
100
AcDbLine
 10
84.116501
 20
85.564796
 30
0.0
 11
84.89296
 21
88.46257
 31
0.0
  0
LINE
  5
4C
100
AcDbEntity
  8
0
  6
BYBLOCK
 62
     7
100
AcDbLine
 10
84.116501
 20
85.564796
 30
0.0
 11
83.340042
 21
88.46257
 31
0.0
  0
TEXT
  5
4D
100
AcDbEntity
  8
0
 62
     7
100
AcDbText
 10
82.91214
 20
108.067101
 30
0.0
 40
3.0
  1
50
 50
89.900002
 41
0.96
100
AcDbText
  0
ENDBLK
  5
4E
100
AcDbEntity
  8
0
100
AcDbBlockEnd
  0
BLOCK
  5
50
100
AcDbEntity
  8
0
100
AcDbBlockBegin
  2
*D4
 70
     1
 10
0.0
 20
0.0
 30
0.0
  3
*D4
  1

  0
LINE
  5
51
100
AcDbEntity
  8
0
  6
BYBLOCK
 62
     7
100
AcDbLine
 10
38.609402
 20
141.664993
 30
0.0
 11
85.616501
 21
141.664993
 31
0.0
  0
LINE
  5
52
100
AcDbEntity
  8
0
  6
BYBLOCK
 62
     7
100
AcDbLine
 10
59.767502
 20
135.565002
 30
0.0
 11
85.616501
 21
135.565002
 31
0.0
  0
LINE
  5
53
100
AcDbEntity
  8
0
  6
BYBLOCK
 62
     7
100
AcDbLine
 10
84.116501
 20
147.664993
 30
0.0
 11
84.116501
 21
129.565002
 31
0.0
  0
LINE
  5
54
100
AcDbEntity
  8
0
  6
BYBLOCK
 62
     7
100
AcDbLine
 10
84.116501
 20
141.664993
 30
0.0
 11
84.116501
 21
150.869995
 31
0.0
  0
LINE
  5
55
100
AcDbEntity
  8
0
  6
BYBLOCK
 62
     7
100
AcDbLine
 10
84.116501
 20
141.664993
 30
0.0
 11
84.89296
 21
144.562775
 31
0.0
  0
LINE
  5
56
100
AcDbEntity
  8
0
  6
BYBLOCK
 62
     7
100
AcDbLine
 10
84.116501
 20
141.664993
 30
0.0
 11
83.340042
 21
144.562775
 31
0.0
  0
LINE
  5
57
100
AcDbEntity
  8
0
  6
BYBLOCK
 62
     7
100
AcDbLine
 10
84.116501
 20
135.565002
 30
0.0
 11
83.340042
 21
132.667221
 31
0.0
  0
LINE
  5
58
100
AcDbEntity
  8
0
  6
BYBLOCK
 62
     7
100
AcDbLine
 10
84.116501
 20
135.565002
 30
0.0
 11
84.89296
 21
132.667221
 31
0.0
  0
TEXT
  5
59
100
AcDbEntity
  8
0
 62
     7
100
AcDbText
 10
82.909958
 20
143.722092
 30
0.0
 40
3.0
  1
6.1
 50
89.900002
 41
1.17
100
AcDbText
  0
ENDBLK
  5
5A
100
AcDbEntity
  8
0
100
AcDbBlockEnd
  0
BLOCK
  5
5C
100
AcDbEntity
  8
0
100
AcDbBlockBegin
  2
*D5
 70
     1
 10
0.0
 20
0.0
 30
0.0
  3
*D5
  1

  0
LINE
  5
5D
100
AcDbEntity
  8
0
  6
BYBLOCK
 62
     7
100
AcDbLine
 10
-66.5
 20
125.525002
 30
0.0
 11
-92.188103
 21
125.525002
 31
0.0
  0
LINE
  5
5E
100
AcDbEntity
  8
0
  6
BYBLOCK
 62
     7
100
AcDbLine
 10
-31.0
 20
85.564796
 30
0.0
 11
-92.188103
 21
85.564796
 31
0.0
  0
LINE
  5
5F
100
AcDbEntity
  8
0
  6
BYBLOCK
 62
     7
100
AcDbLine
 10
-90.688103
 20
125.525002
 30
0.0
 11
-90.688103
 21
85.564796
 31
0.0
  0
LINE
  5
60
100
AcDbEntity
  8
0
  6
BYBLOCK
 62
     7
100
AcDbLine
 10
-90.688103
 20
125.525002
 30
0.0
 11
-91.464561
 21
122.627228
 31
0.0
  0
LINE
  5
61
100
AcDbEntity
  8
0
  6
BYBLOCK
 62
     7
100
AcDbLine
 10
-90.688103
 20
125.525002
 30
0.0
 11
-89.911644
 21
122.627228
 31
0.0
  0
LINE
  5
62
100
AcDbEntity
  8
0
  6
BYBLOCK
 62
     7
100
AcDbLine
 10
-90.688103
 20
85.564796
 30
0.0
 11
-89.911644
 21
88.46257
 31
0.0
  0
LINE
  5
63
100
AcDbEntity
  8
0
  6
BYBLOCK
 62
     7
100
AcDbLine
 10
-90.688103
 20
85.564796
 30
0.0
 11
-91.464561
 21
88.46257
 31
0.0
  0
TEXT
  5
64
100
AcDbEntity
  8
0
 62
     7
100
AcDbText
 10
-91.896828
 20
98.799103
 30
0.0
 40
3.0
  1
(40)
 50
89.900002
 41
0.864
100
AcDbText
  0
ENDBLK
  5
65
100
AcDbEntity
  8
0
100
AcDbBlockEnd
  0
BLOCK
  5
67
100
AcDbEntity
  8
0
100
AcDbBlockBegin
  2
*D6
 70
     1
 10
0.0
 20
0.0
 30
0.0
  3
*D6
  1

  0
LINE
  5
68
100
AcDbEntity
  8
0
  6
BYBLOCK
 62
     7
100
AcDbLine
 10
-69.800003
 20
-30.444201
 30
0.0
 11
-69.800003
 21
-48.435501
 31
0.0
  0
LINE
  5
69
100
AcDbEntity
  8
0
  6
BYBLOCK
 62
     7
100
AcDbLine
 10
69.800003
 20
-30.444201
 30
0.0
 11
69.800003
 21
-48.435501
 31
0.0
  0
LINE
  5
6A
100
AcDbEntity
  8
0
  6
BYBLOCK
 62
     7
100
AcDbLine
 10
-69.800003
 20
-46.935501
 30
0.0
 11
69.800003
 21
-46.935501
 31
0.0
  0
LINE
  5
6B
100
AcDbEntity
  8
0
  6
BYBLOCK
 62
     7
100
AcDbLine
 10
-69.800003
 20
-46.935501
 30
0.0
 11
-66.902229
 21
-47.71196
 31
0.0
  0
LINE
  5
6C
100
AcDbEntity
  8
0
  6
BYBLOCK
 62
     7
100
AcDbLine
 10
-69.800003
 20
-46.935501
 30
0.0
 11
-66.902229
 21
-46.159042
 31
0.0
  0
LINE
  5
6D
100
AcDbEntity
  8
0
  6
BYBLOCK
 62
     7
100
AcDbLine
 10
69.800003
 20
-46.935501
 30
0.0
 11
66.902222
 21
-46.159046
 31
0.0
  0
LINE
  5
6E
100
AcDbEntity
  8
0
  6
BYBLOCK
 62
     7
100
AcDbLine
 10
69.800003
 20
-46.935501
 30
0.0
 11
66.902229
 21
-47.71196
 31
0.0
  0
TEXT
  5
6F
100
AcDbEntity
  8
0
 62
     7
100
AcDbText
 10
-5.588074
 20
-45.724594
 30
0.0
 40
3.0
  1
139.6
 50
359.899994
 41
0.92
100
AcDbText
  0
ENDBLK
  5
70
100
AcDbEntity
  8
0
100
AcDbBlockEnd
  0
BLOCK
  5
72
100
AcDbEntity
  8
0
100
AcDbBlockBegin
  2
*D7
 70
     1
 10
0.0
 20
0.0
 30
0.0
  3
*D7
  1

  0
LINE
  5
73
100
AcDbEntity
  8
0
  6
BYBLOCK
 62
     7
100
AcDbLine
 10
173.925995
 20
103.095001
 30
0.0
 11
246.593002
 21
103.095001
 31
0.0
  0
LINE
  5
74
100
AcDbEntity
  8
0
  6
BYBLOCK
 62
     7
100
AcDbLine
 10
233.725998
 20
110.095001
 30
0.0
 11
246.593002
 21
110.095001
 31
0.0
  0
LINE
  5
75
100
AcDbEntity
  8
0
  6
BYBLOCK
 62
     7
100
AcDbLine
 10
245.093002
 20
97.095001
 30
0.0
 11
245.093002
 21
116.095001
 31
0.0
  0
LINE
  5
76
100
AcDbEntity
  8
0
  6
BYBLOCK
 62
     7
100
AcDbLine
 10
245.093002
 20
103.095001
 30
0.0
 11
244.316544
 21
100.197227
 31
0.0
  0
LINE
  5
77
100
AcDbEntity
  8
0
  6
BYBLOCK
 62
     7
100
AcDbLine
 10
245.093002
 20
103.095001
 30
0.0
 11
245.869461
 21
100.197227
 31
0.0
  0
LINE
  5
78
100
AcDbEntity
  8
0
  6
BYBLOCK
 62
     7
100
AcDbLine
 10
245.093002
 20
110.095001
 30
0.0
 11
245.869461
 21
112.992775
 31
0.0
  0
LINE
  5
79
100
AcDbEntity
  8
0
  6
BYBLOCK
 62
     7
100
AcDbLine
 10
245.093002
 20
110.095001
 30
0.0
 11
244.316544
 21
112.992775
 31
0.0
  0
TEXT
  5
7A
100
AcDbEntity
  8
0
 62
     7
100
AcDbText
 10
243.895187
 20
105.175903
 30
0.0
 40
3.0
  1
7
 50
90.099998
 41
0.82
100
AcDbText
  0
ENDBLK
  5
7B
100
AcDbEntity
  8
0
100
AcDbBlockEnd
  0
BLOCK
  5
7D
100
AcDbEntity
  8
0
100
AcDbBlockBegin
  2
*D8
 70
     1
 10
0.0
 20
0.0
 30
0.0
  3
*D8
  1

  0
LINE
  5
7E
100
AcDbEntity
  8
0
  6
BYBLOCK
 62
     7
100
AcDbLine
 10
168.927002
 20
103.095001
 30
0.0
 11
191.097
 21
81.000099
 31
0.0
  0
LINE
  5
7F
100
AcDbEntity
  8
0
  6
BYBLOCK
 62
     7
100
AcDbLine
 10
191.097
 20
81.000099
 30
0.0
 11
189.59259
 21
83.595627
 31
0.0
  0
LINE
  5
80
100
AcDbEntity
  8
0
  6
BYBLOCK
 62
     7
100
AcDbLine
 10
191.097
 20
81.000099
 30
0.0
 11
188.496384
 21
82.495689
 31
0.0
  0
TEXT
  5
81
100
AcDbEntity
  8
0
 62
     7
100
AcDbText
 10
177.099915
 20
96.642502
 30
0.0
 40
3.0
  1
R31.3
 50
315.100006
 41
0.92
100
AcDbText
  0
ENDBLK
  5
83
100
AcDbEntity
  8
3
100
AcDbBlockEnd
  0
BLOCK
  5
85
100
AcDbEntity
  8
0
100
AcDbBlockBegin
  2
*D9
 70
     1
 10
0.0
 20
0.0
 30
0.0
  3
*D9
  1

  0
LINE
  5
86
100
AcDbEntity
  8
0
  6
BYBLOCK
 62
     7
100
AcDbLine
 10
197.899994
 20
83.818703
 30
0.0
 11
189.873001
 21
71.753197
 31
0.0
  0
LINE
  5
87
100
AcDbEntity
  8
0
  6
BYBLOCK
 62
     7
100
AcDbLine
 10
192.072006
 20
87.695999
 30
0.0
 11
184.044998
 21
75.630501
 31
0.0
  0
LINE
  5
88
100
AcDbEntity
  8
0
  6
BYBLOCK
 62
     7
100
AcDbLine
 10
195.699463
 20
69.678558
 30
0.0
 11
179.880539
 21
80.202744
 31
0.0
  0
LINE
  5
89
100
AcDbEntity
  8
0
  6
BYBLOCK
 62
     7
100
AcDbLine
 10
190.703995
 20
73.001999
 30
0.0
 11
192.686539
 21
70.750435
 31
0.0
  0
LINE
  5
8A
100
AcDbEntity
  8
0
  6
BYBLOCK
 62
     7
100
AcDbLine
 10
190.703995
 20
73.001999
 30
0.0
 11
193.546707
 21
72.043358
 31
0.0
  0
LINE
  5
8B
100
AcDbEntity
  8
0
  6
BYBLOCK
 62
     7
100
AcDbLine
 10
184.876007
 20
76.879303
 30
0.0
 11
182.893463
 21
79.130867
 31
0.0
  0
LINE
  5
8C
100
AcDbEntity
  8
0
  6
BYBLOCK
 62
     7
100
AcDbLine
 10
184.876007
 20
76.879303
 30
0.0
 11
182.033295
 21
77.837944
 31
0.0
  0
TEXT
  5
8D
100
AcDbEntity
  8
0
 62
     7
100
AcDbText
 10
187.412903
 20
76.631943
 30
0.0
 40
3.0
  1
7
 50
326.399994
 41
0.82
100
AcDbText
  0
ENDBLK
  5
8E
100
AcDbEntity
  8
0
100
AcDbBlockEnd
  0
BLOCK
  5
90
100
AcDbEntity
  8
0
100
AcDbBlockBegin
  2
*D10
 70
     1
 10
0.0
 20
0.0
 30
0.0
  3
*D10
  1

  0
ARC
  5
91
100
AcDbEntity
  8
0
  6
BYBLOCK
 62
     7
100
AcDbCircle
 10
168.925995
 20
103.095001
 30
0.0
 40
41.779202
100
AcDbArc
 50
312.39801
 51
326.36499
  0
ARC
  5
92
100
AcDbEntity
  8
0
  6
BYBLOCK
 62
     7
100
AcDbCircle
 10
168.925995
 20
103.095001
 30
0.0
 40
41.779202
100
AcDbArc
 50
326.36499
 51
336.36499
  0
LINE
  5
93
100
AcDbEntity
  8
0
  6
BYBLOCK
 62
     7
100
AcDbLine
 10
200.425995
 20
82.138199
 30
0.0
 11
204.960007
 21
79.121902
 31
0.0
  0
LINE
  5
94
100
AcDbEntity
  8
0
  6
BYBLOCK
 62
     7
100
AcDbLine
 10
203.414993
 20
88.001701
 30
0.0
 11
208.574997
 21
85.743202
 31
0.0
  0
LINE
  5
95
100
AcDbEntity
  8
0
  6
BYBLOCK
 62
     7
100
AcDbLine
 10
203.710648
 20
79.953484
 30
0.0
 11
205.962189
 21
81.936043
 31
0.0
  0
LINE
  5
96
100
AcDbEntity
  8
0
  6
BYBLOCK
 62
     7
100
AcDbLine
 10
203.710648
 20
79.953484
 30
0.0
 11
204.669266
 21
82.796204
 31
0.0
  0
LINE
  5
97
100
AcDbEntity
  8
0
  6
BYBLOCK
 62
     7
100
AcDbLine
 10
207.200668
 20
86.345345
 30
0.0
 11
205.327591
 21
84.00193
 31
0.0
  0
LINE
  5
98
100
AcDbEntity
  8
0
  6
BYBLOCK
 62
     7
100
AcDbLine
 10
207.200668
 20
86.345345
 30
0.0
 11
206.750244
 21
83.379349
 31
0.0
  0
TEXT
  5
99
100
AcDbEntity
  8
0
 62
     7
100
AcDbText
 10
195.219391
 20
71.789932
 30
0.0
 40
3.0
  1
10°
 50
47.0
 41
1.44
100
AcDbText
  0
ENDBLK
  5
9A
100
AcDbEntity
  8
3
100
AcDbBlockEnd
  0
BLOCK
  5
9C
100
AcDbEntity
  8
0
100
AcDbBlockBegin
  2
*D11
 70
     1
 10
0.0
 20
0.0
 30
0.0
  3
*D11
  1

  0
LINE
  5
9D
100
AcDbEntity
  8
0
  6
BYBLOCK
 62
     7
100
AcDbLine
 10
168.925995
 20
103.095001
 30
0.0
 11
131.854996
 21
69.542801
 31
0.0
  0
LINE
  5
9E
100
AcDbEntity
  8
0
  6
BYBLOCK
 62
     7
100
AcDbLine
 10
131.854996
 20
69.542801
 30
0.0
 11
134.52449
 21
70.911652
 31
0.0
  0
LINE
  5
9F
100
AcDbEntity
  8
0
  6
BYBLOCK
 62
     7
100
AcDbLine
 10
131.854996
 20
69.542801
 30
0.0
 11
133.482422
 21
72.063011
 31
0.0
  0
TEXT
  5
A0
100
AcDbEntity
  8
0
 62
     7
100
AcDbText
 10
132.683929
 20
71.906509
 30
0.0
 40
3.0
  1
R50
 50
42.200001
 41
0.78
100
AcDbText
  0
ENDBLK
  5
A1
100
AcDbEntity
  8
3
100
AcDbBlockEnd
  0
BLOCK
  5
A3
100
AcDbEntity
  8
0
100
AcDbBlockBegin
  2
*D12
 70
     1
 10
0.0
 20
0.0
 30
0.0
  3
*D12
  1

  0
ARC
  5
A4
100
AcDbEntity
  8
0
  6
BYBLOCK
 62
     7
100
AcDbCircle
 10
168.925995
 20
103.095001
 30
0.0
 40
39.645302
100
AcDbArc
 50
174.219162
 51
194.780838
  0
LINE
  5
A5
100
AcDbEntity
  8
0
  6
BYBLOCK
 62
     7
100
AcDbLine
 10
163.925995
 20
103.094002
 30
0.0
 11
127.780998
 21
103.094002
 31
0.0
  0
LINE
  5
A6
100
AcDbEntity
  8
0
  6
BYBLOCK
 62
     7
100
AcDbLine
 10
113.625
 20
94.335602
 30
0.0
 11
124.487
 21
96.056
 31
0.0
  0
LINE
  5
A7
100
AcDbEntity
  8
0
  6
BYBLOCK
 62
     7
100
AcDbLine
 10
129.768799
 20
96.893112
 30
0.0
 11
129.757324
 21
93.893135
 31
0.0
  0
LINE
  5
A8
100
AcDbEntity
  8
0
  6
BYBLOCK
 62
     7
100
AcDbLine
 10
129.768799
 20
96.893112
 30
0.0
 11
131.25885
 21
94.289314
 31
0.0
  0
TEXT
  5
A9
100
AcDbEntity
  8
0
 62
     7
100
AcDbText
 10
128.725357
 20
96.364334
 30
0.0
 40
2.5
  1
9°
 50
95.199997
 41
1.56
100
AcDbText
  0
ENDBLK
  5
AA
100
AcDbEntity
  8
3
100
AcDbBlockEnd
  0
BLOCK
  5
AC
100
AcDbEntity
  8
0
100
AcDbBlockBegin
  2
*D13
 70
     1
 10
0.0
 20
0.0
 30
0.0
  3
*D13
  1

  0
ARC
  5
AD
100
AcDbEntity
  8
0
  6
BYBLOCK
 62
     7
100
AcDbCircle
 10
168.925995
 20
103.095001
 30
0.0
 40
39.645302
100
AcDbArc
 50
189.0
 51
199.0
  0
LINE
  5
AE
100
AcDbEntity
  8
0
  6
BYBLOCK
 62
     7
100
AcDbLine
 10
124.738998
 20
96.095901
 30
0.0
 11
131.251007
 21
97.127197
 31
0.0
  0
LINE
  5
AF
100
AcDbEntity
  8
0
  6
BYBLOCK
 62
     7
100
AcDbLine
 10
126.852997
 20
88.607803
 30
0.0
 11
132.858994
 21
90.675797
 31
0.0
  0
LINE
  5
B0
100
AcDbEntity
  8
0
  6
BYBLOCK
 62
     7
100
AcDbLine
 10
129.280701
 20
103.095001
 30
0.0
 11
130.345078
 21
105.899834
 31
0.0
  0
LINE
  5
B1
100
AcDbEntity
  8
0
  6
BYBLOCK
 62
     7
100
AcDbLine
 10
129.280701
 20
103.095001
 30
0.0
 11
128.800064
 21
106.056252
 31
0.0
  0
TEXT
  5
B2
100
AcDbEntity
  8
0
 62
     7
100
AcDbText
 10
130.496719
 20
89.218681
 30
0.0
 40
2.5
  1
10°
 50
104.0
 41
1.44
100
AcDbText
  0
ENDBLK
  5
B3
100
AcDbEntity
  8
3
100
AcDbBlockEnd
  0
BLOCK
  5
B5
100
AcDbEntity
  8
0
100
AcDbBlockBegin
  2
*D14
 70
     1
 10
0.0
 20
0.0
 30
0.0
  3
*D14
  1

  0
LINE
  5
B6
100
AcDbEntity
  8
0
  6
BYBLOCK
 62
     7
100
AcDbLine
 10
116.579002
 20
94.803596
 30
0.0
 11
114.888
 21
105.482002
 31
0.0
  0
LINE
  5
B7
100
AcDbEntity
  8
0
  6
BYBLOCK
 62
     7
100
AcDbLine
 10
122.504997
 20
95.742203
 30
0.0
 11
120.814003
 21
106.420998
 31
0.0
  0
LINE
  5
B8
100
AcDbEntity
  8
0
  6
BYBLOCK
 62
     7
100
AcDbLine
 10
115.122002
 20
104.000999
 30
0.0
 11
121.047997
 21
104.939003
 31
0.0
  0
LINE
  5
B9
100
AcDbEntity
  8
0
  6
BYBLOCK
 62
     7
100
AcDbLine
 10
115.122002
 20
104.000999
 30
0.0
 11
118.105537
 21
103.687126
 31
0.0
  0
LINE
  5
BA
100
AcDbEntity
  8
0
  6
BYBLOCK
 62
     7
100
AcDbLine
 10
115.122002
 20
104.000999
 30
0.0
 11
117.862755
 21
105.220947
 31
0.0
  0
LINE
  5
BB
100
AcDbEntity
  8
0
  6
BYBLOCK
 62
     7
100
AcDbLine
 10
121.047997
 20
104.939003
 30
0.0
 11
118.064461
 21
105.252876
 31
0.0
  0
LINE
  5
BC
100
AcDbEntity
  8
0
  6
BYBLOCK
 62
     7
100
AcDbLine
 10
121.047997
 20
104.939003
 30
0.0
 11
118.307243
 21
103.719055
 31
0.0
  0
TEXT
  5
BD
100
AcDbEntity
  8
0
 62
     7
100
AcDbText
 10
116.960396
 20
105.509163
 30
0.0
 40
3.0
  1
6
 50
8.9
 41
0.82
100
AcDbText
  0
ENDBLK
  5
BE
100
AcDbEntity
  8
0
100
AcDbBlockEnd
  0
BLOCK
  5
C0
100
AcDbEntity
  8
0
100
AcDbBlockBegin
  2
*D15
 70
     1
 10
0.0
 20
0.0
 30
0.0
  3
*D15
  1

  0
LINE
  5
C1
100
AcDbEntity
  8
0
  6
BYBLOCK
 62
     7
100
AcDbLine
 10
120.426003
 20
158.095001
 30
0.0
 11
120.426003
 21
147.360992
 31
0.0
  0
LINE
  5
C2
100
AcDbEntity
  8
0
  6
BYBLOCK
 62
     7
100
AcDbLine
 10
217.425995
 20
158.095001
 30
0.0
 11
217.425995
 21
147.360992
 31
0.0
  0
LINE
  5
C3
100
AcDbEntity
  8
0
  6
BYBLOCK
 62
     7
100
AcDbLine
 10
120.426003
 20
148.860992
 30
0.0
 11
217.425995
 21
148.860992
 31
0.0
  0
LINE
  5
C4
100
AcDbEntity
  8
0
  6
BYBLOCK
 62
     7
100
AcDbLine
 10
120.426003
 20
148.860992
 30
0.0
 11
123.323776
 21
148.084534
 31
0.0
  0
LINE
  5
C5
100
AcDbEntity
  8
0
  6
BYBLOCK
 62
     7
100
AcDbLine
 10
120.426003
 20
148.860992
 30
0.0
 11
123.323776
 21
149.637451
 31
0.0
  0
LINE
  5
C6
100
AcDbEntity
  8
0
  6
BYBLOCK
 62
     7
100
AcDbLine
 10
217.425995
 20
148.860992
 30
0.0
 11
214.528214
 21
149.637451
 31
0.0
  0
LINE
  5
C7
100
AcDbEntity
  8
0
  6
BYBLOCK
 62
     7
100
AcDbLine
 10
217.425995
 20
148.860992
 30
0.0
 11
214.528214
 21
148.084534
 31
0.0
  0
TEXT
  5
C8
100
AcDbEntity
  8
0
 62
     7
100
AcDbText
 10
165.984909
 20
150.056625
 30
0.0
 40
3.0
  1
97
 50
0.1
 41
0.96
100
AcDbText
  0
ENDBLK
  5
C9
100
AcDbEntity
  8
0
100
AcDbBlockEnd
  0
BLOCK
  5
CB
100
AcDbEntity
  8
0
100
AcDbBlockBegin
  2
*D16
 70
     1
 10
0.0
 20
0.0
 30
0.0
  3
*D16
  1

  0
LINE
  5
CC
100
AcDbEntity
  8
0
  6
BYBLOCK
 62
     7
100
AcDbLine
 10
173.925995
 20
175.095001
 30
0.0
 11
235.869995
 21
175.095001
 31
0.0
  0
LINE
  5
CD
100
AcDbEntity
  8
0
  6
BYBLOCK
 62
     7
100
AcDbLine
 10
222.425995
 20
163.095001
 30
0.0
 11
235.869995
 21
163.095001
 31
0.0
  0
LINE
  5
CE
100
AcDbEntity
  8
0
  6
BYBLOCK
 62
     7
100
AcDbLine
 10
234.369995
 20
175.095001
 30
0.0
 11
234.369995
 21
163.095001
 31
0.0
  0
LINE
  5
CF
100
AcDbEntity
  8
0
  6
BYBLOCK
 62
     7
100
AcDbLine
 10
234.369995
 20
175.095001
 30
0.0
 11
233.593536
 21
172.19722
 31
0.0
  0
LINE
  5
D0
100
AcDbEntity
  8
0
  6
BYBLOCK
 62
     7
100
AcDbLine
 10
234.369995
 20
175.095001
 30
0.0
 11
235.146454
 21
172.19722
 31
0.0
  0
LINE
  5
D1
100
AcDbEntity
  8
0
  6
BYBLOCK
 62
     7
100
AcDbLine
 10
234.369995
 20
163.095001
 30
0.0
 11
235.146454
 21
165.992783
 31
0.0
  0
LINE
  5
D2
100
AcDbEntity
  8
0
  6
BYBLOCK
 62
     7
100
AcDbLine
 10
234.369995
 20
163.095001
 30
0.0
 11
233.593536
 21
165.992783
 31
0.0
  0
TEXT
  5
D3
100
AcDbEntity
  8
0
 62
     7
100
AcDbText
 10
233.174362
 20
166.592911
 30
0.0
 40
3.0
  1
12
 50
90.099998
 41
1.44
100
AcDbText
  0
ENDBLK
  5
D4
100
AcDbEntity
  8
0
100
AcDbBlockEnd
  0
BLOCK
  5
D6
100
AcDbEntity
  8
0
100
AcDbBlockBegin
  2
*D17
 70
     1
 10
0.0
 20
0.0
 30
0.0
  3
*D17
  1

  0
LINE
  5
D7
100
AcDbEntity
  8
0
  6
BYBLOCK
 62
     7
100
AcDbLine
 10
238.725998
 20
80.094498
 30
0.0
 11
255.259995
 21
80.094498
 31
0.0
  0
LINE
  5
D8
100
AcDbEntity
  8
0
  6
BYBLOCK
 62
     7
100
AcDbLine
 10
238.725998
 20
110.095001
 30
0.0
 11
255.259995
 21
110.095001
 31
0.0
  0
LINE
  5
D9
100
AcDbEntity
  8
0
  6
BYBLOCK
 62
     7
100
AcDbLine
 10
253.759995
 20
80.094498
 30
0.0
 11
253.759995
 21
110.095001
 31
0.0
  0
LINE
  5
DA
100
AcDbEntity
  8
0
  6
BYBLOCK
 62
     7
100
AcDbLine
 10
253.759995
 20
80.094498
 30
0.0
 11
254.536453
 21
82.992271
 31
0.0
  0
LINE
  5
DB
100
AcDbEntity
  8
0
  6
BYBLOCK
 62
     7
100
AcDbLine
 10
253.759995
 20
80.094498
 30
0.0
 11
252.983536
 21
82.992271
 31
0.0
  0
LINE
  5
DC
100
AcDbEntity
  8
0
  6
BYBLOCK
 62
     7
100
AcDbLine
 10
253.759995
 20
110.095001
 30
0.0
 11
252.983536
 21
107.197227
 31
0.0
  0
LINE
  5
DD
100
AcDbEntity
  8
0
  6
BYBLOCK
 62
     7
100
AcDbLine
 10
253.759995
 20
110.095001
 30
0.0
 11
254.536453
 21
107.197227
 31
0.0
  0
TEXT
  5
DE
100
AcDbEntity
  8
0
 62
     7
100
AcDbText
 10
252.564362
 20
92.5924
 30
0.0
 40
3.0
  1
30
 50
90.099998
 41
0.96
100
AcDbText
  0
ENDBLK
  5
DF
100
AcDbEntity
  8
0
100
AcDbBlockEnd
  0
BLOCK
  5
E1
100
AcDbEntity
  8
0
100
AcDbBlockBegin
  2
*D18
 70
     1
 10
0.0
 20
0.0
 30
0.0
  3
*D18
  1

  0
LINE
  5
E2
100
AcDbEntity
  8
0
  6
BYBLOCK
 62
     7
100
AcDbLine
 10
-69.619102
 20
5.00002
 30
0.0
 11
-87.676804
 21
5.00002
 31
0.0
  0
LINE
  5
E3
100
AcDbEntity
  8
0
  6
BYBLOCK
 62
     7
100
AcDbLine
 10
-64.800003
 20
-35.444199
 30
0.0
 11
-87.676804
 21
-35.444199
 31
0.0
  0
LINE
  5
E4
100
AcDbEntity
  8
0
  6
BYBLOCK
 62
     7
100
AcDbLine
 10
-86.176804
 20
5.00002
 30
0.0
 11
-86.176804
 21
-35.444199
 31
0.0
  0
LINE
  5
E5
100
AcDbEntity
  8
0
  6
BYBLOCK
 62
     7
100
AcDbLine
 10
-86.176804
 20
5.00002
 30
0.0
 11
-86.953262
 21
2.102242
 31
0.0
  0
LINE
  5
E6
100
AcDbEntity
  8
0
  6
BYBLOCK
 62
     7
100
AcDbLine
 10
-86.176804
 20
5.00002
 30
0.0
 11
-85.400345
 21
2.102242
 31
0.0
  0
LINE
  5
E7
100
AcDbEntity
  8
0
  6
BYBLOCK
 62
     7
100
AcDbLine
 10
-86.176804
 20
-35.444199
 30
0.0
 11
-85.400345
 21
-32.546421
 31
0.0
  0
LINE
  5
E8
100
AcDbEntity
  8
0
  6
BYBLOCK
 62
     7
100
AcDbLine
 10
-86.176804
 20
-35.444199
 30
0.0
 11
-86.953262
 21
-32.546421
 31
0.0
  0
TEXT
  5
E9
100
AcDbEntity
  8
0
 62
     7
100
AcDbText
 10
-87.385529
 20
-18.179699
 30
0.0
 40
3.0
  1
40.4
 50
89.900002
 41
0.996923
100
AcDbText
  0
ENDBLK
  5
EA
100
AcDbEntity
  8
0
100
AcDbBlockEnd
  0
BLOCK
  5
EC
100
AcDbEntity
  8
0
100
AcDbBlockBegin
  2
*D19
 70
     1
 10
0.0
 20
0.0
 30
0.0
  3
*D19
  1

  0
LINE
  5
ED
100
AcDbEntity
  8
0
  6
BYBLOCK
 62
     7
100
AcDbLine
 10
160.664001
 20
45.324402
 30
0.0
 11
160.664001
 21
53.801201
 31
0.0
  0
LINE
  5
EE
100
AcDbEntity
  8
0
  6
BYBLOCK
 62
     7
100
AcDbLine
 10
130.136993
 20
25.4965
 30
0.0
 11
130.136993
 21
53.801201
 31
0.0
  0
LINE
  5
EF
100
AcDbEntity
  8
0
  6
BYBLOCK
 62
     7
100
AcDbLine
 10
160.664001
 20
52.301201
 30
0.0
 11
130.136993
 21
52.301201
 31
0.0
  0
LINE
  5
F0
100
AcDbEntity
  8
0
  6
BYBLOCK
 62
     7
100
AcDbLine
 10
160.664001
 20
52.301201
 30
0.0
 11
157.76622
 21
53.077656
 31
0.0
  0
LINE
  5
F1
100
AcDbEntity
  8
0
  6
BYBLOCK
 62
     7
100
AcDbLine
 10
160.664001
 20
52.301201
 30
0.0
 11
157.76622
 21
51.524742
 31
0.0
  0
LINE
  5
F2
100
AcDbEntity
  8
0
  6
BYBLOCK
 62
     7
100
AcDbLine
 10
130.136993
 20
52.301201
 30
0.0
 11
133.034775
 21
51.524742
 31
0.0
  0
LINE
  5
F3
100
AcDbEntity
  8
0
  6
BYBLOCK
 62
     7
100
AcDbLine
 10
130.136993
 20
52.301201
 30
0.0
 11
133.034775
 21
53.07766
 31
0.0
  0
TEXT
  5
F4
100
AcDbEntity
  8
0
 62
     7
100
AcDbText
 10
140.399994
 20
53.501202
 30
0.0
 40
3.0
  1
30.5
 41
0.996923
100
AcDbText
  0
ENDBLK
  5
F5
100
AcDbEntity
  8
0
100
AcDbBlockEnd
  0
BLOCK
  5
F7
100
AcDbEntity
  8
0
100
AcDbBlockBegin
  2
*D20
 70
     1
 10
0.0
 20
0.0
 30
0.0
  3
*D20
  1

  0
LINE
  5
F8
100
AcDbEntity
  8
0
  6
BYBLOCK
 62
     7
100
AcDbLine
 10
99.126404
 20
110.095001
 30
0.0
 11
89.979103
 21
110.095001
 31
0.0
  0
LINE
  5
F9
100
AcDbEntity
  8
0
  6
BYBLOCK
 62
     7
100
AcDbLine
 10
115.223999
 20
90.094498
 30
0.0
 11
89.979103
 21
90.094498
 31
0.0
  0
LINE
  5
FA
100
AcDbEntity
  8
0
  6
BYBLOCK
 62
     7
100
AcDbLine
 10
91.479103
 20
110.095001
 30
0.0
 11
91.479103
 21
90.094498
 31
0.0
  0
LINE
  5
FB
100
AcDbEntity
  8
0
  6
BYBLOCK
 62
     7
100
AcDbLine
 10
91.479103
 20
110.095001
 30
0.0
 11
90.702644
 21
107.197227
 31
0.0
  0
LINE
  5
FC
100
AcDbEntity
  8
0
  6
BYBLOCK
 62
     7
100
AcDbLine
 10
91.479103
 20
110.095001
 30
0.0
 11
92.255562
 21
107.197227
 31
0.0
  0
LINE
  5
FD
100
AcDbEntity
  8
0
  6
BYBLOCK
 62
     7
100
AcDbLine
 10
91.479103
 20
90.094498
 30
0.0
 11
92.255562
 21
92.992271
 31
0.0
  0
LINE
  5
FE
100
AcDbEntity
  8
0
  6
BYBLOCK
 62
     7
100
AcDbLine
 10
91.479103
 20
90.094498
 30
0.0
 11
90.702644
 21
92.992271
 31
0.0
  0
TEXT
  5
FF
100
AcDbEntity
  8
0
 62
     7
100
AcDbText
 10
90.274742
 20
97.289001
 30
0.0
 40
3.0
  1
20
 50
89.900002
 41
0.96
100
AcDbText
  0
ENDBLK
  5
100
100
AcDbEntity
  8
0
100
AcDbBlockEnd
  0
BLOCK
  5
102
100
AcDbEntity
  8
0
100
AcDbBlockBegin
  2
*D21
 70
     1
 10
0.0
 20
0.0
 30
0.0
  3
*D21
  1

  0
LINE
  5
103
100
AcDbEntity
  8
0
  6
BYBLOCK
 62
     7
100
AcDbLine
 10
-23.9
 20
20.5
 30
0.0
 11
-23.9
 21
45.5966
 31
0.0
  0
LINE
  5
104
100
AcDbEntity
  8
0
  6
BYBLOCK
 62
     7
100
AcDbLine
 10
23.9
 20
20.5
 30
0.0
 11
23.9
 21
45.5966
 31
0.0
  0
LINE
  5
105
100
AcDbEntity
  8
0
  6
BYBLOCK
 62
     7
100
AcDbLine
 10
-23.9
 20
44.0966
 30
0.0
 11
23.9
 21
44.0966
 31
0.0
  0
LINE
  5
106
100
AcDbEntity
  8
0
  6
BYBLOCK
 62
     7
100
AcDbLine
 10
-23.9
 20
44.0966
 30
0.0
 11
-21.002222
 21
43.320141
 31
0.0
  0
LINE
  5
107
100
AcDbEntity
  8
0
  6
BYBLOCK
 62
     7
100
AcDbLine
 10
-23.9
 20
44.0966
 30
0.0
 11
-21.002222
 21
44.873058
 31
0.0
  0
LINE
  5
108
100
AcDbEntity
  8
0
  6
BYBLOCK
 62
     7
100
AcDbLine
 10
23.9
 20
44.0966
 30
0.0
 11
21.002222
 21
44.873055
 31
0.0
  0
LINE
  5
109
100
AcDbEntity
  8
0
  6
BYBLOCK
 62
     7
100
AcDbLine
 10
23.9
 20
44.0966
 30
0.0
 11
21.002222
 21
43.320141
 31
0.0
  0
TEXT
  5
10A
100
AcDbEntity
  8
0
 62
     7
100
AcDbText
 10
-7.499985
 20
45.2966
 30
0.0
 40
3.0
  1
(47.8)
 41
0.84
100
AcDbText
  0
ENDBLK
  5
10B
100
AcDbEntity
  8
0
100
AcDbBlockEnd
  0
BLOCK
  5
10D
100
AcDbEntity
  8
0
100
AcDbBlockBegin
  2
*D22
 70
     1
 10
0.0
 20
0.0
 30
0.0
  3
*D22
  1

  0
LINE
  5
10E
100
AcDbEntity
  8
0
  6
BYBLOCK
 62
     7
100
AcDbLine
 10
22.9
 20
-11.5
 30
0.0
 11
86.433601
 21
-11.5
 31
0.0
  0
LINE
  5
10F
100
AcDbEntity
  8
0
  6
BYBLOCK
 62
     7
100
AcDbLine
 10
22.9
 20
21.5
 30
0.0
 11
86.433601
 21
21.5
 31
0.0
  0
LINE
  5
110
100
AcDbEntity
  8
0
  6
BYBLOCK
 62
     7
100
AcDbLine
 10
84.933601
 20
-11.5
 30
0.0
 11
84.933601
 21
21.5
 31
0.0
  0
LINE
  5
111
100
AcDbEntity
  8
0
  6
BYBLOCK
 62
     7
100
AcDbLine
 10
84.933601
 20
-11.5
 30
0.0
 11
85.71006
 21
-8.602222
 31
0.0
  0
LINE
  5
112
100
AcDbEntity
  8
0
  6
BYBLOCK
 62
     7
100
AcDbLine
 10
84.933601
 20
-11.5
 30
0.0
 11
84.157143
 21
-8.602222
 31
0.0
  0
LINE
  5
113
100
AcDbEntity
  8
0
  6
BYBLOCK
 62
     7
100
AcDbLine
 10
84.933601
 20
21.5
 30
0.0
 11
84.157143
 21
18.602222
 31
0.0
  0
LINE
  5
114
100
AcDbEntity
  8
0
  6
BYBLOCK
 62
     7
100
AcDbLine
 10
84.933601
 20
21.5
 30
0.0
 11
85.71006
 21
18.602222
 31
0.0
  0
TEXT
  5
115
100
AcDbEntity
  8
0
 62
     7
100
AcDbText
 10
83.724876
 20
0.002122
 30
0.0
 40
3.0
  1
(33)
 50
89.900002
 41
0.81
100
AcDbText
  0
ENDBLK
  5
116
100
AcDbEntity
  8
0
100
AcDbBlockEnd
  0
BLOCK
  5
118
100
AcDbEntity
  8
0
100
AcDbBlockBegin
  2
*D23
 70
     1
 10
0.0
 20
0.0
 30
0.0
  3
*D23
  1

  0
ARC
  5
119
100
AcDbEntity
  8
0
  6
BYBLOCK
 62
     7
100
AcDbCircle
 10
168.925995
 20
103.095001
 30
0.0
 40
41.779202
100
AcDbArc
 50
336.36499
 51
0.0
  0
LINE
  5
11A
100
AcDbEntity
  8
0
  6
BYBLOCK
 62
     7
100
AcDbLine
 10
203.414993
 20
88.001701
 30
0.0
 11
208.574997
 21
85.743301
 31
0.0
  0
LINE
  5
11B
100
AcDbEntity
  8
0
  6
BYBLOCK
 62
     7
100
AcDbLine
 10
173.925995
 20
103.095001
 30
0.0
 11
212.205994
 21
103.095001
 31
0.0
  0
LINE
  5
11C
100
AcDbEntity
  8
0
  6
BYBLOCK
 62
     7
100
AcDbLine
 10
207.200668
 20
86.345345
 30
0.0
 11
209.073746
 21
88.688759
 31
0.0
  0
LINE
  5
11D
100
AcDbEntity
  8
0
  6
BYBLOCK
 62
     7
100
AcDbLine
 10
207.200668
 20
86.345345
 30
0.0
 11
207.651093
 21
89.31134
 31
0.0
  0
LINE
  5
11E
100
AcDbEntity
  8
0
  6
BYBLOCK
 62
     7
100
AcDbLine
 10
210.7052
 20
103.095001
 30
0.0
 11
209.928741
 21
100.197227
 31
0.0
  0
LINE
  5
11F
100
AcDbEntity
  8
0
  6
BYBLOCK
 62
     7
100
AcDbLine
 10
210.7052
 20
103.095001
 30
0.0
 11
211.481659
 21
100.197227
 31
0.0
  0
TEXT
  5
120
100
AcDbEntity
  8
0
 62
     7
100
AcDbText
 10
207.210907
 20
87.065857
 30
0.0
 40
3.0
  1
23.64°
 50
79.400002
 41
0.913846
100
AcDbText
  0
ENDBLK
  5
121
100
AcDbEntity
  8
3
100
AcDbBlockEnd
  0
BLOCK
  5
123
100
AcDbEntity
  8
0
100
AcDbBlockBegin
  2
*D24
 70
     1
 10
0.0
 20
0.0
 30
0.0
  3
*D24
  1

  0
LINE
  5
124
100
AcDbEntity
  8
0
  6
BYBLOCK
 62
     7
100
AcDbLine
 10
479.855011
 20
85.564796
 30
0.0
 11
549.661011
 21
85.564796
 31
0.0
  0
LINE
  5
125
100
AcDbEntity
  8
0
  6
BYBLOCK
 62
     7
100
AcDbLine
 10
448.855011
 20
122.707001
 30
0.0
 11
549.661011
 21
122.707001
 31
0.0
  0
LINE
  5
126
100
AcDbEntity
  8
0
  6
BYBLOCK
 62
     7
100
AcDbLine
 10
548.161011
 20
85.564796
 30
0.0
 11
548.161011
 21
122.707001
 31
0.0
  0
LINE
  5
127
100
AcDbEntity
  8
0
  6
BYBLOCK
 62
     7
100
AcDbLine
 10
548.161011
 20
85.564796
 30
0.0
 11
548.937439
 21
88.46257
 31
0.0
  0
LINE
  5
128
100
AcDbEntity
  8
0
  6
BYBLOCK
 62
     7
100
AcDbLine
 10
548.161011
 20
85.564796
 30
0.0
 11
547.384583
 21
88.46257
 31
0.0
  0
LINE
  5
129
100
AcDbEntity
  8
0
  6
BYBLOCK
 62
     7
100
AcDbLine
 10
548.161011
 20
122.707001
 30
0.0
 11
547.384583
 21
119.809227
 31
0.0
  0
LINE
  5
12A
100
AcDbEntity
  8
0
  6
BYBLOCK
 62
     7
100
AcDbLine
 10
548.161011
 20
122.707001
 30
0.0
 11
548.937439
 21
119.809227
 31
0.0
  0
TEXT
  5
12B
100
AcDbEntity
  8
0
 62
     7
100
AcDbText
 10
546.960999
 20
97.692001
 30
0.0
 40
3.0
  1
37.1
 50
90.0
 41
0.925714
100
AcDbText
  0
ENDBLK
  5
12C
100
AcDbEntity
  8
0
100
AcDbBlockEnd
  0
BLOCK
  5
12E
100
AcDbEntity
  8
0
100
AcDbBlockBegin
  2
*D25
 70
     1
 10
0.0
 20
0.0
 30
0.0
  3
*D25
  1

  0
LINE
  5
12F
100
AcDbEntity
  8
0
  6
BYBLOCK
 62
     7
100
AcDbLine
 10
448.855011
 20
122.707001
 30
0.0
 11
549.661011
 21
122.707001
 31
0.0
  0
LINE
  5
130
100
AcDbEntity
  8
0
  6
BYBLOCK
 62
     7
100
AcDbLine
 10
478.855011
 20
185.207001
 30
0.0
 11
549.661011
 21
185.207001
 31
0.0
  0
LINE
  5
131
100
AcDbEntity
  8
0
  6
BYBLOCK
 62
     7
100
AcDbLine
 10
548.161011
 20
122.707001
 30
0.0
 11
548.161011
 21
185.207001
 31
0.0
  0
LINE
  5
132
100
AcDbEntity
  8
0
  6
BYBLOCK
 62
     7
100
AcDbLine
 10
548.161011
 20
122.707001
 30
0.0
 11
548.937439
 21
125.604774
 31
0.0
  0
LINE
  5
133
100
AcDbEntity
  8
0
  6
BYBLOCK
 62
     7
100
AcDbLine
 10
548.161011
 20
122.707001
 30
0.0
 11
547.384583
 21
125.604774
 31
0.0
  0
LINE
  5
134
100
AcDbEntity
  8
0
  6
BYBLOCK
 62
     7
100
AcDbLine
 10
548.161011
 20
185.207001
 30
0.0
 11
547.384583
 21
182.309219
 31
0.0
  0
LINE
  5
135
100
AcDbEntity
  8
0
  6
BYBLOCK
 62
     7
100
AcDbLine
 10
548.161011
 20
185.207001
 30
0.0
 11
548.937439
 21
182.309219
 31
0.0
  0
TEXT
  5
136
100
AcDbEntity
  8
0
 62
     7
100
AcDbText
 10
546.952271
 20
148.959091
 30
0.0
 40
3.0
  1
62.5
 50
89.900002
 41
0.925714
100
AcDbText
  0
ENDBLK
  5
137
100
AcDbEntity
  8
0
100
AcDbBlockEnd
  0
BLOCK
  5
139
100
AcDbEntity
  8
0
100
AcDbBlockBegin
  2
*D26
 70
     1
 10
0.0
 20
0.0
 30
0.0
  3
*D26
  1

  0
LINE
  5
13A
100
AcDbEntity
  8
0
  6
BYBLOCK
 62
     7
100
AcDbLine
 10
418.855011
 20
126.333
 30
0.0
 11
418.855011
 21
78.370903
 31
0.0
  0
LINE
  5
13B
100
AcDbEntity
  8
0
  6
BYBLOCK
 62
     7
100
AcDbLine
 10
478.855011
 20
126.333
 30
0.0
 11
478.855011
 21
78.370903
 31
0.0
  0
LINE
  5
13C
100
AcDbEntity
  8
0
  6
BYBLOCK
 62
     7
100
AcDbLine
 10
418.855011
 20
79.870903
 30
0.0
 11
478.855011
 21
79.870903
 31
0.0
  0
LINE
  5
13D
100
AcDbEntity
  8
0
  6
BYBLOCK
 62
     7
100
AcDbLine
 10
418.855011
 20
79.870903
 30
0.0
 11
421.752777
 21
79.094444
 31
0.0
  0
LINE
  5
13E
100
AcDbEntity
  8
0
  6
BYBLOCK
 62
     7
100
AcDbLine
 10
418.855011
 20
79.870903
 30
0.0
 11
421.752777
 21
80.647362
 31
0.0
  0
LINE
  5
13F
100
AcDbEntity
  8
0
  6
BYBLOCK
 62
     7
100
AcDbLine
 10
478.855011
 20
79.870903
 30
0.0
 11
475.957245
 21
80.647362
 31
0.0
  0
LINE
  5
140
100
AcDbEntity
  8
0
  6
BYBLOCK
 62
     7
100
AcDbLine
 10
478.855011
 20
79.870903
 30
0.0
 11
475.957245
 21
79.094444
 31
0.0
  0
TEXT
  5
141
100
AcDbEntity
  8
0
 62
     7
100
AcDbText
 10
441.153107
 20
81.075264
 30
0.0
 40
3.0
  1
60
 50
359.899994
 41
0.96
100
AcDbText
  0
ENDBLK
  5
142
100
AcDbEntity
  8
0
100
AcDbBlockEnd
  0
BLOCK
  5
144
100
AcDbEntity
  8
0
100
AcDbBlockBegin
  2
*D27
 70
     1
 10
0.0
 20
0.0
 30
0.0
  3
*D27
  1

  0
LINE
  5
145
100
AcDbEntity
  8
0
  6
BYBLOCK
 62
     7
100
AcDbLine
 10
433.174988
 20
111.142998
 30
0.0
 11
425.248993
 21
93.925301
 31
0.0
  0
LINE
  5
146
100
AcDbEntity
  8
0
  6
BYBLOCK
 62
     7
100
AcDbLine
 10
448.855011
 20
145.207001
 30
0.0
 11
433.174988
 21
111.142998
 31
0.0
  0
LINE
  5
147
100
AcDbEntity
  8
0
  6
BYBLOCK
 62
     7
100
AcDbLine
 10
433.174988
 20
111.142998
 30
0.0
 11
435.09198
 21
113.450623
 31
0.0
  0
LINE
  5
148
100
AcDbEntity
  8
0
  6
BYBLOCK
 62
     7
100
AcDbLine
 10
433.174988
 20
111.142998
 30
0.0
 11
433.681335
 21
114.09996
 31
0.0
  0
TEXT
  5
149
100
AcDbEntity
  8
0
 62
     7
100
AcDbText
 10
424.005096
 20
94.114433
 30
0.0
 40
3.0
  1
R37.5
 50
65.199997
 41
0.828
100
AcDbText
  0
ENDBLK
  5
14A
100
AcDbEntity
  8
3
100
AcDbBlockEnd
  0
BLOCK
  5
14C
100
AcDbEntity
  8
0
100
AcDbBlockBegin
  2
*D28
 70
     1
 10
0.0
 20
0.0
 30
0.0
  3
*D28
  1

  0
LINE
  5
14D
100
AcDbEntity
  8
0
  6
BYBLOCK
 62
     7
100
AcDbLine
 10
563.304993
 20
4.00002
 30
0.0
 11
542.254028
 21
4.00002
 31
0.0
  0
LINE
  5
14E
100
AcDbEntity
  8
0
  6
BYBLOCK
 62
     7
100
AcDbLine
 10
591.202026
 20
60.179298
 30
0.0
 11
542.254028
 21
60.179298
 31
0.0
  0
LINE
  5
14F
100
AcDbEntity
  8
0
  6
BYBLOCK
 62
     7
100
AcDbLine
 10
543.754028
 20
4.00002
 30
0.0
 11
543.754028
 21
60.179298
 31
0.0
  0
LINE
  5
150
100
AcDbEntity
  8
0
  6
BYBLOCK
 62
     7
100
AcDbLine
 10
543.754028
 20
4.00002
 30
0.0
 11
544.530457
 21
6.897798
 31
0.0
  0
LINE
  5
151
100
AcDbEntity
  8
0
  6
BYBLOCK
 62
     7
100
AcDbLine
 10
543.754028
 20
4.00002
 30
0.0
 11
542.9776
 21
6.897798
 31
0.0
  0
LINE
  5
152
100
AcDbEntity
  8
0
  6
BYBLOCK
 62
     7
100
AcDbLine
 10
543.754028
 20
60.179298
 30
0.0
 11
542.9776
 21
57.281521
 31
0.0
  0
LINE
  5
153
100
AcDbEntity
  8
0
  6
BYBLOCK
 62
     7
100
AcDbLine
 10
543.754028
 20
60.179298
 30
0.0
 11
544.530457
 21
57.281521
 31
0.0
  0
TEXT
  5
154
100
AcDbEntity
  8
0
 62
     7
100
AcDbText
 10
542.554016
 20
26.7651
 30
0.0
 40
3.0
  1
56.2
 50
90.0
 41
0.925714
100
AcDbText
  0
ENDBLK
  5
155
100
AcDbEntity
  8
0
100
AcDbBlockEnd
  0
BLOCK
  5
157
100
AcDbEntity
  8
0
100
AcDbBlockBegin
  2
*D29
 70
     1
 10
0.0
 20
0.0
 30
0.0
  3
*D29
  1

  0
LINE
  5
158
100
AcDbEntity
  8
0
  6
BYBLOCK
 62
     7
100
AcDbLine
 10
665.702026
 20
60.179298
 30
0.0
 11
685.640991
 21
60.179298
 31
0.0
  0
LINE
  5
159
100
AcDbEntity
  8
0
  6
BYBLOCK
 62
     7
100
AcDbLine
 10
671.002014
 20
-49.820702
 30
0.0
 11
685.640991
 21
-49.820702
 31
0.0
  0
LINE
  5
15A
100
AcDbEntity
  8
0
  6
BYBLOCK
 62
     7
100
AcDbLine
 10
684.140991
 20
60.179298
 30
0.0
 11
684.140991
 21
-49.820702
 31
0.0
  0
LINE
  5
15B
100
AcDbEntity
  8
0
  6
BYBLOCK
 62
     7
100
AcDbLine
 10
684.140991
 20
60.179298
 30
0.0
 11
683.364563
 21
57.281521
 31
0.0
  0
LINE
  5
15C
100
AcDbEntity
  8
0
  6
BYBLOCK
 62
     7
100
AcDbLine
 10
684.140991
 20
60.179298
 30
0.0
 11
684.917419
 21
57.281521
 31
0.0
  0
LINE
  5
15D
100
AcDbEntity
  8
0
  6
BYBLOCK
 62
     7
100
AcDbLine
 10
684.140991
 20
-49.820702
 30
0.0
 11
684.917419
 21
-46.922924
 31
0.0
  0
LINE
  5
15E
100
AcDbEntity
  8
0
  6
BYBLOCK
 62
     7
100
AcDbLine
 10
684.140991
 20
-49.820702
 30
0.0
 11
683.364563
 21
-46.922924
 31
0.0
  0
TEXT
  5
15F
100
AcDbEntity
  8
0
 62
     7
100
AcDbText
 10
682.934448
 20
-1.10464
 30
0.0
 40
3.0
  1
110
 50
89.900002
 41
1.17
100
AcDbText
  0
ENDBLK
  5
160
100
AcDbEntity
  8
0
100
AcDbBlockEnd
  0
BLOCK
  5
162
100
AcDbEntity
  8
0
100
AcDbBlockBegin
  2
*D30
 70
     1
 10
0.0
 20
0.0
 30
0.0
  3
*D30
  1

  0
LINE
  5
163
100
AcDbEntity
  8
0
  6
BYBLOCK
 62
     7
100
AcDbLine
 10
665.702026
 20
60.179298
 30
0.0
 11
685.640991
 21
60.179298
 31
0.0
  0
LINE
  5
164
100
AcDbEntity
  8
0
  6
BYBLOCK
 62
     7
100
AcDbLine
 10
620.202026
 20
67.379303
 30
0.0
 11
685.640991
 21
67.379303
 31
0.0
  0
LINE
  5
165
100
AcDbEntity
  8
0
  6
BYBLOCK
 62
     7
100
AcDbLine
 10
684.140991
 20
54.179298
 30
0.0
 11
684.140991
 21
73.379303
 31
0.0
  0
LINE
  5
166
100
AcDbEntity
  8
0
  6
BYBLOCK
 62
     7
100
AcDbLine
 10
701.286987
 20
53.880001
 30
0.0
 11
701.286987
 21
65.264297
 31
0.0
  0
LINE
  5
167
100
AcDbEntity
  8
0
  6
BYBLOCK
 62
     7
100
AcDbLine
 10
684.140991
 20
63.779301
 30
0.0
 11
701.286987
 21
53.880001
 31
0.0
  0
LINE
  5
168
100
AcDbEntity
  8
0
  6
BYBLOCK
 62
     7
100
AcDbLine
 10
684.140991
 20
60.179298
 30
0.0
 11
683.364563
 21
57.281521
 31
0.0
  0
LINE
  5
169
100
AcDbEntity
  8
0
  6
BYBLOCK
 62
     7
100
AcDbLine
 10
684.140991
 20
60.179298
 30
0.0
 11
684.917419
 21
57.281521
 31
0.0
  0
LINE
  5
16A
100
AcDbEntity
  8
0
  6
BYBLOCK
 62
     7
100
AcDbLine
 10
684.140991
 20
67.379303
 30
0.0
 11
684.917419
 21
70.277077
 31
0.0
  0
LINE
  5
16B
100
AcDbEntity
  8
0
  6
BYBLOCK
 62
     7
100
AcDbLine
 10
684.140991
 20
67.379303
 30
0.0
 11
683.364563
 21
70.277077
 31
0.0
  0
TEXT
  5
16C
100
AcDbEntity
  8
0
 62
     7
100
AcDbText
 10
700.080444
 20
58.116398
 30
0.0
 40
3.0
  1
7.2
 50
89.900002
 41
1.17
100
AcDbText
  0
ENDBLK
  5
16D
100
AcDbEntity
  8
0
100
AcDbBlockEnd
  0
BLOCK
  5
16F
100
AcDbEntity
  8
0
100
AcDbBlockBegin
  2
*D31
 70
     1
 10
0.0
 20
0.0
 30
0.0
  3
*D31
  1

  0
LINE
  5
170
100
AcDbEntity
  8
0
  6
BYBLOCK
 62
     7
100
AcDbLine
 10
591.202026
 20
66.379303
 30
0.0
 11
591.202026
 21
76.623901
 31
0.0
  0
LINE
  5
171
100
AcDbEntity
  8
0
  6
BYBLOCK
 62
     7
100
AcDbLine
 10
621.202026
 20
66.379303
 30
0.0
 11
621.202026
 21
76.623901
 31
0.0
  0
LINE
  5
172
100
AcDbEntity
  8
0
  6
BYBLOCK
 62
     7
100
AcDbLine
 10
591.202026
 20
75.123901
 30
0.0
 11
621.202026
 21
75.123901
 31
0.0
  0
LINE
  5
173
100
AcDbEntity
  8
0
  6
BYBLOCK
 62
     7
100
AcDbLine
 10
591.202026
 20
75.123901
 30
0.0
 11
594.099792
 21
74.347443
 31
0.0
  0
LINE
  5
174
100
AcDbEntity
  8
0
  6
BYBLOCK
 62
     7
100
AcDbLine
 10
591.202026
 20
75.123901
 30
0.0
 11
594.099792
 21
75.90036
 31
0.0
  0
LINE
  5
175
100
AcDbEntity
  8
0
  6
BYBLOCK
 62
     7
100
AcDbLine
 10
621.202026
 20
75.123901
 30
0.0
 11
618.30426
 21
75.90036
 31
0.0
  0
LINE
  5
176
100
AcDbEntity
  8
0
  6
BYBLOCK
 62
     7
100
AcDbLine
 10
621.202026
 20
75.123901
 30
0.0
 11
618.30426
 21
74.347443
 31
0.0
  0
TEXT
  5
177
100
AcDbEntity
  8
0
 62
     7
100
AcDbText
 10
601.24408
 20
76.332626
 30
0.0
 40
3.0
  1
φ30
 50
359.899994
 41
0.986301
100
AcDbText
  0
ENDBLK
  5
178
100
AcDbEntity
  8
0
100
AcDbBlockEnd
  0
BLOCK
  5
17A
100
AcDbEntity
  8
0
100
AcDbBlockBegin
  2
*D32
 70
     1
 10
0.0
 20
0.0
 30
0.0
  3
*D32
  1

  0
LINE
  5
17B
100
AcDbEntity
  8
0
  6
BYBLOCK
 62
     7
100
AcDbLine
 10
379.054993
 20
-2.49998
 30
0.0
 11
379.054993
 21
-45.110401
 31
0.0
  0
LINE
  5
17C
100
AcDbEntity
  8
0
  6
BYBLOCK
 62
     7
100
AcDbLine
 10
518.655029
 20
-2.49998
 30
0.0
 11
518.655029
 21
-45.110401
 31
0.0
  0
LINE
  5
17D
100
AcDbEntity
  8
0
  6
BYBLOCK
 62
     7
100
AcDbLine
 10
379.054993
 20
-43.610401
 30
0.0
 11
518.655029
 21
-43.610401
 31
0.0
  0
LINE
  5
17E
100
AcDbEntity
  8
0
  6
BYBLOCK
 62
     7
100
AcDbLine
 10
379.054993
 20
-43.610401
 30
0.0
 11
381.952759
 21
-44.38686
 31
0.0
  0
LINE
  5
17F
100
AcDbEntity
  8
0
  6
BYBLOCK
 62
     7
100
AcDbLine
 10
379.054993
 20
-43.610401
 30
0.0
 11
381.952759
 21
-42.833942
 31
0.0
  0
LINE
  5
180
100
AcDbEntity
  8
0
  6
BYBLOCK
 62
     7
100
AcDbLine
 10
518.655029
 20
-43.610401
 30
0.0
 11
515.757263
 21
-42.833946
 31
0.0
  0
LINE
  5
181
100
AcDbEntity
  8
0
  6
BYBLOCK
 62
     7
100
AcDbLine
 10
518.655029
 20
-43.610401
 30
0.0
 11
515.757263
 21
-44.38686
 31
0.0
  0
TEXT
  5
182
100
AcDbEntity
  8
0
 62
     7
100
AcDbText
 10
442.339111
 20
-42.399494
 30
0.0
 40
3.0
  1
139.6
 50
359.899994
 41
0.92
100
AcDbText
  0
ENDBLK
  5
183
100
AcDbEntity
  8
0
100
AcDbBlockEnd
  0
BLOCK
  5
185
100
AcDbEntity
  8
0
100
AcDbBlockBegin
  2
*D33
 70
     1
 10
0.0
 20
0.0
 30
0.0
  3
*D33
  1

  0
LINE
  5
186
100
AcDbEntity
  8
0
  6
BYBLOCK
 62
     7
100
AcDbLine
 10
417.855011
 20
85.564796
 30
0.0
 11
350.931
 21
85.564796
 31
0.0
  0
LINE
  5
187
100
AcDbEntity
  8
0
  6
BYBLOCK
 62
     7
100
AcDbLine
 10
381.355011
 20
112.707001
 30
0.0
 11
350.931
 21
112.707001
 31
0.0
  0
LINE
  5
188
100
AcDbEntity
  8
0
  6
BYBLOCK
 62
     7
100
AcDbLine
 10
352.431
 20
85.564796
 30
0.0
 11
352.431
 21
112.707001
 31
0.0
  0
LINE
  5
189
100
AcDbEntity
  8
0
  6
BYBLOCK
 62
     7
100
AcDbLine
 10
352.431
 20
85.564796
 30
0.0
 11
353.207458
 21
88.46257
 31
0.0
  0
LINE
  5
18A
100
AcDbEntity
  8
0
  6
BYBLOCK
 62
     7
100
AcDbLine
 10
352.431
 20
85.564796
 30
0.0
 11
351.654541
 21
88.46257
 31
0.0
  0
LINE
  5
18B
100
AcDbEntity
  8
0
  6
BYBLOCK
 62
     7
100
AcDbLine
 10
352.431
 20
112.707001
 30
0.0
 11
351.654541
 21
109.809227
 31
0.0
  0
LINE
  5
18C
100
AcDbEntity
  8
0
  6
BYBLOCK
 62
     7
100
AcDbLine
 10
352.431
 20
112.707001
 30
0.0
 11
353.207458
 21
109.809227
 31
0.0
  0
TEXT
  5
18D
100
AcDbEntity
  8
0
 62
     7
100
AcDbText
 10
351.230988
 20
93.418198
 30
0.0
 40
3.0
  1
27.1
 50
90.0
 41
0.925714
100
AcDbText
  0
ENDBLK
  5
18E
100
AcDbEntity
  8
0
100
AcDbBlockEnd
  0
BLOCK
  5
190
100
AcDbEntity
  8
0
100
AcDbBlockBegin
  2
*D34
 70
     1
 10
0.0
 20
0.0
 30
0.0
  3
*D34
  1

  0
LINE
  5
191
100
AcDbEntity
  8
0
  6
BYBLOCK
 62
     7
100
AcDbLine
 10
381.355011
 20
112.707001
 30
0.0
 11
350.931
 21
112.707001
 31
0.0
  0
LINE
  5
192
100
AcDbEntity
  8
0
  6
BYBLOCK
 62
     7
100
AcDbLine
 10
379.054993
 20
142.707001
 30
0.0
 11
350.931
 21
142.707001
 31
0.0
  0
LINE
  5
193
100
AcDbEntity
  8
0
  6
BYBLOCK
 62
     7
100
AcDbLine
 10
352.431
 20
112.707001
 30
0.0
 11
352.431
 21
142.707001
 31
0.0
  0
LINE
  5
194
100
AcDbEntity
  8
0
  6
BYBLOCK
 62
     7
100
AcDbLine
 10
352.431
 20
112.707001
 30
0.0
 11
353.207458
 21
115.604774
 31
0.0
  0
LINE
  5
195
100
AcDbEntity
  8
0
  6
BYBLOCK
 62
     7
100
AcDbLine
 10
352.431
 20
112.707001
 30
0.0
 11
351.654541
 21
115.604774
 31
0.0
  0
LINE
  5
196
100
AcDbEntity
  8
0
  6
BYBLOCK
 62
     7
100
AcDbLine
 10
352.431
 20
142.707001
 30
0.0
 11
351.654541
 21
139.809219
 31
0.0
  0
LINE
  5
197
100
AcDbEntity
  8
0
  6
BYBLOCK
 62
     7
100
AcDbLine
 10
352.431
 20
142.707001
 30
0.0
 11
353.207458
 21
139.809219
 31
0.0
  0
TEXT
  5
198
100
AcDbEntity
  8
0
 62
     7
100
AcDbText
 10
351.22226
 20
122.709106
 30
0.0
 40
3.0
  1
(30)
 50
89.900002
 41
0.864
100
AcDbText
  0
ENDBLK
  5
199
100
AcDbEntity
  8
0
100
AcDbBlockEnd
  0
BLOCK
  5
19B
100
AcDbEntity
  8
0
100
AcDbBlockBegin
  2
*D35
 70
     1
 10
0.0
 20
0.0
 30
0.0
  3
*D35
  1

  0
LINE
  5
19C
100
AcDbEntity
  8
0
  6
BYBLOCK
 62
     7
100
AcDbLine
 10
448.855011
 20
107.707001
 30
0.0
 11
538.97699
 21
107.707001
 31
0.0
  0
LINE
  5
19D
100
AcDbEntity
  8
0
  6
BYBLOCK
 62
     7
100
AcDbLine
 10
468.855011
 20
122.707001
 30
0.0
 11
538.97699
 21
122.707001
 31
0.0
  0
LINE
  5
19E
100
AcDbEntity
  8
0
  6
BYBLOCK
 62
     7
100
AcDbLine
 10
537.47699
 20
101.707001
 30
0.0
 11
537.47699
 21
128.707001
 31
0.0
  0
LINE
  5
19F
100
AcDbEntity
  8
0
  6
BYBLOCK
 62
     7
100
AcDbLine
 10
537.47699
 20
107.707001
 30
0.0
 11
536.700562
 21
104.809227
 31
0.0
  0
LINE
  5
1A0
100
AcDbEntity
  8
0
  6
BYBLOCK
 62
     7
100
AcDbLine
 10
537.47699
 20
107.707001
 30
0.0
 11
538.253418
 21
104.809227
 31
0.0
  0
LINE
  5
1A1
100
AcDbEntity
  8
0
  6
BYBLOCK
 62
     7
100
AcDbLine
 10
537.47699
 20
122.707001
 30
0.0
 11
538.253418
 21
125.604774
 31
0.0
  0
LINE
  5
1A2
100
AcDbEntity
  8
0
  6
BYBLOCK
 62
     7
100
AcDbLine
 10
537.47699
 20
122.707001
 30
0.0
 11
536.700562
 21
125.604774
 31
0.0
  0
TEXT
  5
1A3
100
AcDbEntity
  8
0
 62
     7
100
AcDbText
 10
536.276978
 20
112.584999
 30
0.0
 40
3.0
  1
15
 50
90.0
 41
1.44
100
AcDbText
  0
ENDBLK
  5
1A4
100
AcDbEntity
  8
0
100
AcDbBlockEnd
  0
BLOCK
  5
1A6
100
AcDbEntity
  8
0
100
AcDbBlockBegin
  2
*D36
 70
     1
 10
0.0
 20
0.0
 30
0.0
  3
*D36
  1

  0
LINE
  5
1A7
100
AcDbEntity
  8
0
  6
BYBLOCK
 62
     7
100
AcDbLine
 10
423.855011
 20
161.207001
 30
0.0
 11
423.855011
 21
146.936996
 31
0.0
  0
LINE
  5
1A8
100
AcDbEntity
  8
0
  6
BYBLOCK
 62
     7
100
AcDbLine
 10
473.855011
 20
161.207001
 30
0.0
 11
473.855011
 21
146.936996
 31
0.0
  0
LINE
  5
1A9
100
AcDbEntity
  8
0
  6
BYBLOCK
 62
     7
100
AcDbLine
 10
423.855011
 20
148.436996
 30
0.0
 11
473.855011
 21
148.436996
 31
0.0
  0
LINE
  5
1AA
100
AcDbEntity
  8
0
  6
BYBLOCK
 62
     7
100
AcDbLine
 10
423.855011
 20
148.436996
 30
0.0
 11
426.752777
 21
147.660538
 31
0.0
  0
LINE
  5
1AB
100
AcDbEntity
  8
0
  6
BYBLOCK
 62
     7
100
AcDbLine
 10
423.855011
 20
148.436996
 30
0.0
 11
426.752777
 21
149.213455
 31
0.0
  0
LINE
  5
1AC
100
AcDbEntity
  8
0
  6
BYBLOCK
 62
     7
100
AcDbLine
 10
473.855011
 20
148.436996
 30
0.0
 11
470.957245
 21
149.213455
 31
0.0
  0
LINE
  5
1AD
100
AcDbEntity
  8
0
  6
BYBLOCK
 62
     7
100
AcDbLine
 10
473.855011
 20
148.436996
 30
0.0
 11
470.957245
 21
147.660538
 31
0.0
  0
TEXT
  5
1AE
100
AcDbEntity
  8
0
 62
     7
100
AcDbText
 10
446.355011
 20
149.636993
 30
0.0
 40
3.0
  1
50
 41
0.96
100
AcDbText
  0
ENDBLK
  5
1AF
100
AcDbEntity
  8
0
100
AcDbBlockEnd
  0
BLOCK
  5
1B1
100
AcDbEntity
  8
0
100
AcDbBlockBegin
  2
*D37
 70
     1
 10
0.0
 20
0.0
 30
0.0
  3
*D37
  1

  0
LINE
  5
1B2
100
AcDbEntity
  8
0
  6
BYBLOCK
 62
     7
100
AcDbLine
 10
468.855011
 20
122.707001
 30
0.0
 11
538.97699
 21
122.707001
 31
0.0
  0
LINE
  5
1B3
100
AcDbEntity
  8
0
  6
BYBLOCK
 62
     7
100
AcDbLine
 10
458.855011
 20
165.207001
 30
0.0
 11
538.97699
 21
165.207001
 31
0.0
  0
LINE
  5
1B4
100
AcDbEntity
  8
0
  6
BYBLOCK
 62
     7
100
AcDbLine
 10
537.47699
 20
122.707001
 30
0.0
 11
537.47699
 21
165.207001
 31
0.0
  0
LINE
  5
1B5
100
AcDbEntity
  8
0
  6
BYBLOCK
 62
     7
100
AcDbLine
 10
537.47699
 20
122.707001
 30
0.0
 11
538.253418
 21
125.604774
 31
0.0
  0
LINE
  5
1B6
100
AcDbEntity
  8
0
  6
BYBLOCK
 62
     7
100
AcDbLine
 10
537.47699
 20
122.707001
 30
0.0
 11
536.700562
 21
125.604774
 31
0.0
  0
LINE
  5
1B7
100
AcDbEntity
  8
0
  6
BYBLOCK
 62
     7
100
AcDbLine
 10
537.47699
 20
165.207001
 30
0.0
 11
536.700562
 21
162.309219
 31
0.0
  0
LINE
  5
1B8
100
AcDbEntity
  8
0
  6
BYBLOCK
 62
     7
100
AcDbLine
 10
537.47699
 20
165.207001
 30
0.0
 11
538.253418
 21
162.309219
 31
0.0
  0
TEXT
  5
1B9
100
AcDbEntity
  8
0
 62
     7
100
AcDbText
 10
536.26825
 20
138.959091
 30
0.0
 40
3.0
  1
42.5
 50
89.900002
 41
0.925714
100
AcDbText
  0
ENDBLK
  5
1BA
100
AcDbEntity
  8
0
100
AcDbBlockEnd
  0
BLOCK
  5
1BC
100
AcDbEntity
  8
0
100
AcDbBlockBegin
  2
*D38
 70
     1
 10
0.0
 20
0.0
 30
0.0
  3
*D38
  1

  0
LINE
  5
1BD
100
AcDbEntity
  8
0
  6
BYBLOCK
 62
     7
100
AcDbLine
 10
687.460022
 20
184.695007
 30
0.0
 11
697.786011
 21
184.695007
 31
0.0
  0
LINE
  5
1BE
100
AcDbEntity
  8
0
  6
BYBLOCK
 62
     7
100
AcDbLine
 10
667.460022
 20
129.695007
 30
0.0
 11
697.786011
 21
129.695007
 31
0.0
  0
LINE
  5
1BF
100
AcDbEntity
  8
0
  6
BYBLOCK
 62
     7
100
AcDbLine
 10
696.286011
 20
184.695007
 30
0.0
 11
696.286011
 21
129.695007
 31
0.0
  0
LINE
  5
1C0
100
AcDbEntity
  8
0
  6
BYBLOCK
 62
     7
100
AcDbLine
 10
696.286011
 20
184.695007
 30
0.0
 11
695.509583
 21
181.797226
 31
0.0
  0
LINE
  5
1C1
100
AcDbEntity
  8
0
  6
BYBLOCK
 62
     7
100
AcDbLine
 10
696.286011
 20
184.695007
 30
0.0
 11
697.062439
 21
181.797226
 31
0.0
  0
LINE
  5
1C2
100
AcDbEntity
  8
0
  6
BYBLOCK
 62
     7
100
AcDbLine
 10
696.286011
 20
129.695007
 30
0.0
 11
697.062439
 21
132.592789
 31
0.0
  0
LINE
  5
1C3
100
AcDbEntity
  8
0
  6
BYBLOCK
 62
     7
100
AcDbLine
 10
696.286011
 20
129.695007
 30
0.0
 11
695.509583
 21
132.592789
 31
0.0
  0
TEXT
  5
1C4
100
AcDbEntity
  8
0
 62
     7
100
AcDbText
 10
695.081665
 20
155.190094
 30
0.0
 40
3.0
  1
55
 50
89.900002
 41
0.96
100
AcDbText
  0
ENDBLK
  5
1C5
100
AcDbEntity
  8
0
100
AcDbBlockEnd
  0
BLOCK
  5
1C7
100
AcDbEntity
  8
0
100
AcDbBlockBegin
  2
*D39
 70
     1
 10
0.0
 20
0.0
 30
0.0
  3
*D39
  1

  0
LINE
  5
1C8
100
AcDbEntity
  8
0
  6
BYBLOCK
 62
     7
100
AcDbLine
 10
687.460022
 20
184.695007
 30
0.0
 11
705.304993
 21
184.695007
 31
0.0
  0
LINE
  5
1C9
100
AcDbEntity
  8
0
  6
BYBLOCK
 62
     7
100
AcDbLine
 10
684.460022
 20
168.695007
 30
0.0
 11
705.304993
 21
168.695007
 31
0.0
  0
LINE
  5
1CA
100
AcDbEntity
  8
0
  6
BYBLOCK
 62
     7
100
AcDbLine
 10
703.804993
 20
184.695007
 30
0.0
 11
703.804993
 21
168.695007
 31
0.0
  0
LINE
  5
1CB
100
AcDbEntity
  8
0
  6
BYBLOCK
 62
     7
100
AcDbLine
 10
703.804993
 20
184.695007
 30
0.0
 11
703.028564
 21
181.797226
 31
0.0
  0
LINE
  5
1CC
100
AcDbEntity
  8
0
  6
BYBLOCK
 62
     7
100
AcDbLine
 10
703.804993
 20
184.695007
 30
0.0
 11
704.581421
 21
181.797226
 31
0.0
  0
LINE
  5
1CD
100
AcDbEntity
  8
0
  6
BYBLOCK
 62
     7
100
AcDbLine
 10
703.804993
 20
168.695007
 30
0.0
 11
704.581421
 21
171.592789
 31
0.0
  0
LINE
  5
1CE
100
AcDbEntity
  8
0
  6
BYBLOCK
 62
     7
100
AcDbLine
 10
703.804993
 20
168.695007
 30
0.0
 11
703.028564
 21
171.592789
 31
0.0
  0
TEXT
  5
1CF
100
AcDbEntity
  8
0
 62
     7
100
AcDbText
 10
702.600647
 20
174.197098
 30
0.0
 40
3.0
  1
16
 50
89.900002
 41
1.44
100
AcDbText
  0
ENDBLK
  5
1D0
100
AcDbEntity
  8
0
100
AcDbBlockEnd
  0
BLOCK
  5
1D2
100
AcDbEntity
  8
0
100
AcDbBlockBegin
  2
*D40
 70
     1
 10
0.0
 20
0.0
 30
0.0
  3
*D40
  1

  0
LINE
  5
1D3
100
AcDbEntity
  8
0
  6
BYBLOCK
 62
     7
100
AcDbLine
 10
684.460022
 20
168.695007
 30
0.0
 11
705.304993
 21
168.695007
 31
0.0
  0
LINE
  5
1D4
100
AcDbEntity
  8
0
  6
BYBLOCK
 62
     7
100
AcDbLine
 10
684.460022
 20
85.194901
 30
0.0
 11
705.304993
 21
85.194901
 31
0.0
  0
LINE
  5
1D5
100
AcDbEntity
  8
0
  6
BYBLOCK
 62
     7
100
AcDbLine
 10
703.804993
 20
168.695007
 30
0.0
 11
703.804993
 21
85.194901
 31
0.0
  0
LINE
  5
1D6
100
AcDbEntity
  8
0
  6
BYBLOCK
 62
     7
100
AcDbLine
 10
703.804993
 20
168.695007
 30
0.0
 11
703.028564
 21
165.797226
 31
0.0
  0
LINE
  5
1D7
100
AcDbEntity
  8
0
  6
BYBLOCK
 62
     7
100
AcDbLine
 10
703.804993
 20
168.695007
 30
0.0
 11
704.581421
 21
165.797226
 31
0.0
  0
LINE
  5
1D8
100
AcDbEntity
  8
0
  6
BYBLOCK
 62
     7
100
AcDbLine
 10
703.804993
 20
85.194901
 30
0.0
 11
704.581421
 21
88.092674
 31
0.0
  0
LINE
  5
1D9
100
AcDbEntity
  8
0
  6
BYBLOCK
 62
     7
100
AcDbLine
 10
703.804993
 20
85.194901
 30
0.0
 11
703.028564
 21
88.092674
 31
0.0
  0
TEXT
  5
1DA
100
AcDbEntity
  8
0
 62
     7
100
AcDbText
 10
702.596252
 20
121.947105
 30
0.0
 40
3.0
  1
83.5
 50
89.900002
 41
0.925714
100
AcDbText
  0
ENDBLK
  5
1DB
100
AcDbEntity
  8
0
100
AcDbBlockEnd
  0
BLOCK
  5
1DD
100
AcDbEntity
  8
0
100
AcDbBlockBegin
  2
*D41
 70
     1
 10
0.0
 20
0.0
 30
0.0
  3
*D41
  1

  0
LINE
  5
1DE
100
AcDbEntity
  8
0
  6
BYBLOCK
 62
     7
100
AcDbLine
 10
687.460022
 20
184.695007
 30
0.0
 11
715.757996
 21
184.695007
 31
0.0
  0
LINE
  5
1DF
100
AcDbEntity
  8
0
  6
BYBLOCK
 62
     7
100
AcDbLine
 10
687.460022
 20
74.694901
 30
0.0
 11
715.757996
 21
74.694901
 31
0.0
  0
LINE
  5
1E0
100
AcDbEntity
  8
0
  6
BYBLOCK
 62
     7
100
AcDbLine
 10
714.257996
 20
184.695007
 30
0.0
 11
714.257996
 21
74.694901
 31
0.0
  0
LINE
  5
1E1
100
AcDbEntity
  8
0
  6
BYBLOCK
 62
     7
100
AcDbLine
 10
714.257996
 20
184.695007
 30
0.0
 11
713.481567
 21
181.797226
 31
0.0
  0
LINE
  5
1E2
100
AcDbEntity
  8
0
  6
BYBLOCK
 62
     7
100
AcDbLine
 10
714.257996
 20
184.695007
 30
0.0
 11
715.034424
 21
181.797226
 31
0.0
  0
LINE
  5
1E3
100
AcDbEntity
  8
0
  6
BYBLOCK
 62
     7
100
AcDbLine
 10
714.257996
 20
74.694901
 30
0.0
 11
715.034424
 21
77.592674
 31
0.0
  0
LINE
  5
1E4
100
AcDbEntity
  8
0
  6
BYBLOCK
 62
     7
100
AcDbLine
 10
714.257996
 20
74.694901
 30
0.0
 11
713.481567
 21
77.592674
 31
0.0
  0
TEXT
  5
1E5
100
AcDbEntity
  8
0
 62
     7
100
AcDbText
 10
713.051453
 20
124.96611
 30
0.0
 40
3.0
  1
110
 50
89.900002
 41
1.17
100
AcDbText
  0
ENDBLK
  5
1E6
100
AcDbEntity
  8
0
100
AcDbBlockEnd
  0
BLOCK
  5
1E8
100
AcDbEntity
  8
0
100
AcDbBlockBegin
  2
*D42
 70
     1
 10
0.0
 20
0.0
 30
0.0
  3
*D42
  1

  0
LINE
  5
1E9
100
AcDbEntity
  8
0
  6
BYBLOCK
 62
     7
100
AcDbLine
 10
634.460022
 20
164.695007
 30
0.0
 11
634.460022
 21
155.503998
 31
0.0
  0
LINE
  5
1EA
100
AcDbEntity
  8
0
  6
BYBLOCK
 62
     7
100
AcDbLine
 10
680.460022
 20
164.695007
 30
0.0
 11
680.460022
 21
155.503998
 31
0.0
  0
LINE
  5
1EB
100
AcDbEntity
  8
0
  6
BYBLOCK
 62
     7
100
AcDbLine
 10
634.460022
 20
157.003998
 30
0.0
 11
680.460022
 21
157.003998
 31
0.0
  0
LINE
  5
1EC
100
AcDbEntity
  8
0
  6
BYBLOCK
 62
     7
100
AcDbLine
 10
634.460022
 20
157.003998
 30
0.0
 11
637.357788
 21
156.227539
 31
0.0
  0
LINE
  5
1ED
100
AcDbEntity
  8
0
  6
BYBLOCK
 62
     7
100
AcDbLine
 10
634.460022
 20
157.003998
 30
0.0
 11
637.357788
 21
157.780457
 31
0.0
  0
LINE
  5
1EE
100
AcDbEntity
  8
0
  6
BYBLOCK
 62
     7
100
AcDbLine
 10
680.460022
 20
157.003998
 30
0.0
 11
677.562256
 21
157.780457
 31
0.0
  0
LINE
  5
1EF
100
AcDbEntity
  8
0
  6
BYBLOCK
 62
     7
100
AcDbLine
 10
680.460022
 20
157.003998
 30
0.0
 11
677.562256
 21
156.227539
 31
0.0
  0
TEXT
  5
1F0
100
AcDbEntity
  8
0
 62
     7
100
AcDbText
 10
654.960022
 20
158.203995
 30
0.0
 40
3.0
  1
46
 41
0.96
100
AcDbText
  0
ENDBLK
  5
1F1
100
AcDbEntity
  8
0
100
AcDbBlockEnd
  0
BLOCK
  5
1F3
100
AcDbEntity
  8
0
100
AcDbBlockBegin
  2
*D43
 70
     1
 10
0.0
 20
0.0
 30
0.0
  3
*D43
  1

  0
LINE
  5
1F4
100
AcDbEntity
  8
0
  6
BYBLOCK
 62
     7
100
AcDbLine
 10
627.460022
 20
74.694901
 30
0.0
 11
627.460022
 21
98.464699
 31
0.0
  0
LINE
  5
1F5
100
AcDbEntity
  8
0
  6
BYBLOCK
 62
     7
100
AcDbLine
 10
687.460022
 20
74.694901
 30
0.0
 11
687.460022
 21
98.464699
 31
0.0
  0
LINE
  5
1F6
100
AcDbEntity
  8
0
  6
BYBLOCK
 62
     7
100
AcDbLine
 10
627.460022
 20
96.964699
 30
0.0
 11
687.460022
 21
96.964699
 31
0.0
  0
LINE
  5
1F7
100
AcDbEntity
  8
0
  6
BYBLOCK
 62
     7
100
AcDbLine
 10
627.460022
 20
96.964699
 30
0.0
 11
630.357788
 21
96.18824
 31
0.0
  0
LINE
  5
1F8
100
AcDbEntity
  8
0
  6
BYBLOCK
 62
     7
100
AcDbLine
 10
627.460022
 20
96.964699
 30
0.0
 11
630.357788
 21
97.741158
 31
0.0
  0
LINE
  5
1F9
100
AcDbEntity
  8
0
  6
BYBLOCK
 62
     7
100
AcDbLine
 10
687.460022
 20
96.964699
 30
0.0
 11
684.562256
 21
97.741158
 31
0.0
  0
LINE
  5
1FA
100
AcDbEntity
  8
0
  6
BYBLOCK
 62
     7
100
AcDbLine
 10
687.460022
 20
96.964699
 30
0.0
 11
684.562256
 21
96.18824
 31
0.0
  0
TEXT
  5
1FB
100
AcDbEntity
  8
0
 62
     7
100
AcDbText
 10
654.960022
 20
98.164696
 30
0.0
 40
3.0
  1
60
 41
0.96
100
AcDbText
  0
ENDBLK
  5
1FC
100
AcDbEntity
  8
0
100
AcDbBlockEnd
  0
BLOCK
  5
1FE
100
AcDbEntity
  8
0
100
AcDbBlockBegin
  2
*D44
 70
     1
 10
0.0
 20
0.0
 30
0.0
  3
*D44
  1

  0
LINE
  5
1FF
100
AcDbEntity
  8
0
  6
BYBLOCK
 62
     7
100
AcDbLine
 10
627.460022
 20
74.694901
 30
0.0
 11
627.460022
 21
110.791
 31
0.0
  0
LINE
  5
200
100
AcDbEntity
  8
0
  6
BYBLOCK
 62
     7
100
AcDbLine
 10
657.460022
 20
119.695
 30
0.0
 11
657.460022
 21
107.791
 31
0.0
  0
LINE
  5
201
100
AcDbEntity
  8
0
  6
BYBLOCK
 62
     7
100
AcDbLine
 10
627.460022
 20
109.291
 30
0.0
 11
657.460022
 21
109.291
 31
0.0
  0
LINE
  5
202
100
AcDbEntity
  8
0
  6
BYBLOCK
 62
     7
100
AcDbLine
 10
627.460022
 20
109.291
 30
0.0
 11
630.357788
 21
108.514542
 31
0.0
  0
LINE
  5
203
100
AcDbEntity
  8
0
  6
BYBLOCK
 62
     7
100
AcDbLine
 10
627.460022
 20
109.291
 30
0.0
 11
630.357788
 21
110.067459
 31
0.0
  0
LINE
  5
204
100
AcDbEntity
  8
0
  6
BYBLOCK
 62
     7
100
AcDbLine
 10
657.460022
 20
109.291
 30
0.0
 11
654.562256
 21
110.067459
 31
0.0
  0
LINE
  5
205
100
AcDbEntity
  8
0
  6
BYBLOCK
 62
     7
100
AcDbLine
 10
657.460022
 20
109.291
 30
0.0
 11
654.562256
 21
108.514542
 31
0.0
  0
TEXT
  5
206
100
AcDbEntity
  8
0
 62
     7
100
AcDbText
 10
641.07605
 20
110.495361
 30
0.0
 40
3.0
  1
30
 50
359.899994
 41
0.96
100
AcDbText
  0
ENDBLK
  5
207
100
AcDbEntity
  8
0
100
AcDbBlockEnd
  0
BLOCK
  5
209
100
AcDbEntity
  8
0
100
AcDbBlockBegin
  2
*D45
 70
     1
 10
0.0
 20
0.0
 30
0.0
  3
*D45
  1

  0
LINE
  5
20A
100
AcDbEntity
  8
0
  6
BYBLOCK
 62
     7
100
AcDbLine
 10
177.136993
 20
41.281502
 30
0.0
 11
214.242004
 21
41.281502
 31
0.0
  0
LINE
  5
20B
100
AcDbEntity
  8
0
  6
BYBLOCK
 62
     7
100
AcDbLine
 10
233.606003
 20
5.00002
 30
0.0
 11
211.242004
 21
5.00002
 31
0.0
  0
LINE
  5
20C
100
AcDbEntity
  8
0
  6
BYBLOCK
 62
     7
100
AcDbLine
 10
212.742004
 20
41.281502
 30
0.0
 11
212.742004
 21
5.00002
 31
0.0
  0
LINE
  5
20D
100
AcDbEntity
  8
0
  6
BYBLOCK
 62
     7
100
AcDbLine
 10
212.742004
 20
41.281502
 30
0.0
 11
211.965546
 21
38.383724
 31
0.0
  0
LINE
  5
20E
100
AcDbEntity
  8
0
  6
BYBLOCK
 62
     7
100
AcDbLine
 10
212.742004
 20
41.281502
 30
0.0
 11
213.518463
 21
38.383724
 31
0.0
  0
LINE
  5
20F
100
AcDbEntity
  8
0
  6
BYBLOCK
 62
     7
100
AcDbLine
 10
212.742004
 20
5.00002
 30
0.0
 11
213.518463
 21
7.897798
 31
0.0
  0
LINE
  5
210
100
AcDbEntity
  8
0
  6
BYBLOCK
 62
     7
100
AcDbLine
 10
212.742004
 20
5.00002
 30
0.0
 11
211.965546
 21
7.897798
 31
0.0
  0
TEXT
  5
211
100
AcDbEntity
  8
0
 62
     7
100
AcDbText
 10
211.528915
 20
15.642906
 30
0.0
 40
3.0
  1
(36.3)
 50
89.900002
 41
0.84
100
AcDbText
  0
ENDBLK
  5
212
100
AcDbEntity
  8
0
100
AcDbBlockEnd
  0
BLOCK
  5
214
100
AcDbEntity
  8
0
100
AcDbBlockBegin
  2
*D46
 70
     1
 10
0.0
 20
0.0
 30
0.0
  3
*D46
  1

  0
LINE
  5
215
100
AcDbEntity
  8
0
  6
BYBLOCK
 62
     7
100
AcDbLine
 10
558.791992
 20
40.288502
 30
0.0
 11
552.86499
 21
40.288502
 31
0.0
  0
LINE
  5
216
100
AcDbEntity
  8
0
  6
BYBLOCK
 62
     7
100
AcDbLine
 10
563.304993
 20
4.00002
 30
0.0
 11
552.86499
 21
4.00002
 31
0.0
  0
LINE
  5
217
100
AcDbEntity
  8
0
  6
BYBLOCK
 62
     7
100
AcDbLine
 10
554.36499
 20
40.288502
 30
0.0
 11
554.36499
 21
4.00002
 31
0.0
  0
LINE
  5
218
100
AcDbEntity
  8
0
  6
BYBLOCK
 62
     7
100
AcDbLine
 10
554.36499
 20
40.288502
 30
0.0
 11
553.588562
 21
37.390724
 31
0.0
  0
LINE
  5
219
100
AcDbEntity
  8
0
  6
BYBLOCK
 62
     7
100
AcDbLine
 10
554.36499
 20
40.288502
 30
0.0
 11
555.141418
 21
37.390724
 31
0.0
  0
LINE
  5
21A
100
AcDbEntity
  8
0
  6
BYBLOCK
 62
     7
100
AcDbLine
 10
554.36499
 20
4.00002
 30
0.0
 11
555.141418
 21
6.897798
 31
0.0
  0
LINE
  5
21B
100
AcDbEntity
  8
0
  6
BYBLOCK
 62
     7
100
AcDbLine
 10
554.36499
 20
4.00002
 30
0.0
 11
553.588562
 21
6.897798
 31
0.0
  0
TEXT
  5
21C
100
AcDbEntity
  8
0
 62
     7
100
AcDbText
 10
553.151917
 20
14.363007
 30
0.0
 40
3.0
  1
(36.3)
 50
89.900002
 41
0.84
100
AcDbText
  0
ENDBLK
  5
21D
100
AcDbEntity
  8
0
100
AcDbBlockEnd
  0
BLOCK
  5
21F
100
AcDbEntity
  8
0
100
AcDbBlockBegin
  2
*D47
 70
     1
 10
0.0
 20
0.0
 30
0.0
  3
*D47
  1

  0
LINE
  5
220
100
AcDbEntity
  8
0
  6
BYBLOCK
 62
     7
100
AcDbLine
 10
391.855011
 20
40.281502
 30
0.0
 11
391.855011
 21
48.474998
 31
0.0
  0
LINE
  5
221
100
AcDbEntity
  8
0
  6
BYBLOCK
 62
     7
100
AcDbLine
 10
505.855011
 20
40.281502
 30
0.0
 11
505.855011
 21
48.474998
 31
0.0
  0
LINE
  5
222
100
AcDbEntity
  8
0
  6
BYBLOCK
 62
     7
100
AcDbLine
 10
391.855011
 20
46.974998
 30
0.0
 11
505.855011
 21
46.974998
 31
0.0
  0
LINE
  5
223
100
AcDbEntity
  8
0
  6
BYBLOCK
 62
     7
100
AcDbLine
 10
391.855011
 20
46.974998
 30
0.0
 11
394.752777
 21
46.19854
 31
0.0
  0
LINE
  5
224
100
AcDbEntity
  8
0
  6
BYBLOCK
 62
     7
100
AcDbLine
 10
391.855011
 20
46.974998
 30
0.0
 11
394.752777
 21
47.751457
 31
0.0
  0
LINE
  5
225
100
AcDbEntity
  8
0
  6
BYBLOCK
 62
     7
100
AcDbLine
 10
505.855011
 20
46.974998
 30
0.0
 11
502.957245
 21
47.751453
 31
0.0
  0
LINE
  5
226
100
AcDbEntity
  8
0
  6
BYBLOCK
 62
     7
100
AcDbLine
 10
505.855011
 20
46.974998
 30
0.0
 11
502.957245
 21
46.19854
 31
0.0
  0
TEXT
  5
227
100
AcDbEntity
  8
0
 62
     7
100
AcDbText
 10
442.709106
 20
48.185905
 30
0.0
 40
3.0
  1
(114)
 50
359.899994
 41
0.92
100
AcDbText
  0
ENDBLK
  5
228
100
AcDbEntity
  8
0
100
AcDbBlockEnd
  0
BLOCK
  5
22A
100
AcDbEntity
  8
0
100
AcDbBlockBegin
  2
*D48
 70
     1
 10
0.0
 20
0.0
 30
0.0
  3
*D48
  1

  0
LINE
  5
22B
100
AcDbEntity
  8
0
  6
BYBLOCK
 62
     7
100
AcDbLine
 10
558.791992
 20
39.288502
 30
0.0
 11
558.791992
 21
-45.110401
 31
0.0
  0
LINE
  5
22C
100
AcDbEntity
  8
0
  6
BYBLOCK
 62
     7
100
AcDbLine
 10
618.992004
 20
-20.766899
 30
0.0
 11
618.992004
 21
-45.110401
 31
0.0
  0
LINE
  5
22D
100
AcDbEntity
  8
0
  6
BYBLOCK
 62
     7
100
AcDbLine
 10
558.791992
 20
-43.610401
 30
0.0
 11
618.992004
 21
-43.610401
 31
0.0
  0
LINE
  5
22E
100
AcDbEntity
  8
0
  6
BYBLOCK
 62
     7
100
AcDbLine
 10
558.791992
 20
-43.610401
 30
0.0
 11
561.689758
 21
-44.38686
 31
0.0
  0
LINE
  5
22F
100
AcDbEntity
  8
0
  6
BYBLOCK
 62
     7
100
AcDbLine
 10
558.791992
 20
-43.610401
 30
0.0
 11
561.689758
 21
-42.833942
 31
0.0
  0
LINE
  5
230
100
AcDbEntity
  8
0
  6
BYBLOCK
 62
     7
100
AcDbLine
 10
618.992004
 20
-43.610401
 30
0.0
 11
616.094238
 21
-42.833946
 31
0.0
  0
LINE
  5
231
100
AcDbEntity
  8
0
  6
BYBLOCK
 62
     7
100
AcDbLine
 10
618.992004
 20
-43.610401
 30
0.0
 11
616.094238
 21
-44.38686
 31
0.0
  0
TEXT
  5
232
100
AcDbEntity
  8
0
 62
     7
100
AcDbText
 10
581.392029
 20
-42.4104
 30
0.0
 40
3.0
  1
(60.2)
 41
0.876522
100
AcDbText
  0
ENDBLK
  5
233
100
AcDbEntity
  8
0
100
AcDbBlockEnd
  0
BLOCK
  5
235
100
AcDbEntity
  8
0
100
AcDbBlockBegin
  2
*D49
 70
     1
 10
0.0
 20
0.0
 30
0.0
  3
*D49
  1

  0
LINE
  5
236
100
AcDbEntity
  8
0
  6
BYBLOCK
 62
     7
100
AcDbLine
 10
-57.0
 20
41.281502
 30
0.0
 11
-57.0
 21
53.383301
 31
0.0
  0
LINE
  5
237
100
AcDbEntity
  8
0
  6
BYBLOCK
 62
     7
100
AcDbLine
 10
57.0
 20
41.281502
 30
0.0
 11
57.0
 21
53.383301
 31
0.0
  0
LINE
  5
238
100
AcDbEntity
  8
0
  6
BYBLOCK
 62
     7
100
AcDbLine
 10
-57.0
 20
51.883301
 30
0.0
 11
57.0
 21
51.883301
 31
0.0
  0
LINE
  5
239
100
AcDbEntity
  8
0
  6
BYBLOCK
 62
     7
100
AcDbLine
 10
-57.0
 20
51.883301
 30
0.0
 11
-54.102222
 21
51.106842
 31
0.0
  0
LINE
  5
23A
100
AcDbEntity
  8
0
  6
BYBLOCK
 62
     7
100
AcDbLine
 10
-57.0
 20
51.883301
 30
0.0
 11
-54.102222
 21
52.65976
 31
0.0
  0
LINE
  5
23B
100
AcDbEntity
  8
0
  6
BYBLOCK
 62
     7
100
AcDbLine
 10
57.0
 20
51.883301
 30
0.0
 11
54.102222
 21
52.659756
 31
0.0
  0
LINE
  5
23C
100
AcDbEntity
  8
0
  6
BYBLOCK
 62
     7
100
AcDbLine
 10
57.0
 20
51.883301
 30
0.0
 11
54.102222
 21
51.106842
 31
0.0
  0
TEXT
  5
23D
100
AcDbEntity
  8
0
 62
     7
100
AcDbText
 10
-6.249985
 20
53.083302
 30
0.0
 40
3.0
  1
(114)
 41
0.92
100
AcDbText
  0
ENDBLK
  5
23E
100
AcDbEntity
  8
0
100
AcDbBlockEnd
  0
BLOCK
  5
240
100
AcDbEntity
  8
0
100
AcDbBlockBegin
  2
*D50
 70
     1
 10
0.0
 20
0.0
 30
0.0
  3
*D50
  1

  0
LINE
  5
241
100
AcDbEntity
  8
0
  6
BYBLOCK
 62
     7
100
AcDbLine
 10
119.936996
 20
41.281502
 30
0.0
 11
119.936996
 21
60.557499
 31
0.0
  0
LINE
  5
242
100
AcDbEntity
  8
0
  6
BYBLOCK
 62
     7
100
AcDbLine
 10
180.136993
 20
29.766899
 30
0.0
 11
180.136993
 21
60.557499
 31
0.0
  0
LINE
  5
243
100
AcDbEntity
  8
0
  6
BYBLOCK
 62
     7
100
AcDbLine
 10
119.936996
 20
59.057499
 30
0.0
 11
180.136993
 21
59.057499
 31
0.0
  0
LINE
  5
244
100
AcDbEntity
  8
0
  6
BYBLOCK
 62
     7
100
AcDbLine
 10
119.936996
 20
59.057499
 30
0.0
 11
122.83477
 21
58.28104
 31
0.0
  0
LINE
  5
245
100
AcDbEntity
  8
0
  6
BYBLOCK
 62
     7
100
AcDbLine
 10
119.936996
 20
59.057499
 30
0.0
 11
122.83477
 21
59.833958
 31
0.0
  0
LINE
  5
246
100
AcDbEntity
  8
0
  6
BYBLOCK
 62
     7
100
AcDbLine
 10
180.136993
 20
59.057499
 30
0.0
 11
177.239212
 21
59.833954
 31
0.0
  0
LINE
  5
247
100
AcDbEntity
  8
0
  6
BYBLOCK
 62
     7
100
AcDbLine
 10
180.136993
 20
59.057499
 30
0.0
 11
177.239212
 21
58.28104
 31
0.0
  0
TEXT
  5
248
100
AcDbEntity
  8
0
 62
     7
100
AcDbText
 10
142.537003
 20
60.2575
 30
0.0
 40
3.0
  1
(60.2)
 41
0.876522
100
AcDbText
  0
ENDBLK
  5
249
100
AcDbEntity
  8
0
100
AcDbBlockEnd
  0
BLOCK
  5
BF6
100
AcDbEntity
  8
0
100
AcDbBlockBegin
  2
外形枠
 70
     0
 10
0.0
 20
0.0
 30
0.0
  3
外形枠
  1

  0
LINE
  5
BE4
102
{ACAD_REACTORS
330
C0E
102
}
100
AcDbEntity
  8
0
100
AcDbLine
 10
0.0
 20
0.0
 30
0.0
 11
0.0
 21
210.0
 31
0.0
  0
LINE
  5
BE5
102
{ACAD_REACTORS
330
C0E
102
}
100
AcDbEntity
  8
0
100
AcDbLine
 10
0.0
 20
210.0
 30
0.0
 11
297.0
 21
210.0
 31
0.0
  0
LINE
  5
BE6
102
{ACAD_REACTORS
330
C0E
102
}
100
AcDbEntity
  8
0
100
AcDbLine
 10
297.0
 20
210.0
 30
0.0
 11
297.0
 21
0.0
 31
0.0
  0
LINE
  5
BE7
102
{ACAD_REACTORS
330
C0E
102
}
100
AcDbEntity
  8
0
100
AcDbLine
 10
297.0
 20
0.0
 30
0.0
 11
0.0
 21
0.0
 31
0.0
  0
LINE
  5
BE8
102
{ACAD_REACTORS
330
C0D
102
}
100
AcDbEntity
  8
0
100
AcDbLine
 10
6.0
 20
6.0
 30
0.0
 11
6.0
 21
204.0
 31
0.0
  0
LINE
  5
BE9
102
{ACAD_REACTORS
330
C0D
102
}
100
AcDbEntity
  8
0
100
AcDbLine
 10
6.0
 20
204.0
 30
0.0
 11
292.0
 21
204.0
 31
0.0
  0
LINE
  5
BEA
102
{ACAD_REACTORS
330
C0D
102
}
100
AcDbEntity
  8
0
100
AcDbLine
 10
292.0
 20
204.0
 30
0.0
 11
292.0
 21
6.0
 31
0.0
  0
LINE
  5
BEB
102
{ACAD_REACTORS
330
C0D
102
}
100
AcDbEntity
  8
0
100
AcDbLine
 10
292.0
 20
6.0
 30
0.0
 11
6.0
 21
6.0
 31
0.0
  0
LINE
  5
BEC
100
AcDbEntity
  8
0
100
AcDbLine
 10
287.0
 20
10.0
 30
0.0
 11
207.0
 21
10.0
 31
0.0
  0
LINE
  5
BED
100
AcDbEntity
  8
0
100
AcDbLine
 10
287.0
 20
26.0
 30
0.0
 11
287.0
 21
10.0
 31
0.0
  0
LINE
  5
BEE
100
AcDbEntity
  8
0
100
AcDbLine
 10
287.0
 20
18.0
 30
0.0
 11
207.0
 21
18.0
 31
0.0
  0
LINE
  5
BEF
100
AcDbEntity
  8
0
100
AcDbLine
 10
287.0
 20
26.0
 30
0.0
 11
207.0
 21
26.0
 31
0.0
  0
LINE
  5
BF0
100
AcDbEntity
  8
0
100
AcDbLine
 10
227.0
 20
26.0
 30
0.0
 11
227.0
 21
10.0
 31
0.0
  0
LINE
  5
BF1
100
AcDbEntity
  8
0
100
AcDbLine
 10
207.0
 20
26.0
 30
0.0
 11
207.0
 21
10.0
 31
0.0
  0
TEXT
  5
BF2
100
AcDbEntity
  8
0
100
AcDbText
 10
212.93529
 20
19.671686
 30
0.0
 40
4.0
  1
品名
  7
STANDARD1
100
AcDbText
  0
TEXT
  5
BF3
100
AcDbEntity
  8
0
100
AcDbText
 10
212.93529
 20
11.671686
 30
0.0
 40
4.0
  1
型名
  7
STANDARD1
100
AcDbText
  0
TEXT
  5
BF4
100
AcDbEntity
  8
0
100
AcDbText
 10
228.93529
 20
19.671686
 30
0.0
 40
4.0
  1
カラーカメラ
  7
STANDARD1
100
AcDbText
  0
TEXT
  5
BF5
100
AcDbEntity
  8
0
100
AcDbText
 10
228.93529
 20
11.671686
 30
0.0
 40
4.0
  1
CIT-771
  7
STANDARD1
100
AcDbText
  0
ENDBLK
  5
BF7
100
AcDbEntity
  8
0
100
AcDbBlockEnd
  0
BLOCK
  5
C25
100
AcDbEntity
  8
0
100
AcDbBlockBegin
  2
外形枠２
 70
     0
 10
0.0
 20
0.0
 30
0.0
  3
外形枠２
  1

  0
TEXT
  5
C12
100
AcDbEntity
  8
1
  6
CONTINUOUS
 62
     7
100
AcDbText
 10
6.531
 20
42.913
 30
0.0
 40
2.304
  1
　
 41
0.573
  7
KANJI
100
AcDbText
  0
LINE
  5
C13
102
{ACAD_REACTORS
330
C10
102
}
100
AcDbEntity
  8
0
100
AcDbLine
 10
-6.0
 20
-6.0
 30
0.0
 11
-6.0
 21
204.0
 31
0.0
  0
LINE
  5
C14
102
{ACAD_REACTORS
330
C10
102
}
100
AcDbEntity
  8
0
100
AcDbLine
 10
-6.0
 20
204.0
 30
0.0
 11
291.0
 21
204.0
 31
0.0
  0
LINE
  5
C15
102
{ACAD_REACTORS
330
C10
102
}
100
AcDbEntity
  8
0
100
AcDbLine
 10
291.0
 20
204.0
 30
0.0
 11
291.0
 21
-6.0
 31
0.0
  0
LINE
  5
C16
102
{ACAD_REACTORS
330
C10
102
}
100
AcDbEntity
  8
0
100
AcDbLine
 10
291.0
 20
-6.0
 30
0.0
 11
-6.0
 21
-6.0
 31
0.0
  0
LINE
  5
C17
102
{ACAD_REACTORS
330
C0F
102
}
100
AcDbEntity
  8
0
100
AcDbLine
 10
0.0
 20
0.0
 30
0.0
 11
0.0
 21
198.0
 31
0.0
  0
LINE
  5
C18
102
{ACAD_REACTORS
330
C0F
102
}
100
AcDbEntity
  8
0
100
AcDbLine
 10
0.0
 20
198.0
 30
0.0
 11
286.0
 21
198.0
 31
0.0
  0
LINE
  5
C19
102
{ACAD_REACTORS
330
C0F
102
}
100
AcDbEntity
  8
0
100
AcDbLine
 10
286.0
 20
198.0
 30
0.0
 11
286.0
 21
0.0
 31
0.0
  0
LINE
  5
C1A
102
{ACAD_REACTORS
330
C0F
102
}
100
AcDbEntity
  8
0
100
AcDbLine
 10
286.0
 20
0.0
 30
0.0
 11
0.0
 21
0.0
 31
0.0
  0
LINE
  5
C1B
100
AcDbEntity
  8
0
100
AcDbLine
 10
281.0
 20
4.0
 30
0.0
 11
201.0
 21
4.0
 31
0.0
  0
LINE
  5
C1C
100
AcDbEntity
  8
0
100
AcDbLine
 10
281.0
 20
20.0
 30
0.0
 11
281.0
 21
4.0
 31
0.0
  0
LINE
  5
C1D
100
AcDbEntity
  8
0
100
AcDbLine
 10
281.0
 20
12.0
 30
0.0
 11
201.0
 21
12.0
 31
0.0
  0
LINE
  5
C1E
100
AcDbEntity
  8
0
100
AcDbLine
 10
281.0
 20
20.0
 30
0.0
 11
201.0
 21
20.0
 31
0.0
  0
LINE
  5
C1F
100
AcDbEntity
  8
0
100
AcDbLine
 10
221.0
 20
20.0
 30
0.0
 11
221.0
 21
4.0
 31
0.0
  0
LINE
  5
C20
100
AcDbEntity
  8
0
100
AcDbLine
 10
201.0
 20
20.0
 30
0.0
 11
201.0
 21
4.0
 31
0.0
  0
TEXT
  5
C21
100
AcDbEntity
  8
0
100
AcDbText
 10
206.93529
 20
13.671686
 30
0.0
 40
4.0
  1
品名
  7
STANDARD1
100
AcDbText
  0
TEXT
  5
C22
100
AcDbEntity
  8
0
100
AcDbText
 10
206.93529
 20
5.671686
 30
0.0
 40
4.0
  1
型名
  7
STANDARD1
100
AcDbText
  0
TEXT
  5
C23
100
AcDbEntity
  8
0
100
AcDbText
 10
222.93529
 20
13.671686
 30
0.0
 40
4.0
  1
カラーカメラ
  7
STANDARD1
100
AcDbText
  0
TEXT
  5
C24
100
AcDbEntity
  8
0
100
AcDbText
 10
222.93529
 20
5.671686
 30
0.0
 40
4.0
  1
CIT-7110
  7
STANDARD1
100
AcDbText
  0
ENDBLK
  5
C26
100
AcDbEntity
  8
0
100
AcDbBlockEnd
  0
ENDSEC
  0
SECTION
  2
ENTITIES
  0
POINT
  5
24D
100
AcDbEntity
  8
0
 62
     7
100
AcDbPoint
 10
98.000011
 20
148.967501
 30
0.0
  0
POINT
  5
24E
100
AcDbEntity
  8
0
 62
     7
100
AcDbPoint
 10
98.000011
 20
148.967501
 30
0.0
  0
POINT
  5
24F
100
AcDbEntity
  8
0
 62
     7
100
AcDbPoint
 10
217.0679
 20
64.600014
 30
0.0
  0
POINT
  5
250
100
AcDbEntity
  8
0
 62
     7
100
AcDbPoint
 10
217.0679
 20
64.600014
 30
0.0
  0
POINT
  5
251
100
AcDbEntity
  8
0
 62
     7
100
AcDbPoint
 10
218.4679
 20
82.01705
 30
0.0
  0
POINT
  5
252
100
AcDbEntity
  8
0
 62
     7
100
AcDbPoint
 10
218.4679
 20
82.01705
 30
0.0
  0
POINT
  5
254
100
AcDbEntity
  8
0
 62
     7
100
AcDbPoint
 10
227.595895
 20
82.01705
 30
0.0
  0
POINT
  5
255
100
AcDbEntity
  8
0
 62
     7
100
AcDbPoint
 10
218.4679
 20
47.17805
 30
0.0
  0
POINT
  5
256
100
AcDbEntity
  8
0
 62
     7
100
AcDbPoint
 10
58.1
 20
123.908551
 30
0.0
  0
POINT
  5
257
100
AcDbEntity
  8
0
 62
     7
100
AcDbPoint
 10
98.000011
 20
64.600014
 30
0.0
  0
LINE
  5
372
100
AcDbEntity
  8
0
  6
CONTINUOUS
 62
     7
100
AcDbLine
 10
51.45
 20
69.15
 30
0.0
 11
51.45
 21
60.050014
 31
0.0
  0
LINE
  5
373
100
AcDbEntity
  8
0
  6
CONTINUOUS
 62
     7
100
AcDbLine
 10
51.45
 20
67.400014
 30
0.0
 11
51.45
 21
67.400014
 31
0.0
  0
LINE
  5
375
100
AcDbEntity
  8
0
  6
CONTINUOUS
 62
     7
100
AcDbLine
 10
144.55
 20
67.400014
 30
0.0
 11
144.55
 21
67.400014
 31
0.0
  0
LINE
  5
376
100
AcDbEntity
  8
0
  6
CONTINUOUS
 62
     7
100
AcDbLine
 10
144.55
 20
69.15
 30
0.0
 11
144.55
 21
60.050014
 31
0.0
  0
LINE
  5
378
100
AcDbEntity
  8
0
  6
CENTER
 62
     7
100
AcDbLine
 10
185.114998
 20
64.600014
 30
0.0
 11
261.524202
 21
64.600014
 31
0.0
  0
LINE
  5
379
100
AcDbEntity
  8
0
  6
CENTER
 62
     7
100
AcDbLine
 10
210.464801
 20
58.270061
 30
0.0
 11
210.464801
 21
98.57975
 31
0.0
  0
LINE
  5
37A
100
AcDbEntity
  8
0
  6
CONTINUOUS
 62
     7
100
AcDbLine
 10
144.55
 20
145.817501
 30
0.0
 11
144.55
 21
139.724
 31
0.0
  0
LINE
  5
3F6
100
AcDbEntity
  8
0
  6
CONTINUOUS
 62
     7
100
AcDbLine
 10
50.75
 20
69.15
 30
0.0
 11
49.139998
 21
69.15
 31
0.0
  0
LINE
  5
3F7
100
AcDbEntity
  8
0
  6
CONTINUOUS
 62
     7
100
AcDbLine
 10
50.75
 20
39.31754
 30
0.0
 11
50.75
 21
69.15
 31
0.0
  0
LINE
  5
3F8
100
AcDbEntity
  8
0
  6
CONTINUOUS
 62
     7
100
AcDbLine
 10
51.897999
 20
69.15
 30
0.0
 11
50.75
 21
69.15
 31
0.0
  0
LINE
  5
3F9
100
AcDbEntity
  8
0
  6
CONTINUOUS
 62
     7
100
AcDbLine
 10
49.139998
 20
69.15
 30
0.0
 11
48.439998
 21
69.15
 31
0.0
  0
LINE
  5
3FA
100
AcDbEntity
  8
0
  6
CONTINUOUS
 62
     7
100
AcDbLine
 10
49.139998
 20
39.789059
 30
0.0
 11
49.139998
 21
69.15
 31
0.0
  0
LINE
  5
3FB
100
AcDbEntity
  8
0
  6
CONTINUOUS
 62
     7
100
AcDbLine
 10
48.439998
 20
60.050014
 30
0.0
 11
48.439998
 21
69.15
 31
0.0
  0
LINE
  5
3FC
100
AcDbEntity
  8
0
  6
CONTINUOUS
 62
     7
100
AcDbLine
 10
52.639998
 20
36.289061
 30
0.0
 11
143.360002
 21
36.289061
 31
0.0
  0
LINE
  5
3FD
100
AcDbEntity
  8
0
  6
CONTINUOUS
 62
     7
100
AcDbLine
 10
52.639998
 20
37.427541
 30
0.0
 11
143.360002
 21
37.427541
 31
0.0
  0
LINE
  5
3FE
100
AcDbEntity
  8
0
  6
CONTINUOUS
 62
     7
100
AcDbLine
 10
44.275983
 20
67.820007
 30
0.0
 11
46.830001
 21
67.820007
 31
0.0
  0
LINE
  5
3FF
100
AcDbEntity
  8
0
  6
CONTINUOUS
 62
     7
100
AcDbLine
 10
44.275983
 20
66.210007
 30
0.0
 11
46.830001
 21
66.210007
 31
0.0
  0
LINE
  5
400
100
AcDbEntity
  8
0
  6
CONTINUOUS
 62
     7
100
AcDbLine
 10
46.830001
 20
67.820014
 30
0.0
 11
46.830001
 21
61.380011
 31
0.0
  0
LINE
  5
401
100
AcDbEntity
  8
0
  6
CONTINUOUS
 62
     7
100
AcDbLine
 10
46.830001
 20
67.820007
 30
0.0
 11
47.739998
 21
67.820007
 31
0.0
  0
LINE
  5
402
100
AcDbEntity
  8
0
  6
CONTINUOUS
 62
     7
100
AcDbLine
 10
47.739998
 20
68.1
 30
0.0
 11
47.739998
 21
61.100011
 31
0.0
  0
LINE
  5
403
100
AcDbEntity
  8
0
  6
CONTINUOUS
 62
     7
100
AcDbLine
 10
47.739998
 20
68.1
 30
0.0
 11
48.439998
 21
68.1
 31
0.0
  0
LINE
  5
404
100
AcDbEntity
  8
0
  6
CONTINUOUS
 62
     7
100
AcDbLine
 10
46.830001
 20
65.32037
 30
0.0
 11
47.739998
 21
65.845762
 31
0.0
  0
LINE
  5
405
100
AcDbEntity
  8
0
  6
CONTINUOUS
 62
     7
100
AcDbLine
 10
46.830001
 20
64.51208
 30
0.0
 11
47.739998
 21
65.037465
 31
0.0
  0
LINE
  5
406
100
AcDbEntity
  8
0
  6
CONTINUOUS
 62
     7
100
AcDbLine
 10
46.830001
 20
61.380012
 30
0.0
 11
47.739998
 21
61.380012
 31
0.0
  0
LINE
  5
407
100
AcDbEntity
  8
0
  6
CONTINUOUS
 62
     7
100
AcDbLine
 10
44.275983
 20
61.380012
 30
0.0
 11
46.830001
 21
61.380012
 31
0.0
  0
LINE
  5
408
100
AcDbEntity
  8
0
  6
CONTINUOUS
 62
     7
100
AcDbLine
 10
47.739998
 20
61.100011
 30
0.0
 11
48.439998
 21
61.100011
 31
0.0
  0
LINE
  5
409
100
AcDbEntity
  8
0
  6
CONTINUOUS
 62
     7
100
AcDbLine
 10
44.275983
 20
62.990014
 30
0.0
 11
46.830001
 21
62.990014
 31
0.0
  0
LINE
  5
40A
100
AcDbEntity
  8
0
  6
CONTINUOUS
 62
     7
100
AcDbLine
 10
44.030001
 20
67.393952
 30
0.0
 11
44.030001
 21
61.806069
 31
0.0
  0
LINE
  5
40B
100
AcDbEntity
  8
0
  6
CONTINUOUS
 62
     7
100
AcDbLine
 10
44.033499
 20
67.400014
 30
0.0
 11
44.275983
 21
67.820014
 31
0.0
  0
LINE
  5
40C
100
AcDbEntity
  8
0
  6
CONTINUOUS
 62
     7
100
AcDbLine
 10
44.033499
 20
61.800014
 30
0.0
 11
44.275983
 21
61.380013
 31
0.0
  0
LINE
  5
40D
100
AcDbEntity
  8
0
  6
CONTINUOUS
 62
     7
100
AcDbLine
 10
148.260002
 20
68.1
 30
0.0
 11
147.560002
 21
68.1
 31
0.0
  0
LINE
  5
40E
100
AcDbEntity
  8
0
  6
CONTINUOUS
 62
     7
100
AcDbLine
 10
148.260002
 20
68.1
 30
0.0
 11
148.260002
 21
61.100011
 31
0.0
  0
LINE
  5
40F
100
AcDbEntity
  8
0
  6
CONTINUOUS
 62
     7
100
AcDbLine
 10
149.169999
 20
67.820007
 30
0.0
 11
148.260002
 21
67.820007
 31
0.0
  0
LINE
  5
410
100
AcDbEntity
  8
0
  6
CONTINUOUS
 62
     7
100
AcDbLine
 10
151.724017
 20
67.820007
 30
0.0
 11
149.169999
 21
67.820007
 31
0.0
  0
LINE
  5
411
100
AcDbEntity
  8
0
  6
CONTINUOUS
 62
     7
100
AcDbLine
 10
151.966501
 20
67.399993
 30
0.0
 11
151.724017
 21
67.819993
 31
0.0
  0
LINE
  5
412
100
AcDbEntity
  8
0
  6
CONTINUOUS
 62
     7
100
AcDbLine
 10
151.969999
 20
67.393952
 30
0.0
 11
151.969999
 21
61.806069
 31
0.0
  0
LINE
  5
413
100
AcDbEntity
  8
0
  6
CONTINUOUS
 62
     7
100
AcDbLine
 10
151.724017
 20
66.210007
 30
0.0
 11
149.169999
 21
66.210007
 31
0.0
  0
LINE
  5
414
100
AcDbEntity
  8
0
  6
CONTINUOUS
 62
     7
100
AcDbLine
 10
151.724017
 20
62.990014
 30
0.0
 11
149.169999
 21
62.990014
 31
0.0
  0
LINE
  5
415
100
AcDbEntity
  8
0
  6
CONTINUOUS
 62
     7
100
AcDbLine
 10
151.724017
 20
61.380012
 30
0.0
 11
149.169999
 21
61.380012
 31
0.0
  0
LINE
  5
416
100
AcDbEntity
  8
0
  6
CONTINUOUS
 62
     7
100
AcDbLine
 10
151.966501
 20
61.800007
 30
0.0
 11
151.724017
 21
61.380008
 31
0.0
  0
LINE
  5
417
100
AcDbEntity
  8
0
  6
CONTINUOUS
 62
     7
100
AcDbLine
 10
149.169999
 20
67.820014
 30
0.0
 11
149.169999
 21
61.380011
 31
0.0
  0
LINE
  5
418
100
AcDbEntity
  8
0
  6
CONTINUOUS
 62
     7
100
AcDbLine
 10
149.169999
 20
65.320356
 30
0.0
 11
148.260002
 21
65.845741
 31
0.0
  0
LINE
  5
419
100
AcDbEntity
  8
0
  6
CONTINUOUS
 62
     7
100
AcDbLine
 10
149.169999
 20
64.512066
 30
0.0
 11
148.260002
 21
65.037451
 31
0.0
  0
LINE
  5
41A
100
AcDbEntity
  8
0
  6
CONTINUOUS
 62
     7
100
AcDbLine
 10
149.169999
 20
61.380012
 30
0.0
 11
148.260002
 21
61.380012
 31
0.0
  0
LINE
  5
41B
100
AcDbEntity
  8
0
  6
CONTINUOUS
 62
     7
100
AcDbLine
 10
148.260002
 20
61.100011
 30
0.0
 11
147.560002
 21
61.100011
 31
0.0
  0
LINE
  5
41C
100
AcDbEntity
  8
0
  6
CONTINUOUS
 62
     7
100
AcDbLine
 10
147.560002
 20
60.050014
 30
0.0
 11
147.560002
 21
69.15
 31
0.0
  0
LINE
  5
41D
100
AcDbEntity
  8
0
  6
CONTINUOUS
 62
     7
100
AcDbLine
 10
144.102001
 20
69.15
 30
0.0
 11
147.560002
 21
69.15
 31
0.0
  0
LINE
  5
41E
100
AcDbEntity
  8
0
  6
CONTINUOUS
 62
     7
100
AcDbLine
 10
146.860002
 20
39.789059
 30
0.0
 11
146.860002
 21
69.15
 31
0.0
  0
LINE
  5
41F
100
AcDbEntity
  8
0
  6
CONTINUOUS
 62
     7
100
AcDbLine
 10
145.25
 20
39.31754
 30
0.0
 11
145.25
 21
69.15
 31
0.0
  0
LINE
  5
420
100
AcDbEntity
  8
0
  6
CONTINUOUS
 62
     7
100
AcDbLine
 10
50.75
 20
136.647502
 30
0.0
 11
50.75
 21
179.164801
 31
0.0
  0
LINE
  5
421
100
AcDbEntity
  8
0
  6
CONTINUOUS
 62
     7
100
AcDbLine
 10
49.139998
 20
136.647502
 30
0.0
 11
49.139998
 21
178.693698
 31
0.0
  0
LINE
  5
422
100
AcDbEntity
  8
0
  6
CONTINUOUS
 62
     7
100
AcDbLine
 10
52.208169
 20
137.767501
 30
0.0
 11
51.45
 21
137.767501
 31
0.0
  0
LINE
  5
423
100
AcDbEntity
  8
0
  6
CONTINUOUS
 62
     7
100
AcDbLine
 10
47.739998
 20
145.817501
 30
0.0
 11
48.439998
 21
145.817501
 31
0.0
  0
LINE
  5
424
100
AcDbEntity
  8
0
  6
CONTINUOUS
 62
     7
100
AcDbLine
 10
48.439998
 20
137.767501
 30
0.0
 11
48.439998
 21
146.867501
 31
0.0
  0
LINE
  5
425
100
AcDbEntity
  8
0
  6
CONTINUOUS
 62
     7
100
AcDbLine
 10
47.739998
 20
138.817501
 30
0.0
 11
47.739998
 21
145.817501
 31
0.0
  0
LINE
  5
426
100
AcDbEntity
  8
0
  6
CONTINUOUS
 62
     7
100
AcDbLine
 10
46.830001
 20
145.5375
 30
0.0
 11
47.739998
 21
145.5375
 31
0.0
  0
LINE
  5
427
100
AcDbEntity
  8
0
  6
CONTINUOUS
 62
     7
100
AcDbLine
 10
46.830001
 20
142.405001
 30
0.0
 11
47.739998
 21
141.880001
 31
0.0
  0
LINE
  5
428
100
AcDbEntity
  8
0
  6
CONTINUOUS
 62
     7
100
AcDbLine
 10
46.830001
 20
141.597201
 30
0.0
 11
47.739998
 21
141.071502
 31
0.0
  0
LINE
  5
429
100
AcDbEntity
  8
0
  6
CONTINUOUS
 62
     7
100
AcDbLine
 10
46.830001
 20
139.097502
 30
0.0
 11
47.739998
 21
139.097502
 31
0.0
  0
LINE
  5
42A
100
AcDbEntity
  8
0
  6
CONTINUOUS
 62
     7
100
AcDbLine
 10
47.739998
 20
138.817501
 30
0.0
 11
48.439998
 21
138.817501
 31
0.0
  0
LINE
  5
42B
100
AcDbEntity
  8
0
  6
CONTINUOUS
 62
     7
100
AcDbLine
 10
46.830001
 20
139.097502
 30
0.0
 11
46.830001
 21
145.5375
 31
0.0
  0
LINE
  5
42C
100
AcDbEntity
  8
0
  6
CONTINUOUS
 62
     7
100
AcDbLine
 10
44.275983
 20
140.707499
 30
0.0
 11
46.830001
 21
140.707499
 31
0.0
  0
LINE
  5
42D
100
AcDbEntity
  8
0
  6
CONTINUOUS
 62
     7
100
AcDbLine
 10
44.275983
 20
143.927498
 30
0.0
 11
46.830001
 21
143.927498
 31
0.0
  0
LINE
  5
42E
100
AcDbEntity
  8
0
  6
CONTINUOUS
 62
     7
100
AcDbLine
 10
44.275983
 20
145.5375
 30
0.0
 11
46.830001
 21
145.5375
 31
0.0
  0
LINE
  5
42F
100
AcDbEntity
  8
0
  6
CONTINUOUS
 62
     7
100
AcDbLine
 10
44.275983
 20
139.097502
 30
0.0
 11
46.830001
 21
139.097502
 31
0.0
  0
LINE
  5
430
100
AcDbEntity
  8
0
  6
CONTINUOUS
 62
     7
100
AcDbLine
 10
44.033499
 20
145.117501
 30
0.0
 11
44.275983
 21
145.5375
 31
0.0
  0
LINE
  5
431
100
AcDbEntity
  8
0
  6
CONTINUOUS
 62
     7
100
AcDbLine
 10
44.030001
 20
139.523098
 30
0.0
 11
44.030001
 21
145.111199
 31
0.0
  0
LINE
  5
432
100
AcDbEntity
  8
0
  6
CONTINUOUS
 62
     7
100
AcDbLine
 10
44.033499
 20
139.517501
 30
0.0
 11
44.275983
 21
139.097502
 31
0.0
  0
LINE
  5
433
100
AcDbEntity
  8
0
  6
CONTINUOUS
 62
     7
100
AcDbLine
 10
144.55
 20
148.967501
 30
0.0
 11
144.55
 21
137.767501
 31
0.0
  0
LINE
  5
434
100
AcDbEntity
  8
0
  6
CONTINUOUS
 62
     7
100
AcDbLine
 10
143.791831
 20
137.767501
 30
0.0
 11
144.55
 21
137.767501
 31
0.0
  0
LINE
  5
435
100
AcDbEntity
  8
0
  6
CONTINUOUS
 62
     7
100
AcDbLine
 10
145.25
 20
136.647502
 30
0.0
 11
145.25
 21
179.164801
 31
0.0
  0
LINE
  5
436
100
AcDbEntity
  8
0
  6
CONTINUOUS
 62
     7
100
AcDbLine
 10
146.860002
 20
136.647502
 30
0.0
 11
146.860002
 21
178.693698
 31
0.0
  0
LINE
  5
437
100
AcDbEntity
  8
0
  6
CONTINUOUS
 62
     7
100
AcDbLine
 10
147.560002
 20
137.767501
 30
0.0
 11
147.560002
 21
146.867501
 31
0.0
  0
LINE
  5
438
100
AcDbEntity
  8
0
  6
CONTINUOUS
 62
     7
100
AcDbLine
 10
148.260002
 20
145.817501
 30
0.0
 11
147.560002
 21
145.817501
 31
0.0
  0
LINE
  5
439
100
AcDbEntity
  8
0
  6
CONTINUOUS
 62
     7
100
AcDbLine
 10
149.170069
 20
145.5375
 30
0.0
 11
148.260002
 21
145.5375
 31
0.0
  0
LINE
  5
43A
100
AcDbEntity
  8
0
  6
CONTINUOUS
 62
     7
100
AcDbLine
 10
148.260002
 20
138.817501
 30
0.0
 11
148.260002
 21
145.817501
 31
0.0
  0
LINE
  5
43B
100
AcDbEntity
  8
0
  6
CONTINUOUS
 62
     7
100
AcDbLine
 10
149.170069
 20
142.405001
 30
0.0
 11
148.260002
 21
141.880001
 31
0.0
  0
LINE
  5
43C
100
AcDbEntity
  8
0
  6
CONTINUOUS
 62
     7
100
AcDbLine
 10
149.169999
 20
141.597201
 30
0.0
 11
148.260002
 21
141.071502
 31
0.0
  0
LINE
  5
43D
100
AcDbEntity
  8
0
  6
CONTINUOUS
 62
     7
100
AcDbLine
 10
149.170069
 20
139.097502
 30
0.0
 11
148.260002
 21
139.097502
 31
0.0
  0
LINE
  5
43E
100
AcDbEntity
  8
0
  6
CONTINUOUS
 62
     7
100
AcDbLine
 10
148.260002
 20
138.817501
 30
0.0
 11
147.560002
 21
138.817501
 31
0.0
  0
LINE
  5
43F
100
AcDbEntity
  8
0
  6
CONTINUOUS
 62
     7
100
AcDbLine
 10
151.724017
 20
139.097502
 30
0.0
 11
149.170069
 21
139.097502
 31
0.0
  0
LINE
  5
440
100
AcDbEntity
  8
0
  6
CONTINUOUS
 62
     7
100
AcDbLine
 10
151.724017
 20
140.707499
 30
0.0
 11
149.170069
 21
140.707499
 31
0.0
  0
LINE
  5
441
100
AcDbEntity
  8
0
  6
CONTINUOUS
 62
     7
100
AcDbLine
 10
151.724017
 20
143.927498
 30
0.0
 11
149.170069
 21
143.927498
 31
0.0
  0
LINE
  5
442
100
AcDbEntity
  8
0
  6
CONTINUOUS
 62
     7
100
AcDbLine
 10
151.724017
 20
145.5375
 30
0.0
 11
149.170069
 21
145.5375
 31
0.0
  0
LINE
  5
443
100
AcDbEntity
  8
0
  6
CONTINUOUS
 62
     7
100
AcDbLine
 10
149.170069
 20
139.097502
 30
0.0
 11
149.170069
 21
145.5375
 31
0.0
  0
LINE
  5
444
100
AcDbEntity
  8
0
  6
CONTINUOUS
 62
     7
100
AcDbLine
 10
151.970069
 20
139.523098
 30
0.0
 11
151.970069
 21
145.111199
 31
0.0
  0
LINE
  5
445
100
AcDbEntity
  8
0
  6
CONTINUOUS
 62
     7
100
AcDbLine
 10
151.966501
 20
145.117501
 30
0.0
 11
151.724017
 21
145.5375
 31
0.0
  0
LINE
  5
446
100
AcDbEntity
  8
0
  6
CONTINUOUS
 62
     7
100
AcDbLine
 10
151.96657
 20
139.517501
 30
0.0
 11
151.724017
 21
139.097502
 31
0.0
  0
LINE
  5
447
100
AcDbEntity
  8
0
  6
CONTINUOUS
 62
     7
100
AcDbLine
 10
143.360002
 20
182.193698
 30
0.0
 11
52.639998
 21
182.193698
 31
0.0
  0
LINE
  5
448
100
AcDbEntity
  8
0
  6
CONTINUOUS
 62
     7
100
AcDbLine
 10
143.360002
 20
166.205701
 30
0.0
 11
52.639998
 21
166.205701
 31
0.0
  0
LINE
  5
449
100
AcDbEntity
  8
0
  6
CONTINUOUS
 62
     7
100
AcDbLine
 10
144.55
 20
67.400014
 30
0.0
 11
144.55
 21
61.800014
 31
0.0
  0
LINE
  5
44A
100
AcDbEntity
  8
0
  6
CONTINUOUS
 62
     7
100
AcDbLine
 10
51.45
 20
67.400014
 30
0.0
 11
51.45
 21
61.800014
 31
0.0
  0
LINE
  5
44B
100
AcDbEntity
  8
0
  6
CENTER
 62
     7
100
AcDbLine
 10
49.266629
 20
64.600014
 30
0.0
 11
153.491241
 21
64.600014
 31
0.0
  0
LINE
  5
44C
100
AcDbEntity
  8
0
  6
CENTER
 62
     7
100
AcDbLine
 10
98.000011
 20
41.269
 30
0.0
 11
98.000011
 21
88.36444
 31
0.0
  0
LINE
  5
44D
100
AcDbEntity
  8
0
  6
CONTINUOUS
 62
     7
100
AcDbLine
 10
117.25
 20
79.3
 30
0.0
 11
78.75
 21
79.3
 31
0.0
  0
LINE
  5
44E
100
AcDbEntity
  8
0
  6
CONTINUOUS
 62
     7
100
AcDbLine
 10
117.25
 20
78.6
 30
0.0
 11
78.75
 21
78.6
 31
0.0
  0
LINE
  5
44F
100
AcDbEntity
  8
0
  6
CONTINUOUS
 62
     7
100
AcDbLine
 10
119.7
 20
52.35
 30
0.0
 11
119.7
 21
76.85
 31
0.0
  0
LINE
  5
450
100
AcDbEntity
  8
0
  6
CONTINUOUS
 62
     7
100
AcDbLine
 10
119.0
 20
52.35
 30
0.0
 11
119.0
 21
76.85
 31
0.0
  0
LINE
  5
451
100
AcDbEntity
  8
0
  6
CONTINUOUS
 62
     7
100
AcDbLine
 10
117.25
 20
50.6
 30
0.0
 11
78.75
 21
50.6
 31
0.0
  0
LINE
  5
452
100
AcDbEntity
  8
0
  6
CONTINUOUS
 62
     7
100
AcDbLine
 10
117.25
 20
49.9
 30
0.0
 11
78.75
 21
49.9
 31
0.0
  0
LINE
  5
453
100
AcDbEntity
  8
0
  6
CONTINUOUS
 62
     7
100
AcDbLine
 10
77.0
 20
52.35
 30
0.0
 11
77.0
 21
76.85
 31
0.0
  0
LINE
  5
454
100
AcDbEntity
  8
0
  6
CONTINUOUS
 62
     7
100
AcDbLine
 10
76.3
 20
52.35
 30
0.0
 11
76.3
 21
76.85
 31
0.0
  0
LINE
  5
455
100
AcDbEntity
  8
0
  6
CONTINUOUS
 62
     7
100
AcDbLine
 10
117.25
 20
80.0
 30
0.0
 11
78.75
 21
80.0
 31
0.0
  0
LINE
  5
456
100
AcDbEntity
  8
0
  6
CONTINUOUS
 62
     7
100
AcDbLine
 10
75.6
 20
52.35
 30
0.0
 11
75.6
 21
76.85
 31
0.0
  0
LINE
  5
457
100
AcDbEntity
  8
0
  6
CONTINUOUS
 62
     7
100
AcDbLine
 10
117.25
 20
49.2
 30
0.0
 11
78.75
 21
49.2
 31
0.0
  0
LINE
  5
458
100
AcDbEntity
  8
0
  6
CONTINUOUS
 62
     7
100
AcDbLine
 10
120.4
 20
52.35
 30
0.0
 11
120.4
 21
76.85
 31
0.0
  0
LINE
  5
459
100
AcDbEntity
  8
0
  6
CONTINUOUS
 62
     7
100
AcDbLine
 10
51.897999
 20
60.050014
 30
0.0
 11
50.75
 21
60.050014
 31
0.0
  0
LINE
  5
45A
100
AcDbEntity
  8
0
  6
CONTINUOUS
 62
     7
100
AcDbLine
 10
49.139998
 20
60.050014
 30
0.0
 11
48.439998
 21
60.050014
 31
0.0
  0
LINE
  5
45B
100
AcDbEntity
  8
0
  6
CONTINUOUS
 62
     7
100
AcDbLine
 10
144.102001
 20
60.050014
 30
0.0
 11
145.25
 21
60.050014
 31
0.0
  0
LINE
  5
45C
100
AcDbEntity
  8
0
  6
CONTINUOUS
 62
     7
100
AcDbLine
 10
146.860002
 20
60.050014
 30
0.0
 11
147.560002
 21
60.050014
 31
0.0
  0
LINE
  5
45D
100
AcDbEntity
  8
0
  6
CENTER
 62
     7
100
AcDbLine
 10
42.969987
 20
142.317501
 30
0.0
 11
53.190761
 21
142.317501
 31
0.0
  0
LINE
  5
45E
100
AcDbEntity
  8
0
  6
CENTER
 62
     7
100
AcDbLine
 10
142.872728
 20
142.317501
 30
0.0
 11
154.338101
 21
142.317501
 31
0.0
  0
LINE
  5
45F
100
AcDbEntity
  8
0
  6
CONTINUOUS
 62
     7
100
AcDbLine
 10
51.45
 20
148.967501
 30
0.0
 11
58.1
 21
148.967501
 31
0.0
  0
LINE
  5
460
100
AcDbEntity
  8
0
  6
CENTER
 62
     7
100
AcDbLine
 10
98.000011
 20
164.195305
 30
0.0
 11
98.000011
 21
117.617021
 31
0.0
  0
LINE
  5
461
100
AcDbEntity
  8
0
  6
DASHED
 62
     7
100
AcDbLine
 10
139.837251
 20
155.995501
 30
0.0
 11
58.1
 21
155.995501
 31
0.0
  0
LINE
  5
462
100
AcDbEntity
  8
0
  6
DASHED
 62
     7
100
AcDbLine
 10
59.643779
 20
155.320004
 30
0.0
 11
59.482641
 21
150.704903
 31
0.0
  0
LINE
  5
463
100
AcDbEntity
  8
0
  6
CENTER
 62
     7
100
AcDbLine
 10
56.380871
 20
147.856603
 30
0.0
 11
56.380871
 21
153.916501
 31
0.0
  0
LINE
  5
464
100
AcDbEntity
  8
0
  6
CONTINUOUS
 62
     7
100
AcDbLine
 10
59.132849
 20
150.367501
 30
0.0
 11
53.251521
 21
150.367501
 31
0.0
  0
LINE
  5
465
100
AcDbEntity
  8
0
  6
DASHED
 62
     7
100
AcDbLine
 10
95.027072
 20
155.320004
 30
0.0
 11
95.188219
 21
150.704903
 31
0.0
  0
LINE
  5
466
100
AcDbEntity
  8
0
  6
DASHED
 62
     7
100
AcDbLine
 10
100.972949
 20
155.320004
 30
0.0
 11
100.811802
 21
150.704903
 31
0.0
  0
LINE
  5
467
100
AcDbEntity
  8
0
  6
DASHED
 62
     7
100
AcDbLine
 10
110.1191
 20
158.515495
 30
0.0
 11
110.1191
 21
155.995501
 31
0.0
  0
LINE
  5
468
100
AcDbEntity
  8
0
  6
DASHED
 62
     7
100
AcDbLine
 10
111.8691
 20
160.265495
 30
0.0
 11
125.026581
 21
160.265495
 31
0.0
  0
LINE
  5
469
100
AcDbEntity
  8
0
  6
DASHED
 62
     7
100
AcDbLine
 10
76.3
 20
121.345357
 30
0.0
 11
119.7
 21
121.345357
 31
0.0
  0
LINE
  5
46A
100
AcDbEntity
  8
0
  6
DASHED
 62
     7
100
AcDbLine
 10
76.3
 20
120.995357
 30
0.0
 11
119.7
 21
120.995357
 31
0.0
  0
LINE
  5
46B
100
AcDbEntity
  8
0
  6
CONTINUOUS
 62
     7
100
AcDbLine
 10
76.3
 20
120.995357
 30
0.0
 11
76.3
 21
121.345357
 31
0.0
  0
LINE
  5
46C
100
AcDbEntity
  8
0
  6
CONTINUOUS
 62
     7
100
AcDbLine
 10
119.7
 20
121.345357
 30
0.0
 11
119.7
 21
120.995357
 31
0.0
  0
LINE
  5
46D
100
AcDbEntity
  8
0
  6
DASHED
 62
     7
100
AcDbLine
 10
100.462019
 20
150.367501
 30
0.0
 11
95.538009
 21
150.367501
 31
0.0
  0
LINE
  5
46E
100
AcDbEntity
  8
0
  6
DASHED
 62
     7
100
AcDbLine
 10
87.25199
 20
157.640495
 30
0.0
 11
94.330124
 21
155.995501
 31
0.0
  0
LINE
  5
46F
100
AcDbEntity
  8
0
  6
DASHED
 62
     7
100
AcDbLine
 10
115.15882
 20
158.515495
 30
0.0
 11
115.15882
 21
158.008001
 31
0.0
  0
LINE
  5
470
100
AcDbEntity
  8
0
  6
CONTINUOUS
 62
     7
100
AcDbLine
 10
128.543799
 20
156.332898
 30
0.0
 11
128.52441
 21
156.887304
 31
0.0
  0
LINE
  5
471
100
AcDbEntity
  8
0
  6
DASHED
 62
     7
100
AcDbLine
 10
136.356291
 20
155.320004
 30
0.0
 11
136.517429
 21
150.704903
 31
0.0
  0
LINE
  5
472
100
AcDbEntity
  8
0
  6
CONTINUOUS
 62
     7
100
AcDbLine
 10
142.748479
 20
150.367501
 30
0.0
 11
136.867221
 21
150.367501
 31
0.0
  0
LINE
  5
473
100
AcDbEntity
  8
0
  6
CENTER
 62
     7
100
AcDbLine
 10
139.619129
 20
147.856603
 30
0.0
 11
139.619129
 21
153.916501
 31
0.0
  0
LINE
  5
474
100
AcDbEntity
  8
0
  6
CENTER
 62
     7
100
AcDbLine
 10
56.10549
 20
124.117287
 30
0.0
 11
139.819961
 21
124.117287
 31
0.0
  0
LINE
  5
475
100
AcDbEntity
  8
0
  6
DASHED
 62
     7
100
AcDbLine
 10
94.306513
 20
157.139998
 30
0.0
 11
94.26655
 21
155.995501
 31
0.0
  0
LINE
  5
476
100
AcDbEntity
  8
0
  6
DASHED
 62
     7
100
AcDbLine
 10
108.39283
 20
157.815495
 30
0.0
 11
95.006086
 21
157.815495
 31
0.0
  0
LINE
  5
477
100
AcDbEntity
  8
0
  6
CONTINUOUS
 62
     7
100
AcDbLine
 10
109.09241
 20
157.139998
 30
0.0
 11
109.13238
 21
155.995501
 31
0.0
  0
LINE
  5
478
100
AcDbEntity
  8
0
  6
CONTINUOUS
 62
     7
100
AcDbLine
 10
51.45
 20
148.967501
 30
0.0
 11
51.45
 21
137.767501
 31
0.0
  0
LINE
  5
479
100
AcDbEntity
  8
0
  6
CONTINUOUS
 62
     7
100
AcDbLine
 10
189.095895
 20
50.24755
 30
0.0
 11
189.095895
 21
78.94755
 31
0.0
  0
LINE
  5
47A
100
AcDbEntity
  8
0
  6
CONTINUOUS
 62
     7
100
AcDbLine
 10
189.445895
 20
79.29755
 30
0.0
 11
189.445895
 21
79.29755
 31
0.0
  0
LINE
  5
47B
100
AcDbEntity
  8
0
  6
CONTINUOUS
 62
     7
100
AcDbLine
 10
217.0679
 20
43.60112
 30
0.0
 11
217.0679
 21
54.428636
 31
0.0
  0
LINE
  5
47C
100
AcDbEntity
  8
0
  6
CONTINUOUS
 62
     7
100
AcDbLine
 10
189.445895
 20
49.89755
 30
0.0
 11
189.445895
 21
49.89755
 31
0.0
  0
LINE
  5
47D
100
AcDbEntity
  8
0
  6
CONTINUOUS
 62
     7
100
AcDbLine
 10
189.445895
 20
49.899931
 30
0.0
 11
189.445895
 21
79.299931
 31
0.0
  0
LINE
  5
47E
100
AcDbEntity
  8
0
  6
CONTINUOUS
 62
     7
100
AcDbLine
 10
224.095895
 20
78.600069
 30
0.0
 11
224.095895
 21
81.469929
 31
0.0
  0
LINE
  5
47F
100
AcDbEntity
  8
0
  6
CONTINUOUS
 62
     7
100
AcDbLine
 10
224.8659
 20
76.14755
 30
0.0
 11
224.095895
 21
76.14755
 31
0.0
  0
LINE
  5
480
100
AcDbEntity
  8
0
  6
CONTINUOUS
 62
     7
100
AcDbLine
 10
228.3659
 20
72.08937
 30
0.0
 11
228.3659
 21
72.650069
 31
0.0
  0
LINE
  5
481
100
AcDbEntity
  8
0
  6
CENTER
 62
     7
100
AcDbLine
 10
221.552799
 20
82.01705
 30
0.0
 11
215.876503
 21
82.01705
 31
0.0
  0
LINE
  5
482
100
AcDbEntity
  8
0
  6
CONTINUOUS
 62
     7
100
AcDbLine
 10
218.4679
 20
79.9713
 30
0.0
 11
218.4679
 21
84.84743
 31
0.0
  0
LINE
  5
483
100
AcDbEntity
  8
0
  6
CONTINUOUS
 62
     7
100
AcDbLine
 10
218.805297
 20
79.621509
 30
0.0
 11
223.420398
 21
79.460369
 31
0.0
  0
LINE
  5
484
100
AcDbEntity
  8
0
  6
CENTER
 62
     7
100
AcDbLine
 10
227.180804
 20
76.007549
 30
0.0
 11
222.777799
 21
76.007549
 31
0.0
  0
LINE
  5
485
100
AcDbEntity
  8
0
  6
CONTINUOUS
 62
     7
100
AcDbLine
 10
218.805297
 20
49.57856
 30
0.0
 11
222.087604
 21
49.693219
 31
0.0
  0
LINE
  5
486
100
AcDbEntity
  8
0
  6
CONTINUOUS
 62
     7
100
AcDbLine
 10
218.4679
 20
49.22877
 30
0.0
 11
218.4679
 21
44.35257
 31
0.0
  0
LINE
  5
487
100
AcDbEntity
  8
0
  6
CENTER
 62
     7
100
AcDbLine
 10
221.552799
 20
47.17805
 30
0.0
 11
216.156499
 21
47.17805
 31
0.0
  0
LINE
  5
488
100
AcDbEntity
  8
0
  6
CONTINUOUS
 62
     7
100
AcDbLine
 10
224.095895
 20
73.724219
 30
0.0
 11
224.095895
 21
81.936829
 31
0.0
  0
LINE
  5
489
100
AcDbEntity
  8
0
  6
CONTINUOUS
 62
     7
100
AcDbLine
 10
217.0679
 20
73.951789
 30
0.0
 11
217.0679
 21
85.600069
 31
0.0
  0
LINE
  5
48A
100
AcDbEntity
  8
0
  6
CENTER
 62
     7
100
AcDbLine
 10
192.2179
 20
46.085351
 30
0.0
 11
192.2179
 21
82.77942
 31
0.0
  0
LINE
  5
48B
100
AcDbEntity
  8
0
  6
CONTINUOUS
 62
     7
100
AcDbLine
 10
143.360002
 20
181.054799
 30
0.0
 11
52.639998
 21
181.054799
 31
0.0
  0
LINE
  5
48C
100
AcDbEntity
  8
0
  6
CONTINUOUS
 62
     7
100
AcDbLine
 10
168.998202
 20
117.166149
 30
0.0
 11
263.498197
 21
117.166149
 31
0.0
  0
LINE
  5
48D
100
AcDbEntity
  8
0
  6
CONTINUOUS
 62
     7
100
AcDbLine
 10
167.388483
 20
138.166501
 30
0.0
 11
265.108199
 21
138.166501
 31
0.0
  0
LINE
  5
48E
100
AcDbEntity
  8
0
  6
CENTER
 62
     7
100
AcDbLine
 10
216.248197
 20
113.278909
 30
0.0
 11
216.248197
 21
143.7581
 31
0.0
  0
LINE
  5
48F
100
AcDbEntity
  8
0
  6
CENTER
 62
     7
100
AcDbLine
 10
212.748197
 20
133.266501
 30
0.0
 11
219.748197
 21
133.266501
 31
0.0
  0
LINE
  5
490
100
AcDbEntity
  8
0
  6
CENTER
 62
     7
100
AcDbLine
 10
200.111101
 20
126.204059
 30
0.0
 11
192.106603
 21
122.701191
 31
0.0
  0
LINE
  5
491
100
AcDbEntity
  8
0
  6
CENTER
 62
     7
100
AcDbLine
 10
201.518097
 20
123.466149
 30
0.0
 11
194.198901
 21
118.596809
 31
0.0
  0
LINE
  5
492
100
AcDbEntity
  8
0
  6
CENTER
 62
     7
100
AcDbLine
 10
232.385997
 20
126.204129
 30
0.0
 11
240.390495
 21
122.701191
 31
0.0
  0
LINE
  5
493
100
AcDbEntity
  8
0
  6
CENTER
 62
     7
100
AcDbLine
 10
230.979001
 20
123.466149
 30
0.0
 11
238.298197
 21
118.596739
 31
0.0
  0
LINE
  5
494
100
AcDbEntity
  8
0
  6
CENTER
 62
     7
100
AcDbLine
 10
179.307799
 20
120.546311
 30
0.0
 11
186.713801
 21
123.096618
 31
0.0
  0
LINE
  5
495
100
AcDbEntity
  8
0
  6
CENTER
 62
     7
100
AcDbLine
 10
254.959598
 20
127.134921
 30
0.0
 11
247.123798
 21
128.376018
 31
0.0
  0
LINE
  5
496
100
AcDbEntity
  8
0
  6
CENTER
 62
     7
100
AcDbLine
 10
253.189304
 20
120.546381
 30
0.0
 11
245.783302
 21
123.096618
 31
0.0
  0
LINE
  5
497
100
AcDbEntity
  8
0
  6
CONTINUOUS
 62
     7
100
AcDbLine
 10
214.232204
 20
145.937899
 30
0.0
 11
217.732204
 21
145.937899
 31
0.0
  0
LINE
  5
498
100
AcDbEntity
  8
0
  6
CENTER
 62
     7
100
AcDbLine
 10
216.248197
 20
169.8429
 30
0.0
 11
216.248197
 21
188.242403
 31
0.0
  0
LINE
  5
499
100
AcDbEntity
  8
0
  6
CENTER
 62
     7
100
AcDbLine
 10
212.748197
 20
183.666501
 30
0.0
 11
219.748197
 21
183.666501
 31
0.0
  0
LINE
  5
49A
100
AcDbEntity
  8
0
  6
CENTER
 62
     7
100
AcDbLine
 10
178.798202
 20
175.266501
 30
0.0
 11
185.798202
 21
175.266501
 31
0.0
  0
LINE
  5
49B
100
AcDbEntity
  8
0
  6
CENTER
 62
     7
100
AcDbLine
 10
246.698197
 20
175.266501
 30
0.0
 11
253.698197
 21
175.266501
 31
0.0
  0
LINE
  5
49C
100
AcDbEntity
  8
0
  6
CENTER
 62
     7
100
AcDbLine
 10
182.298202
 20
171.766501
 30
0.0
 11
182.298202
 21
178.766501
 31
0.0
  0
LINE
  5
49D
100
AcDbEntity
  8
0
  6
CENTER
 62
     7
100
AcDbLine
 10
250.198197
 20
171.766501
 30
0.0
 11
250.198197
 21
178.766501
 31
0.0
  0
LINE
  5
49E
100
AcDbEntity
  8
0
  6
CENTER
 62
     7
100
AcDbLine
 10
174.248202
 20
157.066501
 30
0.0
 11
272.248197
 21
157.066501
 31
0.0
  0
LINE
  5
49F
100
AcDbEntity
  8
0
  6
CENTER
 62
     7
100
AcDbLine
 10
272.248197
 20
188.566501
 30
0.0
 11
272.248197
 21
157.066501
 31
0.0
  0
LINE
  5
4A0
100
AcDbEntity
  8
0
  6
CENTER
 62
     7
100
AcDbLine
 10
174.248202
 20
188.566501
 30
0.0
 11
174.248202
 21
157.066501
 31
0.0
  0
LINE
  5
4A1
100
AcDbEntity
  8
0
  6
CONTINUOUS
 62
     7
100
AcDbLine
 10
253.649897
 20
185.066501
 30
0.0
 11
266.399005
 21
185.066501
 31
0.0
  0
LINE
  5
4A2
100
AcDbEntity
  8
0
  6
CENTER
 62
     7
100
AcDbLine
 10
174.248202
 20
188.566501
 30
0.0
 11
272.248197
 21
188.566501
 31
0.0
  0
LINE
  5
4A3
100
AcDbEntity
  8
0
  6
CONTINUOUS
 62
     7
100
AcDbLine
 10
250.341004
 20
51.1383
 30
0.0
 11
232.401399
 21
69.07818
 31
0.0
  0
LINE
  5
4A4
100
AcDbEntity
  8
0
  6
CONTINUOUS
 62
     7
100
AcDbLine
 10
235.491905
 20
36.289061
 30
0.0
 11
219.723704
 21
52.05691
 31
0.0
  0
LINE
  5
4A5
100
AcDbEntity
  8
0
  6
DASHED
 62
     7
100
AcDbLine
 10
249.202799
 20
52.27678
 30
0.0
 11
234.3537
 21
37.427541
 31
0.0
  0
LINE
  5
4A6
100
AcDbEntity
  8
0
  6
CONTINUOUS
 62
     7
100
AcDbLine
 10
210.495595
 20
71.38055
 30
0.0
 11
207.377104
 21
69.35524
 31
0.0
  0
LINE
  5
4A7
100
AcDbEntity
  8
0
  6
CONTINUOUS
 62
     7
100
AcDbLine
 10
235.491905
 20
36.289061
 30
0.0
 11
250.341004
 21
51.1383
 31
0.0
  0
LINE
  5
4A8
100
AcDbEntity
  8
0
  6
CONTINUOUS
 62
     7
100
AcDbLine
 10
224.445895
 20
73.56007
 30
0.0
 11
224.445895
 21
78.46007
 31
0.0
  0
LINE
  5
4A9
100
AcDbEntity
  8
0
  6
CONTINUOUS
 62
     7
100
AcDbLine
 10
224.935904
 20
73.94507
 30
0.0
 11
224.935904
 21
78.075069
 31
0.0
  0
LINE
  5
4AA
100
AcDbEntity
  8
0
  6
CONTINUOUS
 62
     7
100
AcDbLine
 10
224.445895
 20
78.46007
 30
0.0
 11
224.095895
 21
78.46007
 31
0.0
  0
LINE
  5
4AB
100
AcDbEntity
  8
0
  6
CONTINUOUS
 62
     7
100
AcDbLine
 10
224.935904
 20
73.94507
 30
0.0
 11
224.445895
 21
73.94507
 31
0.0
  0
LINE
  5
4AC
100
AcDbEntity
  8
0
  6
CONTINUOUS
 62
     7
100
AcDbLine
 10
224.935904
 20
78.075069
 30
0.0
 11
224.445895
 21
78.075069
 31
0.0
  0
LINE
  5
4AD
100
AcDbEntity
  8
0
  6
CONTINUOUS
 62
     7
100
AcDbLine
 10
225.529499
 20
74.13701
 30
0.0
 11
224.935904
 21
74.08507
 31
0.0
  0
LINE
  5
4AE
100
AcDbEntity
  8
0
  6
CONTINUOUS
 62
     7
100
AcDbLine
 10
225.528804
 20
77.8832
 30
0.0
 11
224.935904
 21
77.93507
 31
0.0
  0
LINE
  5
4AF
100
AcDbEntity
  8
0
  6
CONTINUOUS
 62
     7
100
AcDbLine
 10
226.335904
 20
76.01007
 30
0.0
 11
225.551897
 21
75.07536
 31
0.0
  0
LINE
  5
4B0
100
AcDbEntity
  8
0
  6
CONTINUOUS
 62
     7
100
AcDbLine
 10
226.335904
 20
76.01007
 30
0.0
 11
225.549804
 21
76.946741
 31
0.0
  0
LINE
  5
4B1
100
AcDbEntity
  8
0
  6
CONTINUOUS
 62
     7
100
AcDbLine
 10
224.935904
 20
75.979969
 30
0.0
 11
224.445895
 21
75.69703
 31
0.0
  0
LINE
  5
4B2
100
AcDbEntity
  8
0
  6
CONTINUOUS
 62
     7
100
AcDbLine
 10
224.935904
 20
75.414159
 30
0.0
 11
224.445895
 21
75.131291
 31
0.0
  0
LINE
  5
4B3
100
AcDbEntity
  8
0
  6
CONTINUOUS
 62
     7
100
AcDbLine
 10
167.388483
 20
113.818397
 30
0.0
 11
167.388483
 21
138.166501
 31
0.0
  0
LINE
  5
4B4
100
AcDbEntity
  8
0
  6
CONTINUOUS
 62
     7
100
AcDbLine
 10
265.108199
 20
113.818397
 30
0.0
 11
265.108199
 21
138.166501
 31
0.0
  0
LINE
  5
4B5
100
AcDbEntity
  8
0
  6
CONTINUOUS
 62
     7
100
AcDbLine
 10
263.498197
 20
113.818397
 30
0.0
 11
263.498197
 21
117.166149
 31
0.0
  0
LINE
  5
4B6
100
AcDbEntity
  8
0
  6
CONTINUOUS
 62
     7
100
AcDbLine
 10
168.998202
 20
113.818397
 30
0.0
 11
168.998202
 21
117.166149
 31
0.0
  0
LINE
  5
4B7
100
AcDbEntity
  8
0
  6
CONTINUOUS
 62
     7
100
AcDbLine
 10
167.388483
 20
113.818397
 30
0.0
 11
168.998202
 21
113.818397
 31
0.0
  0
LINE
  5
4B8
100
AcDbEntity
  8
0
  6
CONTINUOUS
 62
     7
100
AcDbLine
 10
263.498197
 20
113.818397
 30
0.0
 11
265.108199
 21
113.818397
 31
0.0
  0
LINE
  5
4B9
100
AcDbEntity
  8
0
  6
DASHED
 62
     7
100
AcDbLine
 10
168.998202
 20
117.166149
 30
0.0
 11
168.998202
 21
138.166501
 31
0.0
  0
LINE
  5
4BA
100
AcDbEntity
  8
0
  6
DASHED
 62
     7
100
AcDbLine
 10
263.498197
 20
117.166149
 30
0.0
 11
263.498197
 21
138.166501
 31
0.0
  0
LINE
  5
4BB
100
AcDbEntity
  8
0
  6
CONTINUOUS
 62
     7
100
AcDbLine
 10
213.567195
 20
121.916489
 30
0.0
 11
213.636505
 21
122.108083
 31
0.0
  0
LINE
  5
4BC
100
AcDbEntity
  8
0
  6
CONTINUOUS
 62
     7
100
AcDbLine
 10
213.567195
 20
121.917472
 30
0.0
 11
213.768097
 21
121.952891
 31
0.0
  0
LINE
  5
4BD
100
AcDbEntity
  8
0
  6
CONTINUOUS
 62
     7
100
AcDbLine
 10
213.689003
 20
121.779221
 30
0.0
 11
213.748497
 21
121.974168
 31
0.0
  0
LINE
  5
4BE
100
AcDbEntity
  8
0
  6
CONTINUOUS
 62
     7
100
AcDbLine
 10
213.689003
 20
121.779151
 30
0.0
 11
213.887096
 21
121.825
 31
0.0
  0
LINE
  5
4BF
100
AcDbEntity
  8
0
  6
CONTINUOUS
 62
     7
100
AcDbLine
 10
213.839501
 20
121.627388
 30
0.0
 11
213.887096
 21
121.82563
 31
0.0
  0
LINE
  5
4C0
100
AcDbEntity
  8
0
  6
CONTINUOUS
 62
     7
100
AcDbLine
 10
213.839501
 20
121.627319
 30
0.0
 11
214.034806
 21
121.68528
 31
0.0
  0
LINE
  5
4C1
100
AcDbEntity
  8
0
  6
CONTINUOUS
 62
     7
100
AcDbLine
 10
213.999098
 20
121.485008
 30
0.0
 11
214.0341
 21
121.685771
 31
0.0
  0
LINE
  5
4C2
100
AcDbEntity
  8
0
  6
CONTINUOUS
 62
     7
100
AcDbLine
 10
213.999098
 20
121.485008
 30
0.0
 11
214.190194
 21
121.554729
 31
0.0
  0
LINE
  5
4C3
100
AcDbEntity
  8
0
  6
CONTINUOUS
 62
     7
100
AcDbLine
 10
214.166397
 20
121.352642
 30
0.0
 11
214.189501
 21
121.555221
 31
0.0
  0
LINE
  5
4C4
100
AcDbEntity
  8
0
  6
CONTINUOUS
 62
     7
100
AcDbLine
 10
214.166397
 20
121.352642
 30
0.0
 11
214.353296
 21
121.433979
 31
0.0
  0
LINE
  5
4C5
100
AcDbEntity
  8
0
  6
CONTINUOUS
 62
     7
100
AcDbLine
 10
214.342102
 20
121.230839
 30
0.0
 11
214.353296
 21
121.434401
 31
0.0
  0
LINE
  5
4C6
100
AcDbEntity
  8
0
  6
CONTINUOUS
 62
     7
100
AcDbLine
 10
214.342102
 20
121.230839
 30
0.0
 11
214.524098
 21
121.323381
 31
0.0
  0
LINE
  5
4C7
100
AcDbEntity
  8
0
  6
CONTINUOUS
 62
     7
100
AcDbLine
 10
214.524804
 20
121.119959
 30
0.0
 11
214.523404
 21
121.323798
 31
0.0
  0
LINE
  5
4C8
100
AcDbEntity
  8
0
  6
CONTINUOUS
 62
     7
100
AcDbLine
 10
214.524804
 20
121.119889
 30
0.0
 11
214.700497
 21
121.223421
 31
0.0
  0
LINE
  5
4C9
100
AcDbEntity
  8
0
  6
CONTINUOUS
 62
     7
100
AcDbLine
 10
214.714501
 20
121.020351
 30
0.0
 11
214.699804
 21
121.223769
 31
0.0
  0
LINE
  5
4CA
100
AcDbEntity
  8
0
  6
CONTINUOUS
 62
     7
100
AcDbLine
 10
214.714501
 20
121.020351
 30
0.0
 11
214.883199
 21
121.134378
 31
0.0
  0
LINE
  5
4CB
100
AcDbEntity
  8
0
  6
CONTINUOUS
 62
     7
100
AcDbLine
 10
214.9091
 20
120.932569
 30
0.0
 11
214.882504
 21
121.134731
 31
0.0
  0
LINE
  5
4CC
100
AcDbEntity
  8
0
  6
CONTINUOUS
 62
     7
100
AcDbLine
 10
214.9091
 20
120.932569
 30
0.0
 11
215.070802
 21
121.056678
 31
0.0
  0
LINE
  5
4CD
100
AcDbEntity
  8
0
  6
CONTINUOUS
 62
     7
100
AcDbLine
 10
215.109297
 20
120.856829
 30
0.0
 11
215.070097
 21
121.056961
 31
0.0
  0
LINE
  5
4CE
100
AcDbEntity
  8
0
  6
CONTINUOUS
 62
     7
100
AcDbLine
 10
215.109297
 20
120.856829
 30
0.0
 11
215.262604
 21
120.990599
 31
0.0
  0
LINE
  5
4CF
100
AcDbEntity
  8
0
  6
CONTINUOUS
 62
     7
100
AcDbLine
 10
215.312997
 20
120.793479
 30
0.0
 11
215.261899
 21
120.990807
 31
0.0
  0
LINE
  5
4D0
100
AcDbEntity
  8
0
  6
CONTINUOUS
 62
     7
100
AcDbLine
 10
215.312997
 20
120.793479
 30
0.0
 11
215.458603
 21
120.936349
 31
0.0
  0
LINE
  5
4D1
100
AcDbEntity
  8
0
  6
CONTINUOUS
 62
     7
100
AcDbLine
 10
215.520895
 20
120.742657
 30
0.0
 11
215.457898
 21
120.936558
 31
0.0
  0
LINE
  5
4D2
100
AcDbEntity
  8
0
  6
CONTINUOUS
 62
     7
100
AcDbLine
 10
215.520895
 20
120.742657
 30
0.0
 11
215.657401
 21
120.894138
 31
0.0
  0
LINE
  5
4D3
100
AcDbEntity
  8
0
  6
CONTINUOUS
 62
     7
100
AcDbLine
 10
215.730897
 20
120.704579
 30
0.0
 11
215.656696
 21
120.894282
 31
0.0
  0
LINE
  5
4D4
100
AcDbEntity
  8
0
  6
CONTINUOUS
 62
     7
100
AcDbLine
 10
215.730897
 20
120.704649
 30
0.0
 11
215.858302
 21
120.864182
 31
0.0
  0
LINE
  5
4D5
100
AcDbEntity
  8
0
  6
CONTINUOUS
 62
     7
100
AcDbLine
 10
215.943698
 20
120.679452
 30
0.0
 11
215.857597
 21
120.864251
 31
0.0
  0
LINE
  5
4D6
100
AcDbEntity
  8
0
  6
CONTINUOUS
 62
     7
100
AcDbLine
 10
215.943698
 20
120.679452
 30
0.0
 11
216.060604
 21
120.846468
 31
0.0
  0
LINE
  5
4D7
100
AcDbEntity
  8
0
  6
CONTINUOUS
 62
     7
100
AcDbLine
 10
216.157204
 20
120.667339
 30
0.0
 11
216.059899
 21
120.846542
 31
0.0
  0
LINE
  5
4D8
100
AcDbEntity
  8
0
  6
CONTINUOUS
 62
     7
100
AcDbLine
 10
216.157204
 20
120.667339
 30
0.0
 11
216.263599
 21
120.841218
 31
0.0
  0
LINE
  5
4D9
100
AcDbEntity
  8
0
  6
CONTINUOUS
 62
     7
100
AcDbLine
 10
216.370699
 20
120.668253
 30
0.0
 11
216.262904
 21
120.841149
 31
0.0
  0
LINE
  5
4DA
100
AcDbEntity
  8
0
  6
CONTINUOUS
 62
     7
100
AcDbLine
 10
216.370699
 20
120.668322
 30
0.0
 11
216.466605
 21
120.848289
 31
0.0
  0
LINE
  5
4DB
100
AcDbEntity
  8
0
  6
CONTINUOUS
 62
     7
100
AcDbLine
 10
216.584204
 20
120.68225
 30
0.0
 11
216.4659
 21
120.848219
 31
0.0
  0
LINE
  5
4DC
100
AcDbEntity
  8
0
  6
CONTINUOUS
 62
     7
100
AcDbLine
 10
216.584204
 20
120.682319
 30
0.0
 11
216.668201
 21
120.867819
 31
0.0
  0
LINE
  5
4DD
100
AcDbEntity
  8
0
  6
CONTINUOUS
 62
     7
100
AcDbLine
 10
216.7963
 20
120.709199
 30
0.0
 11
216.667496
 21
120.867681
 31
0.0
  0
LINE
  5
4DE
100
AcDbEntity
  8
0
  6
CONTINUOUS
 62
     7
100
AcDbLine
 10
216.7963
 20
120.709268
 30
0.0
 11
216.869103
 21
120.899601
 31
0.0
  0
LINE
  5
4DF
100
AcDbEntity
  8
0
  6
CONTINUOUS
 62
     7
100
AcDbLine
 10
217.006302
 20
120.749098
 30
0.0
 11
216.868397
 21
120.899387
 31
0.0
  0
LINE
  5
4E0
100
AcDbEntity
  8
0
  6
CONTINUOUS
 62
     7
100
AcDbLine
 10
217.006302
 20
120.749098
 30
0.0
 11
217.067195
 21
120.943559
 31
0.0
  0
LINE
  5
4E1
100
AcDbEntity
  8
0
  6
CONTINUOUS
 62
     7
100
AcDbLine
 10
217.213495
 20
120.80174
 30
0.0
 11
217.066501
 21
120.943351
 31
0.0
  0
LINE
  5
4E2
100
AcDbEntity
  8
0
  6
CONTINUOUS
 62
     7
100
AcDbLine
 10
217.213495
 20
120.80174
 30
0.0
 11
217.2625
 21
120.999561
 31
0.0
  0
LINE
  5
4E3
100
AcDbEntity
  8
0
  6
CONTINUOUS
 62
     7
100
AcDbLine
 10
217.416501
 20
120.866911
 30
0.0
 11
217.261795
 21
120.999277
 31
0.0
  0
LINE
  5
4E4
100
AcDbEntity
  8
0
  6
CONTINUOUS
 62
     7
100
AcDbLine
 10
217.416501
 20
120.866911
 30
0.0
 11
217.454301
 21
121.067391
 31
0.0
  0
LINE
  5
4E5
100
AcDbEntity
  8
0
  6
CONTINUOUS
 62
     7
100
AcDbLine
 10
217.616004
 20
120.944329
 30
0.0
 11
217.453597
 21
121.067039
 31
0.0
  0
LINE
  5
4E6
100
AcDbEntity
  8
0
  6
CONTINUOUS
 62
     7
100
AcDbLine
 10
217.616004
 20
120.944398
 30
0.0
 11
217.6412
 21
121.146768
 31
0.0
  0
LINE
  5
4E7
100
AcDbEntity
  8
0
  6
CONTINUOUS
 62
     7
100
AcDbLine
 10
217.809899
 20
121.033858
 30
0.0
 11
217.640495
 21
121.146421
 31
0.0
  0
LINE
  5
4E8
100
AcDbEntity
  8
0
  6
CONTINUOUS
 62
     7
100
AcDbLine
 10
217.809899
 20
121.033858
 30
0.0
 11
217.822502
 21
121.237419
 31
0.0
  0
LINE
  5
4E9
100
AcDbEntity
  8
0
  6
CONTINUOUS
 62
     7
100
AcDbLine
 10
217.998197
 20
121.135078
 30
0.0
 11
217.821797
 21
121.237003
 31
0.0
  0
LINE
  5
4EA
100
AcDbEntity
  8
0
  6
CONTINUOUS
 62
     7
100
AcDbLine
 10
217.998197
 20
121.135078
 30
0.0
 11
217.998197
 21
121.338991
 31
0.0
  0
LINE
  5
4EB
100
AcDbEntity
  8
0
  6
CONTINUOUS
 62
     7
100
AcDbLine
 10
218.180204
 20
121.247571
 30
0.0
 11
217.998197
 21
121.3385
 31
0.0
  0
LINE
  5
4EC
100
AcDbEntity
  8
0
  6
CONTINUOUS
 62
     7
100
AcDbLine
 10
218.180204
 20
121.247571
 30
0.0
 11
218.167599
 21
121.451058
 31
0.0
  0
LINE
  5
4ED
100
AcDbEntity
  8
0
  6
CONTINUOUS
 62
     7
100
AcDbLine
 10
218.355204
 20
121.370912
 30
0.0
 11
218.166905
 21
121.450572
 31
0.0
  0
LINE
  5
4EE
100
AcDbEntity
  8
0
  6
CONTINUOUS
 62
     7
100
AcDbLine
 10
218.355204
 20
121.370912
 30
0.0
 11
218.329996
 21
121.573283
 31
0.0
  0
LINE
  5
4EF
100
AcDbEntity
  8
0
  6
CONTINUOUS
 62
     7
100
AcDbLine
 10
218.521797
 20
121.504752
 30
0.0
 11
218.329301
 21
121.572791
 31
0.0
  0
LINE
  5
4F0
100
AcDbEntity
  8
0
  6
CONTINUOUS
 62
     7
100
AcDbLine
 10
218.521797
 20
121.504752
 30
0.0
 11
218.484701
 21
121.705232
 31
0.0
  0
LINE
  5
4F1
100
AcDbEntity
  8
0
  6
CONTINUOUS
 62
     7
100
AcDbLine
 10
218.679996
 20
121.648462
 30
0.0
 11
218.483997
 21
121.704671
 31
0.0
  0
LINE
  5
4F2
100
AcDbEntity
  8
0
  6
CONTINUOUS
 62
     7
100
AcDbLine
 10
218.679996
 20
121.648462
 30
0.0
 11
218.630297
 21
121.846282
 31
0.0
  0
LINE
  5
4F3
100
AcDbEntity
  8
0
  6
CONTINUOUS
 62
     7
100
AcDbLine
 10
218.829105
 20
121.801619
 30
0.0
 11
218.630297
 21
121.845721
 31
0.0
  0
LINE
  5
4F4
100
AcDbEntity
  8
0
  6
CONTINUOUS
 62
     7
100
AcDbLine
 10
218.829105
 20
121.801619
 30
0.0
 11
218.767496
 21
121.996011
 31
0.0
  0
LINE
  5
4F5
100
AcDbEntity
  8
0
  6
CONTINUOUS
 62
     7
100
AcDbLine
 10
218.968397
 20
121.963529
 30
0.0
 11
218.767496
 21
121.99545
 31
0.0
  0
LINE
  5
4F6
100
AcDbEntity
  8
0
  6
CONTINUOUS
 62
     7
100
AcDbLine
 10
218.968397
 20
121.963529
 30
0.0
 11
218.895595
 21
122.153862
 31
0.0
  0
LINE
  5
4F7
100
AcDbEntity
  8
0
  6
CONTINUOUS
 62
     7
100
AcDbLine
 10
219.097896
 20
122.133701
 30
0.0
 11
218.894901
 21
122.153232
 31
0.0
  0
LINE
  5
4F8
100
AcDbEntity
  8
0
  6
CONTINUOUS
 62
     7
100
AcDbLine
 10
219.097896
 20
122.133701
 30
0.0
 11
219.013205
 21
122.31927
 31
0.0
  0
LINE
  5
4F9
100
AcDbEntity
  8
0
  6
CONTINUOUS
 62
     7
100
AcDbLine
 10
219.216905
 20
122.3115
 30
0.0
 11
219.013205
 21
122.318571
 31
0.0
  0
LINE
  5
4FA
100
AcDbEntity
  8
0
  6
CONTINUOUS
 62
     7
100
AcDbLine
 10
219.216905
 20
122.311431
 30
0.0
 11
219.120999
 21
122.491472
 31
0.0
  0
LINE
  5
4FB
100
AcDbEntity
  8
0
  6
CONTINUOUS
 62
     7
100
AcDbLine
 10
219.324699
 20
122.496161
 30
0.0
 11
219.120305
 21
122.490841
 31
0.0
  0
LINE
  5
4FC
100
AcDbEntity
  8
0
  6
CONTINUOUS
 62
     7
100
AcDbLine
 10
219.324699
 20
122.496091
 30
0.0
 11
219.217599
 21
122.66997
 31
0.0
  0
LINE
  5
4FD
100
AcDbEntity
  8
0
  6
CONTINUOUS
 62
     7
100
AcDbLine
 10
219.420595
 20
122.687049
 30
0.0
 11
219.217599
 21
122.66927
 31
0.0
  0
LINE
  5
4FE
100
AcDbEntity
  8
0
  6
CONTINUOUS
 62
     7
100
AcDbLine
 10
219.420595
 20
122.68698
 30
0.0
 11
219.3037
 21
122.854001
 31
0.0
  0
LINE
  5
4FF
100
AcDbEntity
  8
0
  6
CONTINUOUS
 62
     7
100
AcDbLine
 10
219.505297
 20
122.88347
 30
0.0
 11
219.302995
 21
122.853301
 31
0.0
  0
LINE
  5
500
100
AcDbEntity
  8
0
  6
CONTINUOUS
 62
     7
100
AcDbLine
 10
219.505297
 20
122.883401
 30
0.0
 11
219.377902
 21
123.042999
 31
0.0
  0
LINE
  5
501
100
AcDbEntity
  8
0
  6
CONTINUOUS
 62
     7
100
AcDbLine
 10
219.577405
 20
123.08465
 30
0.0
 11
219.377902
 21
123.042299
 31
0.0
  0
LINE
  5
502
100
AcDbEntity
  8
0
  6
CONTINUOUS
 62
     7
100
AcDbLine
 10
219.577405
 20
123.08465
 30
0.0
 11
219.4409
 21
123.23613
 31
0.0
  0
LINE
  5
503
100
AcDbEntity
  8
0
  6
CONTINUOUS
 62
     7
100
AcDbLine
 10
219.636899
 20
123.289888
 30
0.0
 11
219.4409
 21
123.23543
 31
0.0
  0
LINE
  5
504
100
AcDbEntity
  8
0
  6
CONTINUOUS
 62
     7
100
AcDbLine
 10
219.636899
 20
123.289888
 30
0.0
 11
219.491304
 21
123.432759
 31
0.0
  0
LINE
  5
505
100
AcDbEntity
  8
0
  6
CONTINUOUS
 62
     7
100
AcDbLine
 10
219.684505
 20
123.498421
 30
0.0
 11
219.491304
 21
123.432059
 31
0.0
  0
LINE
  5
506
100
AcDbEntity
  8
0
  6
CONTINUOUS
 62
     7
100
AcDbLine
 10
219.684505
 20
123.498352
 30
0.0
 11
219.530504
 21
123.632117
 31
0.0
  0
LINE
  5
507
100
AcDbEntity
  8
0
  6
CONTINUOUS
 62
     7
100
AcDbLine
 10
219.718802
 20
123.709401
 30
0.0
 11
219.530504
 21
123.631418
 31
0.0
  0
LINE
  5
508
100
AcDbEntity
  8
0
  6
CONTINUOUS
 62
     7
100
AcDbLine
 10
219.718802
 20
123.709331
 30
0.0
 11
219.5571
 21
123.833441
 31
0.0
  0
LINE
  5
509
100
AcDbEntity
  8
0
  6
CONTINUOUS
 62
     7
100
AcDbLine
 10
219.739801
 20
123.922132
 30
0.0
 11
219.556395
 21
123.832741
 31
0.0
  0
LINE
  5
50A
100
AcDbEntity
  8
0
  6
CONTINUOUS
 62
     7
100
AcDbLine
 10
219.739801
 20
123.922057
 30
0.0
 11
219.571103
 21
124.036089
 31
0.0
  0
LINE
  5
50B
100
AcDbEntity
  8
0
  6
CONTINUOUS
 62
     7
100
AcDbLine
 10
219.748197
 20
124.135702
 30
0.0
 11
219.571103
 21
124.03532
 31
0.0
  0
LINE
  5
50C
100
AcDbEntity
  8
0
  6
CONTINUOUS
 62
     7
100
AcDbLine
 10
219.748197
 20
124.135632
 30
0.0
 11
219.572502
 21
124.239159
 31
0.0
  0
LINE
  5
50D
100
AcDbEntity
  8
0
  6
CONTINUOUS
 62
     7
100
AcDbLine
 10
219.743999
 20
124.34941
 30
0.0
 11
219.572502
 21
124.238391
 31
0.0
  0
LINE
  5
50E
100
AcDbEntity
  8
0
  6
CONTINUOUS
 62
     7
100
AcDbLine
 10
219.743999
 20
124.34941
 30
0.0
 11
219.562003
 21
124.441952
 31
0.0
  0
LINE
  5
50F
100
AcDbEntity
  8
0
  6
CONTINUOUS
 62
     7
100
AcDbLine
 10
219.725798
 20
124.562489
 30
0.0
 11
219.562003
 21
124.441177
 31
0.0
  0
LINE
  5
510
100
AcDbEntity
  8
0
  6
CONTINUOUS
 62
     7
100
AcDbLine
 10
219.725798
 20
124.562419
 30
0.0
 11
219.538899
 21
124.643761
 31
0.0
  0
LINE
  5
511
100
AcDbEntity
  8
0
  6
CONTINUOUS
 62
     7
100
AcDbLine
 10
219.695004
 20
124.774029
 30
0.0
 11
219.538899
 21
124.642992
 31
0.0
  0
LINE
  5
512
100
AcDbEntity
  8
0
  6
CONTINUOUS
 62
     7
100
AcDbLine
 10
219.695699
 20
124.774029
 30
0.0
 11
219.503897
 21
124.84375
 31
0.0
  0
LINE
  5
513
100
AcDbEntity
  8
0
  6
CONTINUOUS
 62
     7
100
AcDbLine
 10
219.651596
 20
124.983331
 30
0.0
 11
219.503897
 21
124.842981
 31
0.0
  0
LINE
  5
514
100
AcDbEntity
  8
0
  6
CONTINUOUS
 62
     7
100
AcDbLine
 10
219.651596
 20
124.983262
 30
0.0
 11
219.456302
 21
125.041218
 31
0.0
  0
LINE
  5
515
100
AcDbEntity
  8
0
  6
CONTINUOUS
 62
     7
100
AcDbLine
 10
219.595595
 20
125.189552
 30
0.0
 11
219.456302
 21
125.040449
 31
0.0
  0
LINE
  5
516
100
AcDbEntity
  8
0
  6
CONTINUOUS
 62
     7
100
AcDbLine
 10
219.595595
 20
125.189552
 30
0.0
 11
219.396797
 21
125.235401
 31
0.0
  0
LINE
  5
517
100
AcDbEntity
  8
0
  6
CONTINUOUS
 62
     7
100
AcDbLine
 10
219.527001
 20
125.391992
 30
0.0
 11
219.396797
 21
125.234701
 31
0.0
  0
LINE
  5
518
100
AcDbEntity
  8
0
  6
CONTINUOUS
 62
     7
100
AcDbLine
 10
219.527001
 20
125.391992
 30
0.0
 11
219.326099
 21
125.425659
 31
0.0
  0
LINE
  5
519
100
AcDbEntity
  8
0
  6
CONTINUOUS
 62
     7
100
AcDbLine
 10
219.445802
 20
125.589813
 30
0.0
 11
219.326099
 21
125.42489
 31
0.0
  0
LINE
  5
51A
100
AcDbEntity
  8
0
  6
CONTINUOUS
 62
     7
100
AcDbLine
 10
219.445802
 20
125.589882
 30
0.0
 11
219.243501
 21
125.611159
 31
0.0
  0
LINE
  5
51B
100
AcDbEntity
  8
0
  6
CONTINUOUS
 62
     7
100
AcDbLine
 10
219.352694
 20
125.782378
 30
0.0
 11
219.243501
 21
125.610459
 31
0.0
  0
LINE
  5
51C
100
AcDbEntity
  8
0
  6
CONTINUOUS
 62
     7
100
AcDbLine
 10
219.352694
 20
125.782378
 30
0.0
 11
219.149005
 21
125.79127
 31
0.0
  0
LINE
  5
51D
100
AcDbEntity
  8
0
  6
CONTINUOUS
 62
     7
100
AcDbLine
 10
219.248404
 20
125.96886
 30
0.0
 11
219.149699
 21
125.79057
 31
0.0
  0
LINE
  5
51E
100
AcDbEntity
  8
0
  6
CONTINUOUS
 62
     7
100
AcDbLine
 10
219.248404
 20
125.968929
 30
0.0
 11
219.044704
 21
125.965362
 31
0.0
  0
LINE
  5
51F
100
AcDbEntity
  8
0
  6
CONTINUOUS
 62
     7
100
AcDbLine
 10
219.132898
 20
126.148688
 30
0.0
 11
219.045398
 21
125.964662
 31
0.0
  0
LINE
  5
520
100
AcDbEntity
  8
0
  6
CONTINUOUS
 62
     7
100
AcDbLine
 10
219.132898
 20
126.148688
 30
0.0
 11
218.929903
 21
126.13273
 31
0.0
  0
LINE
  5
521
100
AcDbEntity
  8
0
  6
CONTINUOUS
 62
     7
100
AcDbLine
 10
219.006198
 20
126.321028
 30
0.0
 11
218.929903
 21
126.132031
 31
0.0
  0
LINE
  5
522
100
AcDbEntity
  8
0
  6
CONTINUOUS
 62
     7
100
AcDbLine
 10
219.006198
 20
126.321098
 30
0.0
 11
218.804602
 21
126.29275
 31
0.0
  0
LINE
  5
523
100
AcDbEntity
  8
0
  6
CONTINUOUS
 62
     7
100
AcDbLine
 10
218.869704
 20
126.48539
 30
0.0
 11
218.805297
 21
126.29205
 31
0.0
  0
LINE
  5
524
100
AcDbEntity
  8
0
  6
CONTINUOUS
 62
     7
100
AcDbLine
 10
218.869704
 20
126.485459
 30
0.0
 11
218.670201
 21
126.44486
 31
0.0
  0
LINE
  5
525
100
AcDbEntity
  8
0
  6
CONTINUOUS
 62
     7
100
AcDbLine
 10
218.723404
 20
126.641067
 30
0.0
 11
218.670201
 21
126.444161
 31
0.0
  0
LINE
  5
526
100
AcDbEntity
  8
0
  6
CONTINUOUS
 62
     7
100
AcDbLine
 10
218.723404
 20
126.641211
 30
0.0
 11
218.5267
 21
126.588431
 31
0.0
  0
LINE
  5
527
100
AcDbEntity
  8
0
  6
CONTINUOUS
 62
     7
100
AcDbLine
 10
218.567299
 20
126.787581
 30
0.0
 11
218.5267
 21
126.587801
 31
0.0
  0
LINE
  5
528
100
AcDbEntity
  8
0
  6
CONTINUOUS
 62
     7
100
AcDbLine
 10
218.567299
 20
126.78765
 30
0.0
 11
218.374098
 21
126.722971
 31
0.0
  0
LINE
  5
529
100
AcDbEntity
  8
0
  6
CONTINUOUS
 62
     7
100
AcDbLine
 10
218.403504
 20
126.924219
 30
0.0
 11
218.374804
 21
126.722341
 31
0.0
  0
LINE
  5
52A
100
AcDbEntity
  8
0
  6
CONTINUOUS
 62
     7
100
AcDbLine
 10
218.403504
 20
126.924359
 30
0.0
 11
218.214501
 21
126.847988
 31
0.0
  0
LINE
  5
52B
100
AcDbEntity
  8
0
  6
CONTINUOUS
 62
     7
100
AcDbLine
 10
218.230597
 20
127.050641
 30
0.0
 11
218.214501
 21
126.847358
 31
0.0
  0
LINE
  5
52C
100
AcDbEntity
  8
0
  6
CONTINUOUS
 62
     7
100
AcDbLine
 10
218.230597
 20
127.050781
 30
0.0
 11
218.046497
 21
126.962997
 31
0.0
  0
LINE
  5
52D
100
AcDbEntity
  8
0
  6
CONTINUOUS
 62
     7
100
AcDbLine
 10
218.050705
 20
127.166281
 30
0.0
 11
218.047201
 21
126.962442
 31
0.0
  0
LINE
  5
52E
100
AcDbEntity
  8
0
  6
CONTINUOUS
 62
     7
100
AcDbLine
 10
218.050705
 20
127.16642
 30
0.0
 11
217.872896
 21
127.067582
 31
0.0
  0
LINE
  5
52F
100
AcDbEntity
  8
0
  6
CONTINUOUS
 62
     7
100
AcDbLine
 10
217.864501
 20
127.270721
 30
0.0
 11
217.873601
 21
127.067021
 31
0.0
  0
LINE
  5
530
100
AcDbEntity
  8
0
  6
CONTINUOUS
 62
     7
100
AcDbLine
 10
217.864501
 20
127.27086
 30
0.0
 11
217.692299
 21
127.161309
 31
0.0
  0
LINE
  5
531
100
AcDbEntity
  8
0
  6
CONTINUOUS
 62
     7
100
AcDbLine
 10
217.672005
 20
127.36361
 30
0.0
 11
217.693004
 21
127.160818
 31
0.0
  0
LINE
  5
532
100
AcDbEntity
  8
0
  6
CONTINUOUS
 62
     7
100
AcDbLine
 10
217.672005
 20
127.363749
 30
0.0
 11
217.506799
 21
127.243911
 31
0.0
  0
LINE
  5
533
100
AcDbEntity
  8
0
  6
CONTINUOUS
 62
     7
100
AcDbLine
 10
217.473901
 20
127.444531
 30
0.0
 11
217.507504
 21
127.243421
 31
0.0
  0
LINE
  5
534
100
AcDbEntity
  8
0
  6
CONTINUOUS
 62
     7
100
AcDbLine
 10
217.473901
 20
127.444669
 30
0.0
 11
217.317102
 21
127.314957
 31
0.0
  0
LINE
  5
535
100
AcDbEntity
  8
0
  6
CONTINUOUS
 62
     7
100
AcDbLine
 10
217.2716
 20
127.513199
 30
0.0
 11
217.317797
 21
127.31461
 31
0.0
  0
LINE
  5
536
100
AcDbEntity
  8
0
  6
CONTINUOUS
 62
     7
100
AcDbLine
 10
217.2716
 20
127.513408
 30
0.0
 11
217.122502
 21
127.374318
 31
0.0
  0
LINE
  5
537
100
AcDbEntity
  8
0
  6
CONTINUOUS
 62
     7
100
AcDbLine
 10
217.065796
 20
127.569479
 30
0.0
 11
217.123197
 21
127.373971
 31
0.0
  0
LINE
  5
538
100
AcDbEntity
  8
0
  6
CONTINUOUS
 62
     7
100
AcDbLine
 10
217.065101
 20
127.569617
 30
0.0
 11
216.925104
 21
127.42171
 31
0.0
  0
LINE
  5
539
100
AcDbEntity
  8
0
  6
CONTINUOUS
 62
     7
100
AcDbLine
 10
216.856499
 20
127.61302
 30
0.0
 11
216.925798
 21
127.421433
 31
0.0
  0
LINE
  5
53A
100
AcDbEntity
  8
0
  6
CONTINUOUS
 62
     7
100
AcDbLine
 10
216.855804
 20
127.61309
 30
0.0
 11
216.724897
 21
127.456921
 31
0.0
  0
LINE
  5
53B
100
AcDbEntity
  8
0
  6
CONTINUOUS
 62
     7
100
AcDbLine
 10
216.644403
 20
127.643681
 30
0.0
 11
216.726296
 21
127.456712
 31
0.0
  0
LINE
  5
53C
100
AcDbEntity
  8
0
  6
CONTINUOUS
 62
     7
100
AcDbLine
 10
216.644403
 20
127.64375
 30
0.0
 11
216.5233
 21
127.47988
 31
0.0
  0
LINE
  5
53D
100
AcDbEntity
  8
0
  6
CONTINUOUS
 62
     7
100
AcDbLine
 10
216.431603
 20
127.66139
 30
0.0
 11
216.524005
 21
127.479741
 31
0.0
  0
LINE
  5
53E
100
AcDbEntity
  8
0
  6
CONTINUOUS
 62
     7
100
AcDbLine
 10
216.431603
 20
127.661459
 30
0.0
 11
216.320305
 21
127.490449
 31
0.0
  0
LINE
  5
53F
100
AcDbEntity
  8
0
  6
CONTINUOUS
 62
     7
100
AcDbLine
 10
216.218097
 20
127.666079
 30
0.0
 11
216.321704
 21
127.490379
 31
0.0
  0
LINE
  5
540
100
AcDbEntity
  8
0
  6
CONTINUOUS
 62
     7
100
AcDbLine
 10
216.217403
 20
127.666149
 30
0.0
 11
216.117299
 21
127.488702
 31
0.0
  0
LINE
  5
541
100
AcDbEntity
  8
0
  6
CONTINUOUS
 62
     7
100
AcDbLine
 10
216.004602
 20
127.657678
 30
0.0
 11
216.118698
 21
127.488628
 31
0.0
  0
LINE
  5
542
100
AcDbEntity
  8
0
  6
CONTINUOUS
 62
     7
100
AcDbLine
 10
216.003897
 20
127.657678
 30
0.0
 11
215.914998
 21
127.474491
 31
0.0
  0
LINE
  5
543
100
AcDbEntity
  8
0
  6
CONTINUOUS
 62
     7
100
AcDbLine
 10
215.791801
 20
127.636263
 30
0.0
 11
215.915703
 21
127.474491
 31
0.0
  0
LINE
  5
544
100
AcDbEntity
  8
0
  6
CONTINUOUS
 62
     7
100
AcDbLine
 10
215.791097
 20
127.636263
 30
0.0
 11
215.713402
 21
127.44789
 31
0.0
  0
LINE
  5
545
100
AcDbEntity
  8
0
  6
CONTINUOUS
 62
     7
100
AcDbLine
 10
215.5804
 20
127.601891
 30
0.0
 11
215.714096
 21
127.448029
 31
0.0
  0
LINE
  5
546
100
AcDbEntity
  8
0
  6
CONTINUOUS
 62
     7
100
AcDbLine
 10
215.5804
 20
127.601891
 30
0.0
 11
215.513899
 21
127.409112
 31
0.0
  0
LINE
  5
547
100
AcDbEntity
  8
0
  6
CONTINUOUS
 62
     7
100
AcDbLine
 10
215.372502
 20
127.554781
 30
0.0
 11
215.515299
 21
127.40932
 31
0.0
  0
LINE
  5
548
100
AcDbEntity
  8
0
  6
CONTINUOUS
 62
     7
100
AcDbLine
 10
215.371797
 20
127.554712
 30
0.0
 11
215.317195
 21
127.358221
 31
0.0
  0
LINE
  5
549
100
AcDbEntity
  8
0
  6
CONTINUOUS
 62
     7
100
AcDbLine
 10
215.166698
 20
127.494929
 30
0.0
 11
215.318605
 21
127.358499
 31
0.0
  0
LINE
  5
54A
100
AcDbEntity
  8
0
  6
CONTINUOUS
 62
     7
100
AcDbLine
 10
215.166698
 20
127.49486
 30
0.0
 11
215.124005
 21
127.295432
 31
0.0
  0
LINE
  5
54B
100
AcDbEntity
  8
0
  6
CONTINUOUS
 62
     7
100
AcDbLine
 10
214.965796
 20
127.422762
 30
0.0
 11
215.125404
 21
127.295849
 31
0.0
  0
LINE
  5
54C
100
AcDbEntity
  8
0
  6
CONTINUOUS
 62
     7
100
AcDbLine
 10
214.965796
 20
127.422618
 30
0.0
 11
214.935697
 21
127.220953
 31
0.0
  0
LINE
  5
54D
100
AcDbEntity
  8
0
  6
CONTINUOUS
 62
     7
100
AcDbLine
 10
214.769103
 20
127.338408
 30
0.0
 11
214.936401
 21
127.221439
 31
0.0
  0
LINE
  5
54E
100
AcDbEntity
  8
0
  6
CONTINUOUS
 62
     7
100
AcDbLine
 10
214.769103
 20
127.338199
 30
0.0
 11
214.751596
 21
127.135129
 31
0.0
  0
LINE
  5
54F
100
AcDbEntity
  8
0
  6
CONTINUOUS
 62
     7
100
AcDbLine
 10
214.5787
 20
127.24216
 30
0.0
 11
214.752301
 21
127.13569
 31
0.0
  0
LINE
  5
550
100
AcDbEntity
  8
0
  6
CONTINUOUS
 62
     7
100
AcDbLine
 10
214.577995
 20
127.242021
 30
0.0
 11
214.573104
 21
127.038182
 31
0.0
  0
LINE
  5
551
100
AcDbEntity
  8
0
  6
CONTINUOUS
 62
     7
100
AcDbLine
 10
214.393895
 20
127.134499
 30
0.0
 11
214.573798
 21
127.038812
 31
0.0
  0
LINE
  5
552
100
AcDbEntity
  8
0
  6
CONTINUOUS
 62
     7
100
AcDbLine
 10
214.393895
 20
127.134291
 30
0.0
 11
214.400902
 21
126.930521
 31
0.0
  0
LINE
  5
553
100
AcDbEntity
  8
0
  6
CONTINUOUS
 62
     7
100
AcDbLine
 10
214.216097
 20
127.015779
 30
0.0
 11
214.401596
 21
126.931221
 31
0.0
  0
LINE
  5
554
100
AcDbEntity
  8
0
  6
CONTINUOUS
 62
     7
100
AcDbLine
 10
214.216097
 20
127.015501
 30
0.0
 11
214.235697
 21
126.812569
 31
0.0
  0
LINE
  5
555
100
AcDbEntity
  8
0
  6
CONTINUOUS
 62
     7
100
AcDbLine
 10
214.045999
 20
126.886419
 30
0.0
 11
214.236401
 21
126.813339
 31
0.0
  0
LINE
  5
556
100
AcDbEntity
  8
0
  6
CONTINUOUS
 62
     7
100
AcDbLine
 10
214.045999
 20
126.886141
 30
0.0
 11
214.077498
 21
126.684748
 31
0.0
  0
LINE
  5
557
100
AcDbEntity
  8
0
  6
CONTINUOUS
 62
     7
100
AcDbLine
 10
213.884297
 20
126.746912
 30
0.0
 11
214.078203
 21
126.685592
 31
0.0
  0
LINE
  5
558
100
AcDbEntity
  8
0
  6
CONTINUOUS
 62
     7
100
AcDbLine
 10
213.883603
 20
126.74656
 30
0.0
 11
213.927694
 21
126.547549
 31
0.0
  0
LINE
  5
559
100
AcDbEntity
  8
0
  6
CONTINUOUS
 62
     7
100
AcDbLine
 10
213.731001
 20
126.597809
 30
0.0
 11
213.9284
 21
126.548462
 31
0.0
  0
LINE
  5
55A
100
AcDbEntity
  8
0
  6
CONTINUOUS
 62
     7
100
AcDbLine
 10
213.731001
 20
126.597392
 30
0.0
 11
213.787003
 21
126.401463
 31
0.0
  0
LINE
  5
55B
100
AcDbEntity
  8
0
  6
CONTINUOUS
 62
     7
100
AcDbLine
 10
213.586795
 20
126.439541
 30
0.0
 11
213.787697
 21
126.40244
 31
0.0
  0
LINE
  5
55C
100
AcDbEntity
  8
0
  6
CONTINUOUS
 62
     7
100
AcDbLine
 10
213.586795
 20
126.439189
 30
0.0
 11
213.6554
 21
126.24704
 31
0.0
  0
LINE
  5
55D
100
AcDbEntity
  8
0
  6
CONTINUOUS
 62
     7
100
AcDbLine
 10
213.453099
 20
126.272872
 30
0.0
 11
213.6554
 21
126.248023
 31
0.0
  0
LINE
  5
55E
100
AcDbEntity
  8
0
  6
CONTINUOUS
 62
     7
100
AcDbLine
 10
213.453099
 20
126.27252
 30
0.0
 11
213.532898
 21
126.084852
 31
0.0
  0
LINE
  5
55F
100
AcDbEntity
  8
0
  6
CONTINUOUS
 62
     7
100
AcDbLine
 10
213.329903
 20
126.098358
 30
0.0
 11
213.533603
 21
126.085899
 31
0.0
  0
LINE
  5
560
100
AcDbEntity
  8
0
  6
CONTINUOUS
 62
     7
100
AcDbLine
 10
213.329903
 20
126.097941
 30
0.0
 11
213.420895
 21
125.915449
 31
0.0
  0
LINE
  5
561
100
AcDbEntity
  8
0
  6
CONTINUOUS
 62
     7
100
AcDbLine
 10
213.217195
 20
125.91657
 30
0.0
 11
213.4216
 21
125.91657
 31
0.0
  0
LINE
  5
562
100
AcDbEntity
  8
0
  6
CONTINUOUS
 62
     7
100
AcDbLine
 10
213.217195
 20
125.916149
 30
0.0
 11
213.319403
 21
125.73961
 31
0.0
  0
LINE
  5
563
100
AcDbEntity
  8
0
  6
CONTINUOUS
 62
     7
100
AcDbLine
 10
213.116397
 20
125.728197
 30
0.0
 11
213.319403
 21
125.740662
 31
0.0
  0
LINE
  5
564
100
AcDbEntity
  8
0
  6
CONTINUOUS
 62
     7
100
AcDbLine
 10
213.116397
 20
125.72792
 30
0.0
 11
213.229105
 21
125.557892
 31
0.0
  0
LINE
  5
565
100
AcDbEntity
  8
0
  6
CONTINUOUS
 62
     7
100
AcDbLine
 10
213.026804
 20
125.534089
 30
0.0
 11
213.229105
 21
125.558939
 31
0.0
  0
LINE
  5
566
100
AcDbEntity
  8
0
  6
CONTINUOUS
 62
     7
100
AcDbLine
 10
213.026804
 20
125.533811
 30
0.0
 11
213.149295
 21
125.370988
 31
0.0
  0
LINE
  5
567
100
AcDbEntity
  8
0
  6
CONTINUOUS
 62
     7
100
AcDbLine
 10
212.949098
 20
125.334869
 30
0.0
 11
213.15
 21
125.37204
 31
0.0
  0
LINE
  5
568
100
AcDbEntity
  8
0
  6
CONTINUOUS
 62
     7
100
AcDbLine
 10
212.949098
 20
125.334591
 30
0.0
 11
213.0821
 21
125.179539
 31
0.0
  0
LINE
  5
569
100
AcDbEntity
  8
0
  6
CONTINUOUS
 62
     7
100
AcDbLine
 10
212.883997
 20
125.131239
 30
0.0
 11
213.0821
 21
125.180591
 31
0.0
  0
LINE
  5
56A
100
AcDbEntity
  8
0
  6
CONTINUOUS
 62
     7
100
AcDbLine
 10
212.883997
 20
125.13103
 30
0.0
 11
213.026099
 21
124.984378
 31
0.0
  0
LINE
  5
56B
100
AcDbEntity
  8
0
  6
CONTINUOUS
 62
     7
100
AcDbLine
 10
212.831499
 20
124.92404
 30
0.0
 11
213.026099
 21
124.985361
 31
0.0
  0
LINE
  5
56C
100
AcDbEntity
  8
0
  6
CONTINUOUS
 62
     7
100
AcDbLine
 10
212.831499
 20
124.923901
 30
0.0
 11
212.981997
 21
124.786141
 31
0.0
  0
LINE
  5
56D
100
AcDbEntity
  8
0
  6
CONTINUOUS
 62
     7
100
AcDbLine
 10
212.791605
 20
124.714038
 30
0.0
 11
212.981997
 21
124.787119
 31
0.0
  0
LINE
  5
56E
100
AcDbEntity
  8
0
  6
CONTINUOUS
 62
     7
100
AcDbLine
 10
212.791605
 20
124.713899
 30
0.0
 11
212.950497
 21
124.585592
 31
0.0
  0
LINE
  5
56F
100
AcDbEntity
  8
0
  6
CONTINUOUS
 62
     7
100
AcDbLine
 10
212.764304
 20
124.501942
 30
0.0
 11
212.949804
 21
124.5865
 31
0.0
  0
LINE
  5
570
100
AcDbEntity
  8
0
  6
CONTINUOUS
 62
     7
100
AcDbLine
 10
212.764998
 20
124.501942
 30
0.0
 11
212.930897
 21
124.383499
 31
0.0
  0
LINE
  5
571
100
AcDbEntity
  8
0
  6
CONTINUOUS
 62
     7
100
AcDbLine
 10
212.750301
 20
124.288651
 30
0.0
 11
212.930204
 21
124.384338
 31
0.0
  0
LINE
  5
572
100
AcDbEntity
  8
0
  6
CONTINUOUS
 62
     7
100
AcDbLine
 10
212.750995
 20
124.288651
 30
0.0
 11
212.923901
 21
124.180637
 31
0.0
  0
LINE
  5
573
100
AcDbEntity
  8
0
  6
CONTINUOUS
 62
     7
100
AcDbLine
 10
212.749596
 20
124.074873
 30
0.0
 11
212.923197
 21
124.181411
 31
0.0
  0
LINE
  5
574
100
AcDbEntity
  8
0
  6
CONTINUOUS
 62
     7
100
AcDbLine
 10
212.749596
 20
124.074942
 30
0.0
 11
212.928804
 21
123.977642
 31
0.0
  0
LINE
  5
575
100
AcDbEntity
  8
0
  6
CONTINUOUS
 62
     7
100
AcDbLine
 10
212.761505
 20
123.861442
 30
0.0
 11
212.928804
 21
123.978341
 31
0.0
  0
LINE
  5
576
100
AcDbEntity
  8
0
  6
CONTINUOUS
 62
     7
100
AcDbLine
 10
212.762199
 20
123.861581
 30
0.0
 11
212.947005
 21
123.775411
 31
0.0
  0
LINE
  5
577
100
AcDbEntity
  8
0
  6
CONTINUOUS
 62
     7
100
AcDbLine
 10
212.786702
 20
123.649133
 30
0.0
 11
212.9463
 21
123.776041
 31
0.0
  0
LINE
  5
578
100
AcDbEntity
  8
0
  6
CONTINUOUS
 62
     7
100
AcDbLine
 10
212.787397
 20
123.649341
 30
0.0
 11
212.977104
 21
123.574647
 31
0.0
  0
LINE
  5
579
100
AcDbEntity
  8
0
  6
CONTINUOUS
 62
     7
100
AcDbLine
 10
212.824503
 20
123.438778
 30
0.0
 11
212.976399
 21
123.575209
 31
0.0
  0
LINE
  5
57A
100
AcDbEntity
  8
0
  6
CONTINUOUS
 62
     7
100
AcDbLine
 10
212.825197
 20
123.439061
 30
0.0
 11
213.019103
 21
123.376058
 31
0.0
  0
LINE
  5
57B
100
AcDbEntity
  8
0
  6
CONTINUOUS
 62
     7
100
AcDbLine
 10
212.875601
 20
123.231089
 30
0.0
 11
213.018397
 21
123.37648
 31
0.0
  0
LINE
  5
57C
100
AcDbEntity
  8
0
  6
CONTINUOUS
 62
     7
100
AcDbLine
 10
212.875601
 20
123.23151
 30
0.0
 11
213.072999
 21
123.180411
 31
0.0
  0
LINE
  5
57D
100
AcDbEntity
  8
0
  6
CONTINUOUS
 62
     7
100
AcDbLine
 10
212.938599
 20
123.026902
 30
0.0
 11
213.072306
 21
123.180759
 31
0.0
  0
LINE
  5
57E
100
AcDbEntity
  8
0
  6
CONTINUOUS
 62
     7
100
AcDbLine
 10
212.939304
 20
123.027388
 30
0.0
 11
213.139501
 21
122.988471
 31
0.0
  0
LINE
  5
57F
100
AcDbEntity
  8
0
  6
CONTINUOUS
 62
     7
100
AcDbLine
 10
213.014905
 20
122.826977
 30
0.0
 11
213.138796
 21
122.988749
 31
0.0
  0
LINE
  5
580
100
AcDbEntity
  8
0
  6
CONTINUOUS
 62
     7
100
AcDbLine
 10
213.014905
 20
122.827539
 30
0.0
 11
213.217195
 21
122.800942
 31
0.0
  0
LINE
  5
581
100
AcDbEntity
  8
0
  6
CONTINUOUS
 62
     7
100
AcDbLine
 10
213.102405
 20
122.6321
 30
0.0
 11
213.216501
 21
122.801081
 31
0.0
  0
LINE
  5
582
100
AcDbEntity
  8
0
  6
CONTINUOUS
 62
     7
100
AcDbLine
 10
213.102405
 20
122.63273
 30
0.0
 11
213.306105
 21
122.618519
 31
0.0
  0
LINE
  5
583
100
AcDbEntity
  8
0
  6
CONTINUOUS
 62
     7
100
AcDbLine
 10
213.201804
 20
122.442889
 30
0.0
 11
213.3054
 21
122.618519
 31
0.0
  0
LINE
  5
584
100
AcDbEntity
  8
0
  6
CONTINUOUS
 62
     7
100
AcDbLine
 10
213.202498
 20
122.443589
 30
0.0
 11
213.406198
 21
122.441842
 31
0.0
  0
LINE
  5
585
100
AcDbEntity
  8
0
  6
CONTINUOUS
 62
     7
100
AcDbLine
 10
213.313101
 20
122.260049
 30
0.0
 11
213.405504
 21
122.441773
 31
0.0
  0
LINE
  5
586
100
AcDbEntity
  8
0
  6
CONTINUOUS
 62
     7
100
AcDbLine
 10
213.313101
 20
122.260893
 30
0.0
 11
213.516801
 21
122.271531
 31
0.0
  0
LINE
  5
587
100
AcDbEntity
  8
0
  6
CONTINUOUS
 62
     7
100
AcDbLine
 10
213.434899
 20
122.084419
 30
0.0
 11
213.516097
 21
122.271392
 31
0.0
  0
LINE
  5
588
100
AcDbEntity
  8
0
  6
CONTINUOUS
 62
     7
100
AcDbLine
 10
213.434899
 20
122.085331
 30
0.0
 11
213.637199
 21
122.10836
 31
0.0
  0
LINE
  5
589
100
AcDbEntity
  8
0
  6
CENTER
 62
     7
100
AcDbLine
 10
200.222399
 20
124.166149
 30
0.0
 11
221.533904
 21
124.166149
 31
0.0
  0
LINE
  5
58A
100
AcDbEntity
  8
0
  6
CONTINUOUS
 62
     7
100
AcDbLine
 10
81.27
 20
53.75
 30
0.0
 11
81.27
 21
75.45
 31
0.0
  0
LINE
  5
58B
100
AcDbEntity
  8
0
  6
CONTINUOUS
 62
     7
100
AcDbLine
 10
114.73
 20
53.75
 30
0.0
 11
114.73
 21
75.45
 31
0.0
  0
LINE
  5
58C
100
AcDbEntity
  8
0
  6
CONTINUOUS
 62
     7
100
AcDbLine
 10
114.03
 20
76.15
 30
0.0
 11
81.97
 21
76.15
 31
0.0
  0
LINE
  5
58D
100
AcDbEntity
  8
0
  6
CONTINUOUS
 62
     7
100
AcDbLine
 10
114.03
 20
53.05
 30
0.0
 11
81.97
 21
53.05
 31
0.0
  0
LINE
  5
58E
100
AcDbEntity
  8
0
  6
CONTINUOUS
 62
     7
100
AcDbLine
 10
49.139998
 20
136.647502
 30
0.0
 11
50.75
 21
136.647502
 31
0.0
  0
LINE
  5
58F
100
AcDbEntity
  8
0
  6
CONTINUOUS
 62
     7
100
AcDbLine
 10
145.25
 20
136.647502
 30
0.0
 11
146.860002
 21
136.647502
 31
0.0
  0
LINE
  5
590
100
AcDbEntity
  8
0
  6
CONTINUOUS
 62
     7
100
AcDbLine
 10
43.637997
 20
160.370501
 30
0.0
 11
49.139998
 21
160.370501
 31
0.0
  0
LINE
  5
591
100
AcDbEntity
  8
0
  6
CONTINUOUS
 62
     7
100
AcDbLine
 10
44.884419
 20
157.640495
 30
0.0
 11
49.139998
 21
157.640495
 31
0.0
  0
LINE
  5
592
100
AcDbEntity
  8
0
  6
DASHED
 62
     7
100
AcDbLine
 10
87.56503
 20
160.370501
 30
0.0
 11
98.558733
 21
157.815495
 31
0.0
  0
LINE
  5
593
100
AcDbEntity
  8
0
  6
DASHED
 62
     7
100
AcDbLine
 10
109.09689
 20
157.010499
 30
0.0
 11
110.1191
 21
157.010499
 31
0.0
  0
LINE
  5
594
100
AcDbEntity
  8
0
  6
CONTINUOUS
 62
     7
100
AcDbLine
 10
50.75
 20
160.370501
 30
0.0
 11
58.1
 21
160.370501
 31
0.0
  0
LINE
  5
595
100
AcDbEntity
  8
0
  6
CONTINUOUS
 62
     7
100
AcDbLine
 10
50.75
 20
157.640495
 30
0.0
 11
58.1
 21
157.640495
 31
0.0
  0
LINE
  5
633
100
AcDbEntity
  8
0
  6
CONTINUOUS
 62
     7
100
AcDbLine
 10
181.955897
 20
89.297051
 30
0.0
 11
221.995895
 21
89.297051
 31
0.0
  0
LINE
  5
634
100
AcDbEntity
  8
0
  6
CONTINUOUS
 62
     7
100
AcDbLine
 10
181.955897
 20
89.997051
 30
0.0
 11
221.995895
 21
89.997051
 31
0.0
  0
LINE
  5
635
100
AcDbEntity
  8
0
  6
CONTINUOUS
 62
     7
100
AcDbLine
 10
181.955897
 20
89.297051
 30
0.0
 11
181.955897
 21
89.997051
 31
0.0
  0
LINE
  5
636
100
AcDbEntity
  8
0
  6
CONTINUOUS
 62
     7
100
AcDbLine
 10
223.224399
 20
84.245291
 30
0.0
 11
226.895895
 21
84.11705
 31
0.0
  0
LINE
  5
637
100
AcDbEntity
  8
0
  6
CENTER
 62
     7
100
AcDbLine
 10
222.187697
 20
82.01705
 30
0.0
 11
231.266004
 21
82.01705
 31
0.0
  0
LINE
  5
638
100
AcDbEntity
  8
0
  6
CONTINUOUS
 62
     7
100
AcDbLine
 10
224.095895
 20
79.81926
 30
0.0
 11
226.895895
 21
79.91705
 31
0.0
  0
LINE
  5
639
100
AcDbEntity
  8
0
  6
CONTINUOUS
 62
     7
100
AcDbLine
 10
226.895895
 20
78.79705
 30
0.0
 11
226.895895
 21
84.397051
 31
0.0
  0
LINE
  5
63A
100
AcDbEntity
  8
0
  6
CONTINUOUS
 62
     7
100
AcDbLine
 10
227.595895
 20
78.79705
 30
0.0
 11
227.595895
 21
84.397051
 31
0.0
  0
LINE
  5
63B
100
AcDbEntity
  8
0
  6
CONTINUOUS
 62
     7
100
AcDbLine
 10
227.945895
 20
78.44705
 30
0.0
 11
230.395895
 21
78.44705
 31
0.0
  0
LINE
  5
63C
100
AcDbEntity
  8
0
  6
CONTINUOUS
 62
     7
100
AcDbLine
 10
227.945895
 20
77.74705
 30
0.0
 11
230.395895
 21
77.74705
 31
0.0
  0
LINE
  5
63D
100
AcDbEntity
  8
0
  6
CONTINUOUS
 62
     7
100
AcDbLine
 10
230.745895
 20
70.53705
 30
0.0
 11
230.745895
 21
77.39705
 31
0.0
  0
LINE
  5
63E
100
AcDbEntity
  8
0
  6
CONTINUOUS
 62
     7
100
AcDbLine
 10
231.445895
 20
69.96508
 30
0.0
 11
231.445895
 21
77.39705
 31
0.0
  0
LINE
  5
650
100
AcDbEntity
  8
0
  6
DASHED
 62
     7
100
AcDbLine
 10
58.1
 20
157.640495
 30
0.0
 11
87.25199
 21
157.640495
 31
0.0
  0
LINE
  5
651
100
AcDbEntity
  8
0
  6
DASHED
 62
     7
100
AcDbLine
 10
58.1
 20
160.370501
 30
0.0
 11
87.56503
 21
160.370501
 31
0.0
  0
LINE
  5
652
100
AcDbEntity
  8
0
  6
CONTINUOUS
 62
     7
100
AcDbLine
 10
58.1
 20
155.995501
 30
0.0
 11
56.162749
 21
155.995501
 31
0.0
  0
LINE
  5
653
100
AcDbEntity
  8
0
  6
DASHED
 62
     7
100
AcDbLine
 10
58.1
 20
148.967501
 30
0.0
 11
137.9
 21
148.967501
 31
0.0
  0
LINE
  5
654
100
AcDbEntity
  8
0
  6
CONTINUOUS
 62
     7
100
AcDbLine
 10
137.9
 20
148.967501
 30
0.0
 11
144.55
 21
148.967501
 31
0.0
  0
LINE
  5
655
100
AcDbEntity
  8
0
  6
CONTINUOUS
 62
     7
100
AcDbLine
 10
58.1
 20
163.317496
 30
0.0
 11
137.9
 21
163.317496
 31
0.0
  0
LINE
  5
656
100
AcDbEntity
  8
0
  6
CONTINUOUS
 62
     7
100
AcDbLine
 10
58.1
 20
159.467496
 30
0.0
 11
137.9
 21
159.467496
 31
0.0
  0
LINE
  5
657
100
AcDbEntity
  8
0
  6
CONTINUOUS
 62
     7
100
AcDbLine
 10
58.1
 20
163.317496
 30
0.0
 11
58.1
 21
130.463489
 31
0.0
  0
LINE
  5
658
100
AcDbEntity
  8
0
  6
CONTINUOUS
 62
     7
100
AcDbLine
 10
137.9
 20
163.317496
 30
0.0
 11
137.9
 21
130.463489
 31
0.0
  0
LINE
  5
659
100
AcDbEntity
  8
0
  6
CONTINUOUS
 62
     7
100
AcDbLine
 10
58.1
 20
89.297051
 30
0.0
 11
137.9
 21
89.297051
 31
0.0
  0
LINE
  5
65A
100
AcDbEntity
  8
0
  6
CONTINUOUS
 62
     7
100
AcDbLine
 10
58.1
 20
89.997051
 30
0.0
 11
137.9
 21
89.997051
 31
0.0
  0
LINE
  5
65B
100
AcDbEntity
  8
0
  6
CONTINUOUS
 62
     7
100
AcDbLine
 10
137.9
 20
85.171881
 30
0.0
 11
137.9
 21
89.997051
 31
0.0
  0
LINE
  5
65C
100
AcDbEntity
  8
0
  6
CONTINUOUS
 62
     7
100
AcDbLine
 10
58.1
 20
85.22095
 30
0.0
 11
58.1
 21
89.997051
 31
0.0
  0
LINE
  5
660
100
AcDbEntity
  8
0
  6
CONTINUOUS
 62
     7
100
AcDbLine
 10
144.55
 20
137.767501
 30
0.0
 11
145.25
 21
137.767501
 31
0.0
  0
LINE
  5
661
100
AcDbEntity
  8
0
  6
CONTINUOUS
 62
     7
100
AcDbLine
 10
144.55
 20
146.867501
 30
0.0
 11
145.25
 21
146.867501
 31
0.0
  0
LINE
  5
662
100
AcDbEntity
  8
0
  6
CONTINUOUS
 62
     7
100
AcDbLine
 10
48.439998
 20
137.767501
 30
0.0
 11
49.139998
 21
137.767501
 31
0.0
  0
LINE
  5
663
100
AcDbEntity
  8
0
  6
CONTINUOUS
 62
     7
100
AcDbLine
 10
48.439998
 20
146.867501
 30
0.0
 11
49.139998
 21
146.867501
 31
0.0
  0
LINE
  5
664
100
AcDbEntity
  8
0
  6
CONTINUOUS
 62
     7
100
AcDbLine
 10
50.75
 20
146.867501
 30
0.0
 11
51.45
 21
146.867501
 31
0.0
  0
LINE
  5
665
100
AcDbEntity
  8
0
  6
CONTINUOUS
 62
     7
100
AcDbLine
 10
50.75
 20
137.767501
 30
0.0
 11
51.45
 21
137.767501
 31
0.0
  0
LINE
  5
666
100
AcDbEntity
  8
0
  6
CONTINUOUS
 62
     7
100
AcDbLine
 10
146.860002
 20
146.867501
 30
0.0
 11
147.560002
 21
146.867501
 31
0.0
  0
LINE
  5
667
100
AcDbEntity
  8
0
  6
CONTINUOUS
 62
     7
100
AcDbLine
 10
146.860002
 20
137.767501
 30
0.0
 11
147.560002
 21
137.767501
 31
0.0
  0
CIRCLE
  5
6E4
100
AcDbEntity
  8
0
  6
CONTINUOUS
 62
     7
100
AcDbCircle
 10
210.464801
 20
64.600007
 30
0.0
 40
4.2
  0
CIRCLE
  5
6E5
100
AcDbEntity
  8
0
  6
CONTINUOUS
 62
     7
100
AcDbCircle
 10
210.464801
 20
64.600007
 30
0.0
 40
4.55
  0
ARC
  5
6E9
100
AcDbEntity
  8
0
  6
CONTINUOUS
 62
     7
100
AcDbCircle
 10
52.639998
 20
39.31754
 30
0.0
 40
1.89
100
AcDbArc
 50
180.0
 51
270.0
  0
ARC
  5
6EA
100
AcDbEntity
  8
0
  6
CONTINUOUS
 62
     7
100
AcDbCircle
 10
52.639998
 20
39.789059
 30
0.0
 40
3.5
100
AcDbArc
 50
180.0
 51
270.0
  0
ARC
  5
6EB
100
AcDbEntity
  8
0
  6
CONTINUOUS
 62
     7
100
AcDbCircle
 10
47.880001
 20
61.635914
 30
0.0
 40
3.85
100
AcDbArc
 50
159.408005
 51
177.557007
  0
ARC
  5
6EC
100
AcDbEntity
  8
0
  6
CONTINUOUS
 62
     7
100
AcDbCircle
 10
49.499589
 20
64.600014
 30
0.0
 40
5.466069
100
AcDbArc
 50
162.869995
 51
197.130005
  0
ARC
  5
6ED
100
AcDbEntity
  8
0
  6
CONTINUOUS
 62
     7
100
AcDbCircle
 10
47.880001
 20
67.564108
 30
0.0
 40
3.85
100
AcDbArc
 50
182.442993
 51
200.591995
  0
ARC
  5
6EE
100
AcDbEntity
  8
0
  6
CONTINUOUS
 62
     7
100
AcDbCircle
 10
148.119999
 20
67.564108
 30
0.0
 40
3.85
100
AcDbArc
 50
339.40799
 51
357.557007
  0
ARC
  5
6EF
100
AcDbEntity
  8
0
  6
CONTINUOUS
 62
     7
100
AcDbCircle
 10
146.50048
 20
64.600014
 30
0.0
 40
5.466069
100
AcDbArc
 50
342.869995
 51
17.130199
  0
ARC
  5
6F0
100
AcDbEntity
  8
0
  6
CONTINUOUS
 62
     7
100
AcDbCircle
 10
148.119999
 20
61.635914
 30
0.0
 40
3.85
100
AcDbArc
 50
2.4429
 51
20.592199
  0
ARC
  5
6F1
100
AcDbEntity
  8
0
  6
CONTINUOUS
 62
     7
100
AcDbCircle
 10
143.360002
 20
39.31754
 30
0.0
 40
1.89
100
AcDbArc
 50
270.0
 51
0.0
  0
ARC
  5
6F2
100
AcDbEntity
  8
0
  6
CONTINUOUS
 62
     7
100
AcDbCircle
 10
143.360002
 20
39.789059
 30
0.0
 40
3.5
100
AcDbArc
 50
270.0
 51
0.0
  0
ARC
  5
6F3
100
AcDbEntity
  8
0
  6
CONTINUOUS
 62
     7
100
AcDbCircle
 10
47.880001
 20
145.281302
 30
0.0
 40
3.85
100
AcDbArc
 50
182.442993
 51
200.591995
  0
ARC
  5
6F4
100
AcDbEntity
  8
0
  6
CONTINUOUS
 62
     7
100
AcDbCircle
 10
49.499589
 20
142.317501
 30
0.0
 40
5.466069
100
AcDbArc
 50
162.869995
 51
197.130005
  0
ARC
  5
6F5
100
AcDbEntity
  8
0
  6
CONTINUOUS
 62
     7
100
AcDbCircle
 10
47.880001
 20
139.353001
 30
0.0
 40
3.85
100
AcDbArc
 50
159.408005
 51
177.557007
  0
ARC
  5
6F6
100
AcDbEntity
  8
0
  6
CONTINUOUS
 62
     7
100
AcDbCircle
 10
146.50048
 20
142.317501
 30
0.0
 40
5.466069
100
AcDbArc
 50
342.869995
 51
17.130199
  0
ARC
  5
6F7
100
AcDbEntity
  8
0
  6
CONTINUOUS
 62
     7
100
AcDbCircle
 10
148.120069
 20
139.353001
 30
0.0
 40
3.85
100
AcDbArc
 50
2.4428
 51
20.5921
  0
ARC
  5
6F8
100
AcDbEntity
  8
0
  6
CONTINUOUS
 62
     7
100
AcDbCircle
 10
148.120069
 20
145.281302
 30
0.0
 40
3.85
100
AcDbArc
 50
339.40799
 51
357.557007
  0
ARC
  5
6F9
100
AcDbEntity
  8
0
  6
CONTINUOUS
 62
     7
100
AcDbCircle
 10
143.360002
 20
164.315703
 30
0.0
 40
1.89
100
AcDbArc
 50
0.0
 51
90.0
  0
ARC
  5
6FA
100
AcDbEntity
  8
0
  6
CONTINUOUS
 62
     7
100
AcDbCircle
 10
143.360002
 20
178.693698
 30
0.0
 40
3.5
100
AcDbArc
 50
0.0
 51
90.0
  0
ARC
  5
6FB
100
AcDbEntity
  8
0
  6
CONTINUOUS
 62
     7
100
AcDbCircle
 10
52.639998
 20
164.315703
 30
0.0
 40
1.89
100
AcDbArc
 50
90.0
 51
180.0
  0
ARC
  5
6FC
100
AcDbEntity
  8
0
  6
CONTINUOUS
 62
     7
100
AcDbCircle
 10
52.639998
 20
178.693698
 30
0.0
 40
3.5
100
AcDbArc
 50
90.0
 51
180.0
  0
ARC
  5
6FD
100
AcDbEntity
  8
0
  6
CONTINUOUS
 62
     7
100
AcDbCircle
 10
192.5
 20
64.600014
 30
0.0
 40
140.0
100
AcDbArc
 50
173.576996
 51
186.423004
  0
ARC
  5
6FE
100
AcDbEntity
  8
0
  6
CONTINUOUS
 62
     7
100
AcDbCircle
 10
58.943709
 20
79.63579
 30
0.0
 40
5.6
100
AcDbArc
 50
91.068497
 51
173.576996
  0
ARC
  5
6FF
100
AcDbEntity
  8
0
  6
CONTINUOUS
 62
     7
100
AcDbCircle
 10
98.000011
 20
-2014.4
 30
0.0
 40
2100.0
100
AcDbArc
 50
88.926697
 51
91.068604
  0
ARC
  5
700
100
AcDbEntity
  8
0
  6
CONTINUOUS
 62
     7
100
AcDbCircle
 10
137.056291
 20
79.63579
 30
0.0
 40
5.6
100
AcDbArc
 50
6.42327
 51
88.931396
  0
ARC
  5
701
100
AcDbEntity
  8
0
  6
CONTINUOUS
 62
     7
100
AcDbCircle
 10
3.5
 20
64.600014
 30
0.0
 40
140.0
100
AcDbArc
 50
353.576996
 51
6.42326
  0
ARC
  5
702
100
AcDbEntity
  8
0
  6
CONTINUOUS
 62
     7
100
AcDbCircle
 10
137.056291
 20
49.56421
 30
0.0
 40
5.6
100
AcDbArc
 50
271.069
 51
353.576996
  0
ARC
  5
703
100
AcDbEntity
  8
0
  6
CONTINUOUS
 62
     7
100
AcDbCircle
 10
98.000011
 20
2143.6
 30
0.0
 40
2100.0
100
AcDbArc
 50
268.931
 51
271.072998
  0
ARC
  5
704
100
AcDbEntity
  8
0
  6
CONTINUOUS
 62
     7
100
AcDbCircle
 10
117.25
 20
76.85
 30
0.0
 40
2.45
100
AcDbArc
 50
0.0
 51
90.0
  0
ARC
  5
705
100
AcDbEntity
  8
0
  6
CONTINUOUS
 62
     7
100
AcDbCircle
 10
117.25
 20
76.85
 30
0.0
 40
1.75
100
AcDbArc
 50
0.0
 51
90.0
  0
ARC
  5
706
100
AcDbEntity
  8
0
  6
CONTINUOUS
 62
     7
100
AcDbCircle
 10
117.25
 20
52.35
 30
0.0
 40
1.75
100
AcDbArc
 50
270.0
 51
0.0
  0
ARC
  5
707
100
AcDbEntity
  8
0
  6
CONTINUOUS
 62
     7
100
AcDbCircle
 10
117.25
 20
52.35
 30
0.0
 40
2.45
100
AcDbArc
 50
270.0
 51
0.0
  0
ARC
  5
708
100
AcDbEntity
  8
0
  6
CENTER
 62
     7
100
AcDbCircle
 10
98.000011
 20
2143.6
 30
0.0
 40
2098.6
100
AcDbArc
 50
268.967987
 51
271.032013
  0
ARC
  5
709
100
AcDbEntity
  8
0
  6
CENTER
 62
     7
100
AcDbCircle
 10
135.699829
 20
50.93964
 30
0.0
 40
5.6
100
AcDbArc
 50
271.032013
 51
354.100006
  0
ARC
  5
70A
100
AcDbEntity
  8
0
  6
CENTER
 62
     7
100
AcDbCircle
 10
3.5
 20
64.600014
 30
0.0
 40
138.502694
100
AcDbArc
 50
354.100006
 51
5.89952
  0
ARC
  5
70B
100
AcDbEntity
  8
0
  6
CENTER
 62
     7
100
AcDbCircle
 10
135.699829
 20
78.26043
 30
0.0
 40
5.6
100
AcDbArc
 50
5.89954
 51
88.967903
  0
ARC
  5
70C
100
AcDbEntity
  8
0
  6
CENTER
 62
     7
100
AcDbCircle
 10
98.000011
 20
-2014.4
 30
0.0
 40
2098.6
100
AcDbArc
 50
88.967903
 51
91.032097
  0
ARC
  5
70D
100
AcDbEntity
  8
0
  6
CONTINUOUS
 62
     7
100
AcDbCircle
 10
58.943709
 20
49.56421
 30
0.0
 40
5.6
100
AcDbArc
 50
186.423004
 51
268.931
  0
ARC
  5
70E
100
AcDbEntity
  8
0
  6
CONTINUOUS
 62
     7
100
AcDbCircle
 10
78.75
 20
76.85
 30
0.0
 40
1.75
100
AcDbArc
 50
90.000099
 51
180.0
  0
ARC
  5
70F
100
AcDbEntity
  8
0
  6
CONTINUOUS
 62
     7
100
AcDbCircle
 10
78.75
 20
76.85
 30
0.0
 40
2.45
100
AcDbArc
 50
90.000099
 51
180.0
  0
ARC
  5
710
100
AcDbEntity
  8
0
  6
CONTINUOUS
 62
     7
100
AcDbCircle
 10
78.75
 20
52.35
 30
0.0
 40
1.75
100
AcDbArc
 50
180.0
 51
270.0
  0
ARC
  5
711
100
AcDbEntity
  8
0
  6
CONTINUOUS
 62
     7
100
AcDbCircle
 10
78.75
 20
52.35
 30
0.0
 40
2.45
100
AcDbArc
 50
180.0
 51
270.0
  0
ARC
  5
712
100
AcDbEntity
  8
0
  6
CENTER
 62
     7
100
AcDbCircle
 10
60.30024
 20
78.26043
 30
0.0
 40
5.6
100
AcDbArc
 50
91.032097
 51
174.100006
  0
ARC
  5
713
100
AcDbEntity
  8
0
  6
CENTER
 62
     7
100
AcDbCircle
 10
192.5
 20
64.600014
 30
0.0
 40
138.502694
100
AcDbArc
 50
174.100998
 51
185.899002
  0
ARC
  5
714
100
AcDbEntity
  8
0
  6
CENTER
 62
     7
100
AcDbCircle
 10
60.30024
 20
50.93964
 30
0.0
 40
5.6
100
AcDbArc
 50
185.899994
 51
268.967987
  0
ARC
  5
715
100
AcDbEntity
  8
0
  6
CONTINUOUS
 62
     7
100
AcDbCircle
 10
78.75
 20
76.85
 30
0.0
 40
3.15
100
AcDbArc
 50
90.000099
 51
180.0
  0
ARC
  5
716
100
AcDbEntity
  8
0
  6
CONTINUOUS
 62
     7
100
AcDbCircle
 10
78.75
 20
52.35
 30
0.0
 40
3.15
100
AcDbArc
 50
180.0
 51
270.0
  0
ARC
  5
717
100
AcDbEntity
  8
0
  6
CONTINUOUS
 62
     7
100
AcDbCircle
 10
117.25
 20
52.35
 30
0.0
 40
3.15
100
AcDbArc
 50
270.0
 51
0.0
  0
ARC
  5
718
100
AcDbEntity
  8
0
  6
CONTINUOUS
 62
     7
100
AcDbCircle
 10
117.25
 20
76.85
 30
0.0
 40
3.15
100
AcDbArc
 50
0.0
 51
90.0
  0
ARC
  5
719
100
AcDbEntity
  8
0
  6
CONTINUOUS
 62
     7
100
AcDbCircle
 10
304.485303
 20
151.676503
 30
0.0
 40
252.0
100
AcDbArc
 50
180.615997
 51
186.112
  0
ARC
  5
71A
100
AcDbEntity
  8
0
  6
CONTINUOUS
 62
     7
100
AcDbCircle
 10
-108.485303
 20
151.676503
 30
0.0
 40
252.0
100
AcDbArc
 50
353.888
 51
359.384003
  0
ARC
  5
71B
100
AcDbEntity
  8
0
  6
CONTINUOUS
 62
     7
100
AcDbCircle
 10
140.6902
 20
124.996629
 30
0.0
 40
1.4
100
AcDbArc
 50
295.723999
 51
353.888
  0
ARC
  5
71C
100
AcDbEntity
  8
0
  6
CONTINUOUS
 62
     7
100
AcDbCircle
 10
137.652131
 20
131.303001
 30
0.0
 40
8.4
100
AcDbArc
 50
277.497009
 51
295.723999
  0
ARC
  5
71D
100
AcDbEntity
  8
0
  6
DASHED
 62
     7
100
AcDbCircle
 10
111.346759
 20
331.178897
 30
0.0
 40
210.0
100
AcDbArc
 50
272.279999
 51
276.234009
  0
ARC
  5
71E
100
AcDbEntity
  8
0
  6
CONTINUOUS
 62
     7
100
AcDbCircle
 10
84.65331
 20
331.178897
 30
0.0
 40
210.0
100
AcDbArc
 50
262.502014
 51
263.765991
  0
ARC
  5
71F
100
AcDbEntity
  8
0
  6
CONTINUOUS
 62
     7
100
AcDbCircle
 10
58.347869
 20
131.303001
 30
0.0
 40
8.4
100
AcDbArc
 50
244.276001
 51
262.502014
  0
ARC
  5
720
100
AcDbEntity
  8
0
  6
CONTINUOUS
 62
     7
100
AcDbCircle
 10
55.3098
 20
124.996629
 30
0.0
 40
1.4
100
AcDbArc
 50
186.112
 51
244.276001
  0
ARC
  5
721
100
AcDbEntity
  8
0
  6
CONTINUOUS
 62
     7
100
AcDbCircle
 10
108.49629
 20
148.3179
 30
0.0
 40
56.0
100
AcDbArc
 50
175.436005
 51
179.335999
  0
ARC
  5
722
100
AcDbEntity
  8
0
  6
CONTINUOUS
 62
     7
100
AcDbCircle
 10
56.162749
 20
152.495501
 30
0.0
 40
3.5
100
AcDbArc
 50
90.0
 51
175.436005
  0
ARC
  5
723
100
AcDbEntity
  8
0
  6
CONTINUOUS
 62
     7
100
AcDbCircle
 10
53.251521
 20
149.667501
 30
0.0
 40
0.7
100
AcDbArc
 50
90.0
 51
175.917007
  0
ARC
  5
724
100
AcDbEntity
  8
0
  6
CONTINUOUS
 62
     7
100
AcDbCircle
 10
94.327492
 20
155.295501
 30
0.0
 40
0.7
100
AcDbArc
 50
1.99985
 51
90.0
  0
ARC
  5
725
100
AcDbEntity
  8
0
  6
DASHED
 62
     7
100
AcDbCircle
 10
111.8691
 20
158.515495
 30
0.0
 40
1.75
100
AcDbArc
 50
90.0
 51
180.0
  0
ARC
  5
726
100
AcDbEntity
  8
0
  6
DASHED
 62
     7
100
AcDbCircle
 10
125.026581
 20
156.765495
 30
0.0
 40
3.5
100
AcDbArc
 50
1.99985
 51
89.999901
  0
ARC
  5
727
100
AcDbEntity
  8
0
  6
CONTINUOUS
 62
     7
100
AcDbCircle
 10
60.34336
 20
155.295501
 30
0.0
 40
0.7
100
AcDbArc
 50
90.0
 51
178.0
  0
ARC
  5
728
100
AcDbEntity
  8
0
  6
CONTINUOUS
 62
     7
100
AcDbCircle
 10
101.672529
 20
155.295501
 30
0.0
 40
0.7
100
AcDbArc
 50
90.0
 51
178.0
  0
ARC
  5
729
100
AcDbEntity
  8
0
  6
CONTINUOUS
 62
     7
100
AcDbCircle
 10
116.90882
 20
158.515495
 30
0.0
 40
1.75
100
AcDbArc
 50
90.0
 51
180.0
  0
ARC
  5
72A
100
AcDbEntity
  8
0
  6
CONTINUOUS
 62
     7
100
AcDbCircle
 10
128.893591
 20
156.345501
 30
0.0
 40
0.35
100
AcDbArc
 50
182.001007
 51
270.0
  0
ARC
  5
72B
100
AcDbEntity
  8
0
  6
CONTINUOUS
 62
     7
100
AcDbCircle
 10
135.65664
 20
155.295501
 30
0.0
 40
0.699999
100
AcDbArc
 50
1.99985
 51
90.0
  0
ARC
  5
72C
100
AcDbEntity
  8
0
  6
CONTINUOUS
 62
     7
100
AcDbCircle
 10
142.748479
 20
149.667501
 30
0.0
 40
0.699998
100
AcDbArc
 50
4.08278
 51
90.0
  0
ARC
  5
72D
100
AcDbEntity
  8
0
  6
CONTINUOUS
 62
     7
100
AcDbCircle
 10
87.50371
 20
148.3179
 30
0.0
 40
56.0
100
AcDbArc
 50
0.664346
 51
4.56374
  0
ARC
  5
72E
100
AcDbEntity
  8
0
  6
CONTINUOUS
 62
     7
100
AcDbCircle
 10
139.837251
 20
152.495501
 30
0.0
 40
3.5
100
AcDbArc
 50
4.56376
 51
90.0
  0
ARC
  5
72F
100
AcDbEntity
  8
0
  6
CONTINUOUS
 62
     7
100
AcDbCircle
 10
95.006086
 20
157.115495
 30
0.0
 40
0.7
100
AcDbArc
 50
89.999901
 51
178.0
  0
ARC
  5
730
100
AcDbEntity
  8
0
  6
CONTINUOUS
 62
     7
100
AcDbCircle
 10
108.39283
 20
157.115495
 30
0.0
 40
0.7
100
AcDbArc
 50
1.99985
 51
89.999901
  0
CIRCLE
  5
731
100
AcDbEntity
  8
0
  6
CONTINUOUS
 62
     7
100
AcDbCircle
 10
210.464801
 20
64.600007
 30
0.0
 40
3.255
  0
CIRCLE
  5
732
100
AcDbEntity
  8
0
  6
CONTINUOUS
 62
     7
100
AcDbCircle
 10
210.464801
 20
64.600007
 30
0.0
 40
1.225
  0
CIRCLE
  5
733
100
AcDbEntity
  8
0
  6
CONTINUOUS
 62
     7
100
AcDbCircle
 10
210.464801
 20
64.600007
 30
0.0
 40
1.4
  0
ARC
  5
734
100
AcDbEntity
  8
0
  6
CONTINUOUS
 62
     7
100
AcDbCircle
 10
224.8659
 20
72.650069
 30
0.0
 40
3.5
100
AcDbArc
 50
0.000306
 51
62.770302
  0
ARC
  5
735
100
AcDbEntity
  8
0
  6
CONTINUOUS
 62
     7
100
AcDbCircle
 10
223.395895
 20
78.76079
 30
0.0
 40
0.7
100
AcDbArc
 50
0.000328
 51
88.000198
  0
ARC
  5
736
100
AcDbEntity
  8
0
  6
CONTINUOUS
 62
     7
100
AcDbCircle
 10
217.7679
 20
44.35257
 30
0.0
 40
0.7
100
AcDbArc
 50
274.085999
 51
0.000328
  0
ARC
  5
737
100
AcDbEntity
  8
0
  6
CONTINUOUS
 62
     7
100
AcDbCircle
 10
217.7679
 20
84.847499
 30
0.0
 40
0.7
100
AcDbArc
 50
0.000219
 51
85.913696
  0
ARC
  5
738
100
AcDbEntity
  8
0
  6
CONTINUOUS
 62
     7
100
AcDbCircle
 10
218.053504
 20
-166.399295
 30
0.0
 40
252.0
100
AcDbArc
 50
90.224098
 51
95.766998
  0
ARC
  5
739
100
AcDbEntity
  8
0
  6
CONTINUOUS
 62
     7
100
AcDbCircle
 10
192.872399
 20
82.93258
 30
0.0
 40
1.4
100
AcDbArc
 50
95.767197
 51
138.248993
  0
ARC
  5
73A
100
AcDbEntity
  8
0
  6
CONTINUOUS
 62
     7
100
AcDbCircle
 10
198.095097
 20
78.27121
 30
0.0
 40
8.4
100
AcDbArc
 50
138.248993
 51
157.222
  0
ARC
  5
73B
100
AcDbEntity
  8
0
  6
CONTINUOUS
 62
     7
100
AcDbCircle
 10
287.161008
 20
40.870771
 30
0.0
 40
105.0
100
AcDbArc
 50
157.222
 51
158.531006
  0
ARC
  5
73C
100
AcDbEntity
  8
0
  6
CONTINUOUS
 62
     7
100
AcDbCircle
 10
216.427405
 20
29.60259
 30
0.0
 40
56.0
100
AcDbArc
 50
85.445801
 51
89.343201
  0
ARC
  5
73D
100
AcDbEntity
  8
0
  6
CONTINUOUS
 62
     7
100
AcDbCircle
 10
220.595895
 20
81.936829
 30
0.0
 40
3.5
100
AcDbArc
 50
0.000306
 51
85.4459
  0
ARC
  5
73E
100
AcDbEntity
  8
0
  6
CONTINUOUS
 62
     7
100
AcDbCircle
 10
220.595895
 20
47.26324
 30
0.0
 40
3.5
100
AcDbArc
 50
274.554993
 51
0.00024
  0
ARC
  5
73F
100
AcDbEntity
  8
0
  6
CONTINUOUS
 62
     7
100
AcDbCircle
 10
216.427405
 20
99.59741
 30
0.0
 40
56.0
100
AcDbArc
 50
270.657013
 51
274.554993
  0
ARC
  5
740
100
AcDbEntity
  8
0
  6
CONTINUOUS
 62
     7
100
AcDbCircle
 10
218.051399
 20
295.599295
 30
0.0
 40
252.0
100
AcDbArc
 50
264.234009
 51
269.776001
  0
ARC
  5
741
100
AcDbEntity
  8
0
  6
CONTINUOUS
 62
     7
100
AcDbCircle
 10
192.873104
 20
46.26728
 30
0.0
 40
1.4
100
AcDbArc
 50
221.751999
 51
264.234009
  0
ARC
  5
742
100
AcDbEntity
  8
0
  6
CONTINUOUS
 62
     7
100
AcDbCircle
 10
198.095097
 20
50.92865
 30
0.0
 40
8.4
100
AcDbArc
 50
202.779007
 51
221.751999
  0
ARC
  5
743
100
AcDbEntity
  8
0
  6
CONTINUOUS
 62
     7
100
AcDbCircle
 10
287.161008
 20
88.329859
 30
0.0
 40
105.0
100
AcDbArc
 50
201.468994
 51
202.779007
  0
ARC
  5
744
100
AcDbEntity
  8
0
  6
CONTINUOUS
 62
     7
100
AcDbCircle
 10
218.8179
 20
49.22877
 30
0.0
 40
0.35
100
AcDbArc
 50
92.000702
 51
180.0
  0
ARC
  5
745
100
AcDbEntity
  8
0
  6
CONTINUOUS
 62
     7
100
AcDbCircle
 10
218.8179
 20
79.9713
 30
0.0
 40
0.35
100
AcDbArc
 50
180.0
 51
267.998993
  0
ARC
  5
746
100
AcDbEntity
  8
0
  6
CONTINUOUS
 62
     7
100
AcDbCircle
 10
189.445895
 20
78.94755
 30
0.0
 40
0.35
100
AcDbArc
 50
90.0
 51
180.0
  0
ARC
  5
747
100
AcDbEntity
  8
0
  6
CONTINUOUS
 62
     7
100
AcDbCircle
 10
189.445895
 20
50.24755
 30
0.0
 40
0.35
100
AcDbArc
 50
180.0
 51
270.0
  0
ARC
  5
748
100
AcDbEntity
  8
0
  6
CONTINUOUS
 62
     7
100
AcDbCircle
 10
52.639998
 20
179.164801
 30
0.0
 40
1.89
100
AcDbArc
 50
90.0
 51
180.0
  0
ARC
  5
749
100
AcDbEntity
  8
0
  6
CONTINUOUS
 62
     7
100
AcDbCircle
 10
143.360002
 20
179.164801
 30
0.0
 40
1.89
100
AcDbArc
 50
0.0
 51
90.0
  0
ARC
  5
74A
100
AcDbEntity
  8
0
  6
CONTINUOUS
 62
     7
100
AcDbCircle
 10
59.132849
 20
150.717496
 30
0.0
 40
0.35
100
AcDbArc
 50
270.0
 51
357.998993
  0
ARC
  5
74B
100
AcDbEntity
  8
0
  6
CONTINUOUS
 62
     7
100
AcDbCircle
 10
95.538009
 20
150.717496
 30
0.0
 40
0.35
100
AcDbArc
 50
182.001007
 51
270.0
  0
ARC
  5
74C
100
AcDbEntity
  8
0
  6
CONTINUOUS
 62
     7
100
AcDbCircle
 10
100.462019
 20
150.717496
 30
0.0
 40
0.35
100
AcDbArc
 50
270.0
 51
357.998993
  0
ARC
  5
74D
100
AcDbEntity
  8
0
  6
CONTINUOUS
 62
     7
100
AcDbCircle
 10
136.867221
 20
150.717496
 30
0.0
 40
0.35
100
AcDbArc
 50
182.001007
 51
270.0
  0
CIRCLE
  5
74E
100
AcDbEntity
  8
0
  6
CONTINUOUS
 62
     7
100
AcDbCircle
 10
216.248197
 20
133.266501
 30
0.0
 40
2.1
  0
ARC
  5
74F
100
AcDbEntity
  8
0
  6
CENTER
 62
     7
100
AcDbCircle
 10
216.248197
 20
133.266501
 30
0.0
 40
21.909999
100
AcDbArc
 50
192.328003
 51
223.044006
  0
ARC
  5
750
100
AcDbEntity
  8
0
  6
CONTINUOUS
 62
     7
100
AcDbCircle
 10
198.006903
 20
121.130111
 30
0.0
 40
2.45
100
AcDbArc
 50
213.634995
 51
33.635201
  0
ARC
  5
751
100
AcDbEntity
  8
0
  6
CONTINUOUS
 62
     7
100
AcDbCircle
 10
196.176399
 20
124.482129
 30
0.0
 40
2.45
100
AcDbArc
 50
23.6353
 51
203.634995
  0
ARC
  5
752
100
AcDbEntity
  8
0
  6
CONTINUOUS
 62
     7
100
AcDbCircle
 10
216.248197
 20
133.266501
 30
0.0
 40
19.459999
100
AcDbArc
 50
203.634995
 51
213.634995
  0
ARC
  5
753
100
AcDbEntity
  8
0
  6
CONTINUOUS
 62
     7
100
AcDbCircle
 10
216.248197
 20
133.266501
 30
0.0
 40
24.359999
100
AcDbArc
 50
203.634995
 51
213.634995
  0
ARC
  5
754
100
AcDbEntity
  8
0
  6
CENTER
 62
     7
100
AcDbCircle
 10
216.248197
 20
133.266501
 30
0.0
 40
21.909999
100
AcDbArc
 50
313.946991
 51
347.671997
  0
ARC
  5
755
100
AcDbEntity
  8
0
  6
CONTINUOUS
 62
     7
100
AcDbCircle
 10
234.490194
 20
121.130111
 30
0.0
 40
2.45
100
AcDbArc
 50
146.365005
 51
326.36499
  0
ARC
  5
756
100
AcDbEntity
  8
0
  6
CONTINUOUS
 62
     7
100
AcDbCircle
 10
236.320699
 20
124.482129
 30
0.0
 40
2.45
100
AcDbArc
 50
336.36499
 51
156.365005
  0
ARC
  5
757
100
AcDbEntity
  8
0
  6
CONTINUOUS
 62
     7
100
AcDbCircle
 10
216.248197
 20
133.266501
 30
0.0
 40
19.459999
100
AcDbArc
 50
326.36499
 51
336.36499
  0
ARC
  5
758
100
AcDbEntity
  8
0
  6
CONTINUOUS
 62
     7
100
AcDbCircle
 10
216.248197
 20
133.266501
 30
0.0
 40
24.359999
100
AcDbArc
 50
326.36499
 51
336.36499
  0
ARC
  5
759
100
AcDbEntity
  8
0
  6
CENTER
 62
     7
100
AcDbCircle
 10
216.248197
 20
133.266501
 30
0.0
 40
35.0
100
AcDbArc
 50
181.522995
 51
226.270996
  0
ARC
  5
75A
100
AcDbEntity
  8
0
  6
CONTINUOUS
 62
     7
100
AcDbCircle
 10
216.248197
 20
133.266501
 30
0.0
 40
32.9
100
AcDbArc
 50
189.0
 51
199.0
  0
ARC
  5
75B
100
AcDbEntity
  8
0
  6
CONTINUOUS
 62
     7
100
AcDbCircle
 10
216.248197
 20
133.266501
 30
0.0
 40
37.1
100
AcDbArc
 50
189.0
 51
199.0
  0
ARC
  5
75C
100
AcDbEntity
  8
0
  6
CONTINUOUS
 62
     7
100
AcDbCircle
 10
181.6794
 20
127.790958
 30
0.0
 40
2.1
100
AcDbArc
 50
8.99992
 51
189.0
  0
ARC
  5
75D
100
AcDbEntity
  8
0
  6
CONTINUOUS
 62
     7
100
AcDbCircle
 10
183.155701
 20
121.871271
 30
0.0
 40
2.1
100
AcDbArc
 50
199.0
 51
18.999901
  0
ARC
  5
75E
100
AcDbEntity
  8
0
  6
CENTER
 62
     7
100
AcDbCircle
 10
216.248197
 20
133.266501
 30
0.0
 40
35.0
100
AcDbArc
 50
334.44101
 51
358.476013
  0
ARC
  5
75F
100
AcDbEntity
  8
0
  6
CONTINUOUS
 62
     7
100
AcDbCircle
 10
216.248197
 20
133.266501
 30
0.0
 40
32.9
100
AcDbArc
 50
341.0
 51
351.0
  0
ARC
  5
760
100
AcDbEntity
  8
0
  6
CONTINUOUS
 62
     7
100
AcDbCircle
 10
216.248197
 20
133.266501
 30
0.0
 40
37.1
100
AcDbArc
 50
341.0
 51
351.0
  0
ARC
  5
761
100
AcDbEntity
  8
0
  6
CONTINUOUS
 62
     7
100
AcDbCircle
 10
250.817704
 20
127.790958
 30
0.0
 40
2.099993
100
AcDbArc
 50
351.0
 51
171.0
  0
ARC
  5
762
100
AcDbEntity
  8
0
  6
CONTINUOUS
 62
     7
100
AcDbCircle
 10
249.341397
 20
121.871271
 30
0.0
 40
2.100007
100
AcDbArc
 50
161.0
 51
341.0
  0
CIRCLE
  5
763
100
AcDbEntity
  8
0
  6
CONTINUOUS
 62
     7
100
AcDbCircle
 10
216.248197
 20
183.666501
 30
0.0
 40
1.75
  0
CIRCLE
  5
764
100
AcDbEntity
  8
0
  6
CONTINUOUS
 62
     7
100
AcDbCircle
 10
182.298202
 20
175.266501
 30
0.0
 40
1.75
  0
CIRCLE
  5
765
100
AcDbEntity
  8
0
  6
CONTINUOUS
 62
     7
100
AcDbCircle
 10
250.198197
 20
175.266501
 30
0.0
 40
1.75
  0
ARC
  5
766
100
AcDbEntity
  8
0
  6
CONTINUOUS
 62
     7
100
AcDbCircle
 10
220.026804
 20
56.703797
 30
0.0
 40
17.5
100
AcDbArc
 50
45.0
 51
123.0
  0
ARC
  5
767
100
AcDbEntity
  8
0
  6
CONTINUOUS
 62
     7
100
AcDbCircle
 10
197.450404
 20
29.783051
 30
0.0
 40
31.5
100
AcDbArc
 50
45.0
 51
69.5037
  0
ARC
  5
768
100
AcDbEntity
  8
0
  6
CONTINUOUS
 62
     7
100
AcDbCircle
 10
210.464801
 20
64.600007
 30
0.0
 40
5.67
100
AcDbArc
 50
123.0
 51
249.503998
  0
CIRCLE
  5
769
100
AcDbEntity
  8
0
  6
CONTINUOUS
 62
     7
100
AcDbCircle
 10
210.464801
 20
64.600007
 30
0.0
 40
3.255
  0
ARC
  5
76A
100
AcDbEntity
  8
0
  6
CONTINUOUS
 62
     7
100
AcDbCircle
 10
221.435904
 20
76.01007
 30
0.0
 40
4.900007
100
AcDbArc
 50
343.743011
 51
16.2572
  0
ARC
  5
76B
100
AcDbEntity
  8
0
  6
CONTINUOUS
 62
     7
100
AcDbCircle
 10
225.4679
 20
74.834279
 30
0.0
 40
0.7
100
AcDbArc
 50
275.0
 51
343.743011
  0
ARC
  5
76C
100
AcDbEntity
  8
0
  6
CONTINUOUS
 62
     7
100
AcDbCircle
 10
225.4679
 20
77.185859
 30
0.0
 40
0.700007
100
AcDbArc
 50
16.2572
 51
84.999901
  0
CIRCLE
  5
76D
100
AcDbEntity
  8
0
  6
CONTINUOUS
 62
     7
100
AcDbCircle
 10
98.000011
 20
177.554799
 30
0.0
 40
2.1
  0
ARC
  5
76E
100
AcDbEntity
  8
0
  6
CONTINUOUS
 62
     7
100
AcDbCircle
 10
98.000011
 20
181.754799
 30
0.0
 40
19.459999
100
AcDbArc
 50
203.634995
 51
213.634995
  0
ARC
  5
76F
100
AcDbEntity
  8
0
  6
CONTINUOUS
 62
     7
100
AcDbCircle
 10
77.92792
 20
172.971196
 30
0.0
 40
2.45
100
AcDbArc
 50
23.6353
 51
203.634995
  0
ARC
  5
770
100
AcDbEntity
  8
0
  6
CONTINUOUS
 62
     7
100
AcDbCircle
 10
98.000011
 20
181.754799
 30
0.0
 40
24.359999
100
AcDbArc
 50
203.634995
 51
213.634995
  0
ARC
  5
771
100
AcDbEntity
  8
0
  6
CONTINUOUS
 62
     7
100
AcDbCircle
 10
79.75821
 20
169.618895
 30
0.0
 40
2.45
100
AcDbArc
 50
213.634995
 51
33.635201
  0
ARC
  5
772
100
AcDbEntity
  8
0
  6
CONTINUOUS
 62
     7
100
AcDbCircle
 10
98.000011
 20
181.754799
 30
0.0
 40
32.9
100
AcDbArc
 50
189.0
 51
199.0
  0
ARC
  5
773
100
AcDbEntity
  8
0
  6
CONTINUOUS
 62
     7
100
AcDbCircle
 10
63.430921
 20
176.280099
 30
0.0
 40
2.1
100
AcDbArc
 50
8.99992
 51
189.0
  0
ARC
  5
774
100
AcDbEntity
  8
0
  6
CONTINUOUS
 62
     7
100
AcDbCircle
 10
98.000011
 20
181.754799
 30
0.0
 40
37.1
100
AcDbArc
 50
189.0
 51
199.0
  0
ARC
  5
775
100
AcDbEntity
  8
0
  6
CONTINUOUS
 62
     7
100
AcDbCircle
 10
64.906869
 20
170.360199
 30
0.0
 40
2.1
100
AcDbArc
 50
199.0
 51
18.999901
  0
ARC
  5
776
100
AcDbEntity
  8
0
  6
CONTINUOUS
 62
     7
100
AcDbCircle
 10
98.000011
 20
181.754799
 30
0.0
 40
19.459999
100
AcDbArc
 50
326.36499
 51
336.36499
  0
ARC
  5
777
100
AcDbEntity
  8
0
  6
CONTINUOUS
 62
     7
100
AcDbCircle
 10
118.07208
 20
172.971196
 30
0.0
 40
2.45
100
AcDbArc
 50
336.36499
 51
156.365005
  0
ARC
  5
778
100
AcDbEntity
  8
0
  6
CONTINUOUS
 62
     7
100
AcDbCircle
 10
116.241859
 20
169.618895
 30
0.0
 40
2.45
100
AcDbArc
 50
146.365005
 51
326.36499
  0
ARC
  5
779
100
AcDbEntity
  8
0
  6
CONTINUOUS
 62
     7
100
AcDbCircle
 10
98.000011
 20
181.754799
 30
0.0
 40
24.359999
100
AcDbArc
 50
326.36499
 51
336.36499
  0
ARC
  5
77A
100
AcDbEntity
  8
0
  6
CONTINUOUS
 62
     7
100
AcDbCircle
 10
98.000011
 20
181.754799
 30
0.0
 40
32.9
100
AcDbArc
 50
341.0
 51
351.0
  0
ARC
  5
77B
100
AcDbEntity
  8
0
  6
CONTINUOUS
 62
     7
100
AcDbCircle
 10
132.569079
 20
176.280099
 30
0.0
 40
2.1
100
AcDbArc
 50
351.0
 51
171.0
  0
ARC
  5
77C
100
AcDbEntity
  8
0
  6
CONTINUOUS
 62
     7
100
AcDbCircle
 10
98.000011
 20
181.754799
 30
0.0
 40
37.1
100
AcDbArc
 50
341.0
 51
351.0
  0
ARC
  5
77D
100
AcDbEntity
  8
0
  6
CONTINUOUS
 62
     7
100
AcDbCircle
 10
131.093131
 20
170.360199
 30
0.0
 40
2.1
100
AcDbArc
 50
161.0
 51
341.0
  0
ARC
  5
77E
100
AcDbEntity
  8
0
  6
CONTINUOUS
 62
     7
100
AcDbCircle
 10
52.208169
 20
137.067501
 30
0.0
 40
0.7
100
AcDbArc
 50
3.31443
 51
90.0
  0
ARC
  5
77F
100
AcDbEntity
  8
0
  6
CONTINUOUS
 62
     7
100
AcDbCircle
 10
143.791831
 20
137.067501
 30
0.0
 40
0.7
100
AcDbArc
 50
90.0
 51
176.686005
  0
ARC
  5
780
100
AcDbEntity
  8
0
  6
CONTINUOUS
 62
     7
100
AcDbCircle
 10
51.897999
 20
69.85
 30
0.0
 40
0.7
100
AcDbArc
 50
270.0
 51
357.862
  0
ARC
  5
781
100
AcDbEntity
  8
0
  6
CONTINUOUS
 62
     7
100
AcDbCircle
 10
51.897999
 20
59.350014
 30
0.0
 40
0.7
100
AcDbArc
 50
2.1384
 51
90.0
  0
ARC
  5
782
100
AcDbEntity
  8
0
  6
CONTINUOUS
 62
     7
100
AcDbCircle
 10
144.102001
 20
59.350014
 30
0.0
 40
0.7
100
AcDbArc
 50
90.0
 51
177.862
  0
ARC
  5
783
100
AcDbEntity
  8
0
  6
CONTINUOUS
 62
     7
100
AcDbCircle
 10
144.102001
 20
69.85
 30
0.0
 40
0.7
100
AcDbArc
 50
182.138
 51
270.0
  0
CIRCLE
  5
784
100
AcDbEntity
  8
0
  6
CONTINUOUS
 62
     7
100
AcDbCircle
 10
216.248197
 20
124.166149
 30
0.0
 40
3.5
  0
CIRCLE
  5
785
100
AcDbEntity
  8
0
  6
CONTINUOUS
 62
     7
100
AcDbCircle
 10
216.248197
 20
124.166149
 30
0.0
 40
3.325
  0
CIRCLE
  5
786
100
AcDbEntity
  8
0
  6
CONTINUOUS
 62
     7
100
AcDbCircle
 10
216.248197
 20
124.166149
 30
0.0
 40
2.1
  0
CIRCLE
  5
787
100
AcDbEntity
  8
0
  6
CONTINUOUS
 62
     7
100
AcDbCircle
 10
216.248197
 20
124.166149
 30
0.0
 40
1.925
  0
ARC
  5
788
100
AcDbEntity
  8
0
  6
CONTINUOUS
 62
     7
100
AcDbCircle
 10
114.03
 20
75.45
 30
0.0
 40
0.7
100
AcDbArc
 50
0.0
 51
90.0
  0
ARC
  5
789
100
AcDbEntity
  8
0
  6
CONTINUOUS
 62
     7
100
AcDbCircle
 10
81.97
 20
75.45
 30
0.0
 40
0.7
100
AcDbArc
 50
90.0
 51
180.0
  0
ARC
  5
78A
100
AcDbEntity
  8
0
  6
CONTINUOUS
 62
     7
100
AcDbCircle
 10
81.97
 20
53.75
 30
0.0
 40
0.7
100
AcDbArc
 50
180.0
 51
270.0
  0
ARC
  5
78B
100
AcDbEntity
  8
0
  6
CONTINUOUS
 62
     7
100
AcDbCircle
 10
114.03
 20
53.75
 30
0.0
 40
0.7
100
AcDbArc
 50
270.0
 51
0.0
  0
ARC
  5
7AD
100
AcDbEntity
  8
0
  6
CONTINUOUS
 62
     7
100
AcDbCircle
 10
221.995895
 20
84.397051
 30
0.0
 40
5.6
100
AcDbArc
 50
0.0
 51
90.0
  0
ARC
  5
7AE
100
AcDbEntity
  8
0
  6
CONTINUOUS
 62
     7
100
AcDbCircle
 10
221.995895
 20
84.397051
 30
0.0
 40
4.9
100
AcDbArc
 50
0.0
 51
90.0
  0
ARC
  5
7AF
100
AcDbEntity
  8
0
  6
CONTINUOUS
 62
     7
100
AcDbCircle
 10
227.945895
 20
78.79705
 30
0.0
 40
0.35
100
AcDbArc
 50
180.0
 51
270.0
  0
ARC
  5
7B0
100
AcDbEntity
  8
0
  6
CONTINUOUS
 62
     7
100
AcDbCircle
 10
227.945895
 20
78.79705
 30
0.0
 40
1.05
100
AcDbArc
 50
180.0
 51
270.0
  0
ARC
  5
7B1
100
AcDbEntity
  8
0
  6
CONTINUOUS
 62
     7
100
AcDbCircle
 10
230.395895
 20
77.39705
 30
0.0
 40
1.05
100
AcDbArc
 50
0.0
 51
90.0
  0
ARC
  5
7B2
100
AcDbEntity
  8
0
  6
CONTINUOUS
 62
     7
100
AcDbCircle
 10
230.395895
 20
77.39705
 30
0.0
 40
0.35
100
AcDbArc
 50
0.0
 51
90.0
  0
ARC
  5
7B8
100
AcDbEntity
  8
0
  6
CONTINUOUS
 62
     7
100
AcDbCircle
 10
111.346759
 20
331.178897
 30
0.0
 40
210.0
100
AcDbArc
 50
276.234009
 51
277.438995
  0
ARC
  5
7B9
100
AcDbEntity
  8
0
  6
DASHED
 62
     7
100
AcDbCircle
 10
84.65331
 20
331.178897
 30
0.0
 40
210.0
100
AcDbArc
 50
263.765991
 51
267.720001
  0
ARC
  5
7BB
100
AcDbEntity
  8
0
  6
CONTINUOUS
 62
     7
100
AcDbCircle
 10
68.6
 20
130.463489
 30
0.0
 40
10.5
100
AcDbArc
 50
180.0
 51
246.421997
  0
ARC
  5
7BC
100
AcDbEntity
  8
0
  6
CONTINUOUS
 62
     7
100
AcDbCircle
 10
98.000011
 20
197.827498
 30
0.0
 40
84.0
100
AcDbArc
 50
246.421997
 51
293.578003
  0
ARC
  5
7BD
100
AcDbEntity
  8
0
  6
CONTINUOUS
 62
     7
100
AcDbCircle
 10
127.4
 20
130.463489
 30
0.0
 40
10.5
100
AcDbArc
 50
293.578003
 51
0.0
  0
TEXT
  5
86C
100
AcDbEntity
  8
0
 62
     7
100
AcDbText
 10
10.3838
 20
185.669196
 30
0.0
 40
2.1
  1
塗装色：マンセルＮ７（５分ツヤ）
 41
0.670028
100
AcDbText
  0
TEXT
  5
86F
100
AcDbEntity
  8
0
 62
     7
100
AcDbText
 10
249.280504
 20
37.09462
 30
0.0
 40
2.1
  1
A
 41
0.82
100
AcDbText
  0
TEXT
  5
870
100
AcDbEntity
  8
0
 62
     7
100
AcDbText
 10
42.087575
 20
40.92551
 30
0.0
 40
2.1
  1
（取付け足標準位置）
 50
90.0
 41
0.687208
100
AcDbText
  0
TEXT
  5
871
100
AcDbEntity
  8
0
 62
     7
100
AcDbText
 10
180.157597
 20
122.937576
 30
0.0
 40
2.1
  1
穴
 41
0.82
100
AcDbText
  0
TEXT
  5
872
100
AcDbEntity
  8
0
 62
     7
100
AcDbText
 10
194.802301
 20
120.767929
 30
0.0
 40
2.1
  1
穴
 41
0.82
100
AcDbText
  0
TEXT
  5
873
100
AcDbEntity
  8
0
 62
     7
100
AcDbText
 10
214.250863
 20
146.987199
 30
0.0
 40
3.5
  1
A
 41
0.82
100
AcDbText
  0
TEXT
  5
874
100
AcDbEntity
  8
0
 62
     7
100
AcDbText
 10
254.562697
 20
185.319901
 30
0.0
 40
2.1
  1
取付け穴図
 41
0.740896
100
AcDbText
  0
POINT
  5
8DF
100
AcDbEntity
  8
0
 62
     7
100
AcDbPoint
 10
210.464801
 20
64.600007
 30
0.0
  0
LINE
  5
8E0
100
AcDbEntity
  8
0
  6
CONTINUOUS
 62
     7
100
AcDbLine
 10
210.464801
 20
67.820007
 30
0.0
 11
207.6767
 21
66.21
 31
0.0
  0
LINE
  5
8E1
100
AcDbEntity
  8
0
  6
CONTINUOUS
 62
     7
100
AcDbLine
 10
207.6767
 20
66.210007
 30
0.0
 11
207.6767
 21
62.990007
 31
0.0
  0
LINE
  5
8E2
100
AcDbEntity
  8
0
  6
CONTINUOUS
 62
     7
100
AcDbLine
 10
207.6767
 20
62.990014
 30
0.0
 11
210.464801
 21
61.380009
 31
0.0
  0
LINE
  5
8E3
100
AcDbEntity
  8
0
  6
CONTINUOUS
 62
     7
100
AcDbLine
 10
210.464801
 20
61.38001
 30
0.0
 11
213.253597
 21
62.990014
 31
0.0
  0
LINE
  5
8E4
100
AcDbEntity
  8
0
  6
CONTINUOUS
 62
     7
100
AcDbLine
 10
213.253597
 20
62.990007
 30
0.0
 11
213.253597
 21
66.210007
 31
0.0
  0
LINE
  5
8E5
100
AcDbEntity
  8
0
  6
CONTINUOUS
 62
     7
100
AcDbLine
 10
213.253597
 20
66.210014
 30
0.0
 11
210.464801
 21
67.820014
 31
0.0
  0
CIRCLE
  5
8E6
100
AcDbEntity
  8
0
  6
CONTINUOUS
 62
     7
100
AcDbCircle
 10
210.464801
 20
64.600007
 30
0.0
 40
2.788604
  0
POINT
  5
8E7
100
AcDbEntity
  8
0
 62
     0
100
AcDbPoint
 10
56.380871
 20
150.367501
 30
0.0
  0
LINE
  5
8E8
100
AcDbEntity
  8
0
  6
CONTINUOUS
 62
     0
100
AcDbLine
 10
53.930871
 20
150.927498
 30
0.0
 11
58.830871
 21
150.927498
 31
0.0
  0
LINE
  5
8E9
100
AcDbEntity
  8
0
  6
CONTINUOUS
 62
     0
100
AcDbLine
 10
55.155871
 20
152.817496
 30
0.0
 11
57.605871
 21
152.817496
 31
0.0
  0
LINE
  5
8EA
100
AcDbEntity
  8
0
  6
CONTINUOUS
 62
     0
100
AcDbLine
 10
58.305871
 20
152.117496
 30
0.0
 11
58.305871
 21
151.417496
 31
0.0
  0
LINE
  5
8EB
100
AcDbEntity
  8
0
  6
CONTINUOUS
 62
     0
100
AcDbLine
 10
54.455871
 20
152.117496
 30
0.0
 11
54.455871
 21
151.417496
 31
0.0
  0
LINE
  5
8EC
100
AcDbEntity
  8
0
  6
CONTINUOUS
 62
     0
100
AcDbLine
 10
55.885901
 20
152.322595
 30
0.0
 11
56.380871
 21
152.817496
 31
0.0
  0
LINE
  5
8ED
100
AcDbEntity
  8
0
  6
CONTINUOUS
 62
     0
100
AcDbLine
 10
56.380871
 20
152.817496
 30
0.0
 11
56.875841
 21
152.322595
 31
0.0
  0
LINE
  5
8EE
100
AcDbEntity
  8
0
  6
CONTINUOUS
 62
     0
100
AcDbLine
 10
53.930871
 20
150.367501
 30
0.0
 11
58.830871
 21
150.367501
 31
0.0
  0
LINE
  5
8EF
100
AcDbEntity
  8
0
  6
CONTINUOUS
 62
     0
100
AcDbLine
 10
58.830871
 20
150.367501
 30
0.0
 11
58.830871
 21
150.927498
 31
0.0
  0
LINE
  5
8F0
100
AcDbEntity
  8
0
  6
CONTINUOUS
 62
     0
100
AcDbLine
 10
53.930871
 20
150.367501
 30
0.0
 11
53.930871
 21
150.927498
 31
0.0
  0
LINE
  5
8F1
100
AcDbEntity
  8
0
  6
CENTER
 62
     0
100
AcDbLine
 10
58.445869
 20
151.417496
 30
0.0
 11
58.445869
 21
150.927498
 31
0.0
  0
LINE
  5
8F2
100
AcDbEntity
  8
0
  6
CENTER
 62
     0
100
AcDbLine
 10
54.315871
 20
151.417496
 30
0.0
 11
54.315871
 21
150.927498
 31
0.0
  0
LINE
  5
8F3
100
AcDbEntity
  8
0
  6
CONTINUOUS
 62
     0
100
AcDbLine
 10
54.315871
 20
151.417496
 30
0.0
 11
58.445869
 21
151.417496
 31
0.0
  0
LINE
  5
8F4
100
AcDbEntity
  8
0
  6
CONTINUOUS
 62
     0
100
AcDbLine
 10
56.170869
 20
150.927498
 30
0.0
 11
56.660869
 21
151.417496
 31
0.0
  0
ARC
  5
8F5
100
AcDbEntity
  8
0
  6
CONTINUOUS
 62
     0
100
AcDbCircle
 10
57.605871
 20
152.117496
 30
0.0
 40
0.7
100
AcDbArc
 50
0.0
 51
90.0
  0
ARC
  5
8F6
100
AcDbEntity
  8
0
  6
CONTINUOUS
 62
     0
100
AcDbCircle
 10
55.155871
 20
152.117496
 30
0.0
 40
0.7
100
AcDbArc
 50
90.0
 51
180.0
  0
POINT
  5
8F7
100
AcDbEntity
  8
0
 62
     0
100
AcDbPoint
 10
139.619129
 20
150.367501
 30
0.0
  0
LINE
  5
8F8
100
AcDbEntity
  8
0
  6
CONTINUOUS
 62
     0
100
AcDbLine
 10
137.169129
 20
150.927498
 30
0.0
 11
142.069129
 21
150.927498
 31
0.0
  0
LINE
  5
8F9
100
AcDbEntity
  8
0
  6
CONTINUOUS
 62
     0
100
AcDbLine
 10
138.394129
 20
152.817496
 30
0.0
 11
140.844129
 21
152.817496
 31
0.0
  0
LINE
  5
8FA
100
AcDbEntity
  8
0
  6
CONTINUOUS
 62
     0
100
AcDbLine
 10
141.544129
 20
152.117496
 30
0.0
 11
141.544129
 21
151.417496
 31
0.0
  0
LINE
  5
8FB
100
AcDbEntity
  8
0
  6
CONTINUOUS
 62
     0
100
AcDbLine
 10
137.694129
 20
152.117496
 30
0.0
 11
137.694129
 21
151.417496
 31
0.0
  0
LINE
  5
8FC
100
AcDbEntity
  8
0
  6
CONTINUOUS
 62
     0
100
AcDbLine
 10
139.124159
 20
152.322595
 30
0.0
 11
139.619129
 21
152.817496
 31
0.0
  0
LINE
  5
8FD
100
AcDbEntity
  8
0
  6
CONTINUOUS
 62
     0
100
AcDbLine
 10
139.619129
 20
152.817496
 30
0.0
 11
140.114099
 21
152.322595
 31
0.0
  0
LINE
  5
8FE
100
AcDbEntity
  8
0
  6
CONTINUOUS
 62
     0
100
AcDbLine
 10
137.169129
 20
150.367501
 30
0.0
 11
142.069129
 21
150.367501
 31
0.0
  0
LINE
  5
8FF
100
AcDbEntity
  8
0
  6
CONTINUOUS
 62
     0
100
AcDbLine
 10
142.069129
 20
150.367501
 30
0.0
 11
142.069129
 21
150.927498
 31
0.0
  0
LINE
  5
900
100
AcDbEntity
  8
0
  6
CONTINUOUS
 62
     0
100
AcDbLine
 10
137.169129
 20
150.367501
 30
0.0
 11
137.169129
 21
150.927498
 31
0.0
  0
LINE
  5
901
100
AcDbEntity
  8
0
  6
CENTER
 62
     0
100
AcDbLine
 10
141.684129
 20
151.417496
 30
0.0
 11
141.684129
 21
150.927498
 31
0.0
  0
LINE
  5
902
100
AcDbEntity
  8
0
  6
CENTER
 62
     0
100
AcDbLine
 10
137.554131
 20
151.417496
 30
0.0
 11
137.554131
 21
150.927498
 31
0.0
  0
LINE
  5
903
100
AcDbEntity
  8
0
  6
CONTINUOUS
 62
     0
100
AcDbLine
 10
137.554131
 20
151.417496
 30
0.0
 11
141.684129
 21
151.417496
 31
0.0
  0
LINE
  5
904
100
AcDbEntity
  8
0
  6
CONTINUOUS
 62
     0
100
AcDbLine
 10
139.409129
 20
150.927498
 30
0.0
 11
139.89913
 21
151.417496
 31
0.0
  0
ARC
  5
905
100
AcDbEntity
  8
0
  6
CONTINUOUS
 62
     0
100
AcDbCircle
 10
140.844129
 20
152.117496
 30
0.0
 40
0.7
100
AcDbArc
 50
0.0
 51
90.0
  0
ARC
  5
906
100
AcDbEntity
  8
0
  6
CONTINUOUS
 62
     0
100
AcDbCircle
 10
138.394129
 20
152.117496
 30
0.0
 40
0.7
100
AcDbArc
 50
90.0
 51
180.0
  0
POINT
  5
99B
100
AcDbEntity
  8
0
 62
     7
100
AcDbPoint
 10
218.4679
 20
82.01705
 30
0.0
  0
LINE
  5
99C
100
AcDbEntity
  8
0
  6
CONTINUOUS
 62
     7
100
AcDbLine
 10
219.027902
 20
84.46705
 30
0.0
 11
219.027902
 21
79.56705
 31
0.0
  0
LINE
  5
99D
100
AcDbEntity
  8
0
  6
CONTINUOUS
 62
     7
100
AcDbLine
 10
220.9179
 20
83.24205
 30
0.0
 11
220.9179
 21
80.79205
 31
0.0
  0
LINE
  5
99E
100
AcDbEntity
  8
0
  6
CONTINUOUS
 62
     7
100
AcDbLine
 10
220.2179
 20
80.09205
 30
0.0
 11
219.5179
 21
80.09205
 31
0.0
  0
LINE
  5
99F
100
AcDbEntity
  8
0
  6
CONTINUOUS
 62
     7
100
AcDbLine
 10
220.2179
 20
83.94205
 30
0.0
 11
219.5179
 21
83.94205
 31
0.0
  0
LINE
  5
9A0
100
AcDbEntity
  8
0
  6
CONTINUOUS
 62
     7
100
AcDbLine
 10
220.422306
 20
82.51202
 30
0.0
 11
220.9179
 21
82.01705
 31
0.0
  0
LINE
  5
9A1
100
AcDbEntity
  8
0
  6
CONTINUOUS
 62
     7
100
AcDbLine
 10
220.9179
 20
82.01705
 30
0.0
 11
220.422306
 21
81.52208
 31
0.0
  0
LINE
  5
9A2
100
AcDbEntity
  8
0
  6
CONTINUOUS
 62
     7
100
AcDbLine
 10
218.4679
 20
84.46705
 30
0.0
 11
218.4679
 21
79.56705
 31
0.0
  0
LINE
  5
9A3
100
AcDbEntity
  8
0
  6
CONTINUOUS
 62
     7
100
AcDbLine
 10
218.4679
 20
79.56705
 30
0.0
 11
219.027902
 21
79.56705
 31
0.0
  0
LINE
  5
9A4
100
AcDbEntity
  8
0
  6
CONTINUOUS
 62
     7
100
AcDbLine
 10
218.4679
 20
84.46705
 30
0.0
 11
219.027902
 21
84.46705
 31
0.0
  0
LINE
  5
9A5
100
AcDbEntity
  8
0
  6
CENTER
 62
     7
100
AcDbLine
 10
219.5179
 20
79.952049
 30
0.0
 11
219.027902
 21
79.952049
 31
0.0
  0
LINE
  5
9A6
100
AcDbEntity
  8
0
  6
CENTER
 62
     7
100
AcDbLine
 10
219.5179
 20
84.082051
 30
0.0
 11
219.027902
 21
84.082051
 31
0.0
  0
LINE
  5
9A7
100
AcDbEntity
  8
0
  6
CONTINUOUS
 62
     7
100
AcDbLine
 10
219.5179
 20
84.082051
 30
0.0
 11
219.5179
 21
79.952049
 31
0.0
  0
LINE
  5
9A8
100
AcDbEntity
  8
0
  6
CONTINUOUS
 62
     7
100
AcDbLine
 10
219.027902
 20
82.227049
 30
0.0
 11
219.5179
 21
81.737051
 31
0.0
  0
ARC
  5
9A9
100
AcDbEntity
  8
0
  6
CONTINUOUS
 62
     7
100
AcDbCircle
 10
220.2179
 20
80.79205
 30
0.0
 40
0.7
100
AcDbArc
 50
270.0
 51
0.0
  0
ARC
  5
9AA
100
AcDbEntity
  8
0
  6
CONTINUOUS
 62
     7
100
AcDbCircle
 10
220.2179
 20
83.24205
 30
0.0
 40
0.7
100
AcDbArc
 50
0.0
 51
90.0
  0
POINT
  5
9AB
100
AcDbEntity
  8
0
 62
     7
100
AcDbPoint
 10
227.595895
 20
82.01705
 30
0.0
  0
LINE
  5
9AC
100
AcDbEntity
  8
0
  6
CONTINUOUS
 62
     7
100
AcDbLine
 10
228.155897
 20
84.46705
 30
0.0
 11
228.155897
 21
79.56705
 31
0.0
  0
LINE
  5
9AD
100
AcDbEntity
  8
0
  6
CONTINUOUS
 62
     7
100
AcDbLine
 10
230.045895
 20
83.24205
 30
0.0
 11
230.045895
 21
80.79205
 31
0.0
  0
LINE
  5
9AE
100
AcDbEntity
  8
0
  6
CONTINUOUS
 62
     7
100
AcDbLine
 10
229.345895
 20
80.09205
 30
0.0
 11
228.645895
 21
80.09205
 31
0.0
  0
LINE
  5
9AF
100
AcDbEntity
  8
0
  6
CONTINUOUS
 62
     7
100
AcDbLine
 10
229.345895
 20
83.94205
 30
0.0
 11
228.645895
 21
83.94205
 31
0.0
  0
LINE
  5
9B0
100
AcDbEntity
  8
0
  6
CONTINUOUS
 62
     7
100
AcDbLine
 10
229.550301
 20
82.51202
 30
0.0
 11
230.045895
 21
82.01705
 31
0.0
  0
LINE
  5
9B1
100
AcDbEntity
  8
0
  6
CONTINUOUS
 62
     7
100
AcDbLine
 10
230.045895
 20
82.01705
 30
0.0
 11
229.550301
 21
81.52208
 31
0.0
  0
LINE
  5
9B2
100
AcDbEntity
  8
0
  6
CONTINUOUS
 62
     7
100
AcDbLine
 10
227.595895
 20
84.46705
 30
0.0
 11
227.595895
 21
79.56705
 31
0.0
  0
LINE
  5
9B3
100
AcDbEntity
  8
0
  6
CONTINUOUS
 62
     7
100
AcDbLine
 10
227.595895
 20
79.56705
 30
0.0
 11
228.155897
 21
79.56705
 31
0.0
  0
LINE
  5
9B4
100
AcDbEntity
  8
0
  6
CONTINUOUS
 62
     7
100
AcDbLine
 10
227.595895
 20
84.46705
 30
0.0
 11
228.155897
 21
84.46705
 31
0.0
  0
LINE
  5
9B5
100
AcDbEntity
  8
0
  6
CENTER
 62
     7
100
AcDbLine
 10
228.645895
 20
79.952049
 30
0.0
 11
228.155897
 21
79.952049
 31
0.0
  0
LINE
  5
9B6
100
AcDbEntity
  8
0
  6
CENTER
 62
     7
100
AcDbLine
 10
228.645895
 20
84.082051
 30
0.0
 11
228.155897
 21
84.082051
 31
0.0
  0
LINE
  5
9B7
100
AcDbEntity
  8
0
  6
CONTINUOUS
 62
     7
100
AcDbLine
 10
228.645895
 20
84.082051
 30
0.0
 11
228.645895
 21
79.952049
 31
0.0
  0
LINE
  5
9B8
100
AcDbEntity
  8
0
  6
CONTINUOUS
 62
     7
100
AcDbLine
 10
228.155897
 20
82.227049
 30
0.0
 11
228.645895
 21
81.737051
 31
0.0
  0
ARC
  5
9B9
100
AcDbEntity
  8
0
  6
CONTINUOUS
 62
     7
100
AcDbCircle
 10
229.345895
 20
80.79205
 30
0.0
 40
0.7
100
AcDbArc
 50
270.0
 51
0.0
  0
ARC
  5
9BA
100
AcDbEntity
  8
0
  6
CONTINUOUS
 62
     7
100
AcDbCircle
 10
229.345895
 20
83.24205
 30
0.0
 40
0.7
100
AcDbArc
 50
0.0
 51
90.0
  0
POINT
  5
9BB
100
AcDbEntity
  8
0
 62
     7
100
AcDbPoint
 10
218.4679
 20
47.17805
 30
0.0
  0
LINE
  5
9BC
100
AcDbEntity
  8
0
  6
CONTINUOUS
 62
     7
100
AcDbLine
 10
219.027902
 20
49.62805
 30
0.0
 11
219.027902
 21
44.72805
 31
0.0
  0
LINE
  5
9BD
100
AcDbEntity
  8
0
  6
CONTINUOUS
 62
     7
100
AcDbLine
 10
220.9179
 20
48.40305
 30
0.0
 11
220.9179
 21
45.95305
 31
0.0
  0
LINE
  5
9BE
100
AcDbEntity
  8
0
  6
CONTINUOUS
 62
     7
100
AcDbLine
 10
220.2179
 20
45.25305
 30
0.0
 11
219.5179
 21
45.25305
 31
0.0
  0
LINE
  5
9BF
100
AcDbEntity
  8
0
  6
CONTINUOUS
 62
     7
100
AcDbLine
 10
220.2179
 20
49.10305
 30
0.0
 11
219.5179
 21
49.10305
 31
0.0
  0
LINE
  5
9C0
100
AcDbEntity
  8
0
  6
CONTINUOUS
 62
     7
100
AcDbLine
 10
220.422306
 20
47.67302
 30
0.0
 11
220.9179
 21
47.17805
 31
0.0
  0
LINE
  5
9C1
100
AcDbEntity
  8
0
  6
CONTINUOUS
 62
     7
100
AcDbLine
 10
220.9179
 20
47.17805
 30
0.0
 11
220.422306
 21
46.68308
 31
0.0
  0
LINE
  5
9C2
100
AcDbEntity
  8
0
  6
CONTINUOUS
 62
     7
100
AcDbLine
 10
218.4679
 20
49.62805
 30
0.0
 11
218.4679
 21
44.72805
 31
0.0
  0
LINE
  5
9C3
100
AcDbEntity
  8
0
  6
CONTINUOUS
 62
     7
100
AcDbLine
 10
218.4679
 20
44.72805
 30
0.0
 11
219.027902
 21
44.72805
 31
0.0
  0
LINE
  5
9C4
100
AcDbEntity
  8
0
  6
CONTINUOUS
 62
     7
100
AcDbLine
 10
218.4679
 20
49.62805
 30
0.0
 11
219.027902
 21
49.62805
 31
0.0
  0
LINE
  5
9C5
100
AcDbEntity
  8
0
  6
CENTER
 62
     7
100
AcDbLine
 10
219.5179
 20
45.113051
 30
0.0
 11
219.027902
 21
45.113051
 31
0.0
  0
LINE
  5
9C6
100
AcDbEntity
  8
0
  6
CENTER
 62
     7
100
AcDbLine
 10
219.5179
 20
49.243051
 30
0.0
 11
219.027902
 21
49.243051
 31
0.0
  0
LINE
  5
9C7
100
AcDbEntity
  8
0
  6
CONTINUOUS
 62
     7
100
AcDbLine
 10
219.5179
 20
49.243051
 30
0.0
 11
219.5179
 21
45.113051
 31
0.0
  0
LINE
  5
9C8
100
AcDbEntity
  8
0
  6
CONTINUOUS
 62
     7
100
AcDbLine
 10
219.027902
 20
47.388051
 30
0.0
 11
219.5179
 21
46.89805
 31
0.0
  0
ARC
  5
9C9
100
AcDbEntity
  8
0
  6
CONTINUOUS
 62
     7
100
AcDbCircle
 10
220.2179
 20
45.95305
 30
0.0
 40
0.7
100
AcDbArc
 50
270.0
 51
0.0
  0
ARC
  5
9CA
100
AcDbEntity
  8
0
  6
CONTINUOUS
 62
     7
100
AcDbCircle
 10
220.2179
 20
48.40305
 30
0.0
 40
0.7
100
AcDbArc
 50
0.0
 51
90.0
  0
LINE
  5
9DB
100
AcDbEntity
  8
0
  6
CONTINUOUS
 62
     7
100
AcDbLine
 10
103.646137
 20
55.293297
 30
0.0
 11
103.856137
 21
55.293297
 31
0.0
  0
LINE
  5
9DC
100
AcDbEntity
  8
0
  6
CONTINUOUS
 62
     7
100
AcDbLine
 10
103.646137
 20
53.89329
 30
0.0
 11
103.856137
 21
53.89329
 31
0.0
  0
LINE
  5
9DD
100
AcDbEntity
  8
0
  6
CONTINUOUS
 62
     7
100
AcDbLine
 10
103.856137
 20
55.293297
 30
0.0
 11
103.856137
 21
53.89329
 31
0.0
  0
LINE
  5
9DE
100
AcDbEntity
  8
0
  6
CONTINUOUS
 62
     7
100
AcDbLine
 10
103.646137
 20
55.293297
 30
0.0
 11
103.646137
 21
53.89329
 31
0.0
  0
LINE
  5
9DF
100
AcDbEntity
  8
0
  6
CONTINUOUS
 62
     7
100
AcDbLine
 10
92.096137
 20
55.293297
 30
0.0
 11
92.374877
 21
55.293297
 31
0.0
  0
LINE
  5
9E0
100
AcDbEntity
  8
0
  6
CONTINUOUS
 62
     7
100
AcDbLine
 10
92.66096
 20
53.89329
 30
0.0
 11
92.875314
 21
53.89329
 31
0.0
  0
LINE
  5
9E1
100
AcDbEntity
  8
0
  6
CONTINUOUS
 62
     7
100
AcDbLine
 10
93.161397
 20
55.293297
 30
0.0
 11
93.440137
 21
55.293297
 31
0.0
  0
LINE
  5
9E2
100
AcDbEntity
  8
0
  6
CONTINUOUS
 62
     7
100
AcDbLine
 10
92.096137
 20
53.89329
 30
0.0
 11
92.306137
 21
53.89329
 31
0.0
  0
LINE
  5
9E3
100
AcDbEntity
  8
0
  6
CONTINUOUS
 62
     7
100
AcDbLine
 10
93.230137
 20
53.89329
 30
0.0
 11
93.440137
 21
53.89329
 31
0.0
  0
LINE
  5
9E4
100
AcDbEntity
  8
0
  6
CONTINUOUS
 62
     7
100
AcDbLine
 10
93.440137
 20
55.293297
 30
0.0
 11
93.440137
 21
53.89329
 31
0.0
  0
LINE
  5
9E5
100
AcDbEntity
  8
0
  6
CONTINUOUS
 62
     7
100
AcDbLine
 10
92.096137
 20
55.293297
 30
0.0
 11
92.096137
 21
53.89329
 31
0.0
  0
LINE
  5
9E6
100
AcDbEntity
  8
0
  6
CONTINUOUS
 62
     7
100
AcDbLine
 10
92.875314
 20
53.89329
 30
0.0
 11
93.230137
 21
54.868159
 31
0.0
  0
LINE
  5
9E7
100
AcDbEntity
  8
0
  6
CONTINUOUS
 62
     7
100
AcDbLine
 10
92.306137
 20
54.868159
 30
0.0
 11
92.66096
 21
53.89329
 31
0.0
  0
LINE
  5
9E8
100
AcDbEntity
  8
0
  6
CONTINUOUS
 62
     7
100
AcDbLine
 10
93.230137
 20
54.868159
 30
0.0
 11
93.230137
 21
53.89329
 31
0.0
  0
LINE
  5
9E9
100
AcDbEntity
  8
0
  6
CONTINUOUS
 62
     7
100
AcDbLine
 10
92.768137
 20
54.212826
 30
0.0
 11
93.161397
 21
55.293297
 31
0.0
  0
LINE
  5
9EA
100
AcDbEntity
  8
0
  6
CONTINUOUS
 62
     7
100
AcDbLine
 10
92.374877
 20
55.293297
 30
0.0
 11
92.768137
 21
54.212826
 31
0.0
  0
LINE
  5
9EB
100
AcDbEntity
  8
0
  6
CONTINUOUS
 62
     7
100
AcDbLine
 10
92.306137
 20
54.868159
 30
0.0
 11
92.306137
 21
53.89329
 31
0.0
  0
LINE
  5
9EC
100
AcDbEntity
  8
0
  6
CONTINUOUS
 62
     7
100
AcDbLine
 10
93.776137
 20
55.293297
 30
0.0
 11
93.986137
 21
55.293297
 31
0.0
  0
LINE
  5
9ED
100
AcDbEntity
  8
0
  6
CONTINUOUS
 62
     7
100
AcDbLine
 10
93.776137
 20
53.89329
 30
0.0
 11
93.986137
 21
53.89329
 31
0.0
  0
LINE
  5
9EE
100
AcDbEntity
  8
0
  6
CONTINUOUS
 62
     7
100
AcDbLine
 10
93.986137
 20
55.293297
 30
0.0
 11
93.986137
 21
53.89329
 31
0.0
  0
LINE
  5
9EF
100
AcDbEntity
  8
0
  6
CONTINUOUS
 62
     7
100
AcDbLine
 10
93.776137
 20
55.293297
 30
0.0
 11
93.776137
 21
53.89329
 31
0.0
  0
LINE
  5
9F0
100
AcDbEntity
  8
0
  6
CONTINUOUS
 62
     7
100
AcDbLine
 10
94.336137
 20
55.293297
 30
0.0
 11
95.456137
 21
55.293297
 31
0.0
  0
LINE
  5
9F1
100
AcDbEntity
  8
0
  6
CONTINUOUS
 62
     7
100
AcDbLine
 10
94.791137
 20
53.89329
 30
0.0
 11
95.001137
 21
53.89329
 31
0.0
  0
LINE
  5
9F2
100
AcDbEntity
  8
0
  6
CONTINUOUS
 62
     7
100
AcDbLine
 10
95.456137
 20
55.293297
 30
0.0
 11
95.456137
 21
55.083297
 31
0.0
  0
LINE
  5
9F3
100
AcDbEntity
  8
0
  6
CONTINUOUS
 62
     7
100
AcDbLine
 10
94.336137
 20
55.293297
 30
0.0
 11
94.336137
 21
55.083297
 31
0.0
  0
LINE
  5
9F4
100
AcDbEntity
  8
0
  6
CONTINUOUS
 62
     7
100
AcDbLine
 10
94.336137
 20
55.083297
 30
0.0
 11
94.791137
 21
55.083297
 31
0.0
  0
LINE
  5
9F5
100
AcDbEntity
  8
0
  6
CONTINUOUS
 62
     7
100
AcDbLine
 10
95.001137
 20
55.083297
 30
0.0
 11
95.001137
 21
53.89329
 31
0.0
  0
LINE
  5
9F6
100
AcDbEntity
  8
0
  6
CONTINUOUS
 62
     7
100
AcDbLine
 10
94.791137
 20
55.083297
 30
0.0
 11
94.791137
 21
53.89329
 31
0.0
  0
LINE
  5
9F7
100
AcDbEntity
  8
0
  6
CONTINUOUS
 62
     7
100
AcDbLine
 10
95.001137
 20
55.083297
 30
0.0
 11
95.456137
 21
55.083297
 31
0.0
  0
LINE
  5
9F8
100
AcDbEntity
  8
0
  6
CONTINUOUS
 62
     7
100
AcDbLine
 10
95.8069
 20
54.332393
 30
0.0
 11
96.03342
 21
54.332393
 31
0.0
  0
LINE
  5
9F9
100
AcDbEntity
  8
0
  6
CONTINUOUS
 62
     7
100
AcDbLine
 10
96.625557
 20
54.910047
 30
0.0
 11
96.836817
 21
54.910047
 31
0.0
  0
ARC
  5
9FA
100
AcDbEntity
  8
0
  6
CONTINUOUS
 62
     7
100
AcDbCircle
 10
96.499198
 20
54.910047
 30
0.0
 40
0.126356
100
AcDbArc
 50
0.0
 51
14.573429
  0
ARC
  5
9FB
100
AcDbEntity
  8
0
  6
CONTINUOUS
 62
     7
100
AcDbCircle
 10
96.461708
 20
54.895844
 30
0.0
 40
0.16627
100
AcDbArc
 50
16.059877
 51
52.490891
  0
ARC
  5
9FC
100
AcDbEntity
  8
0
  6
CONTINUOUS
 62
     7
100
AcDbCircle
 10
96.357954
 20
54.739186
 30
0.0
 40
0.353956
100
AcDbArc
 50
54.609219
 51
125.390778
  0
ARC
  5
9FD
100
AcDbEntity
  8
0
  6
CONTINUOUS
 62
     7
100
AcDbCircle
 10
96.2542
 20
54.895844
 30
0.0
 40
0.16627
100
AcDbArc
 50
127.509109
 51
163.940125
  0
ARC
  5
9FE
100
AcDbEntity
  8
0
  6
CONTINUOUS
 62
     7
100
AcDbCircle
 10
96.21671
 20
54.910047
 30
0.0
 40
0.126356
100
AcDbArc
 50
165.426559
 51
194.573441
  0
ARC
  5
9FF
100
AcDbEntity
  8
0
  6
CONTINUOUS
 62
     7
100
AcDbCircle
 10
96.2542
 20
54.924251
 30
0.0
 40
0.16627
100
AcDbArc
 50
196.059875
 51
232.490891
  0
ARC
  5
A00
100
AcDbEntity
  8
0
  6
CONTINUOUS
 62
     7
100
AcDbCircle
 10
96.357954
 20
55.080909
 30
0.0
 40
0.353956
100
AcDbArc
 50
234.609238
 51
269.184143
  0
ARC
  5
A01
100
AcDbEntity
  8
0
  6
CONTINUOUS
 62
     7
100
AcDbCircle
 10
96.529038
 20
54.910047
 30
0.0
 40
0.30778
100
AcDbArc
 50
0.0
 51
12.482297
  0
ARC
  5
A02
100
AcDbEntity
  8
0
  6
CONTINUOUS
 62
     7
100
AcDbCircle
 10
96.483628
 20
54.895333
 30
0.0
 40
0.355326
100
AcDbArc
 50
13.216216
 51
47.258366
  0
ARC
  5
A03
100
AcDbEntity
  8
0
  6
CONTINUOUS
 62
     7
100
AcDbCircle
 10
96.357954
 20
54.733043
 30
0.0
 40
0.560093
100
AcDbArc
 50
49.084465
 51
130.915527
  0
ARC
  5
A04
100
AcDbEntity
  8
0
  6
CONTINUOUS
 62
     7
100
AcDbCircle
 10
96.232281
 20
54.895333
 30
0.0
 40
0.355325
100
AcDbArc
 50
132.741623
 51
166.783783
  0
ARC
  5
A05
100
AcDbEntity
  8
0
  6
CONTINUOUS
 62
     7
100
AcDbCircle
 10
96.186871
 20
54.910047
 30
0.0
 40
0.30778
100
AcDbArc
 50
167.5177
 51
192.4823
  0
ARC
  5
A06
100
AcDbEntity
  8
0
  6
CONTINUOUS
 62
     7
100
AcDbCircle
 10
96.232281
 20
54.924761
 30
0.0
 40
0.355326
100
AcDbArc
 50
193.216217
 51
227.258362
  0
ARC
  5
A07
100
AcDbEntity
  8
0
  6
CONTINUOUS
 62
     7
100
AcDbCircle
 10
96.357954
 20
55.087051
 30
0.0
 40
0.560093
100
AcDbArc
 50
229.084457
 51
268.907928
  0
ARC
  5
A08
100
AcDbEntity
  8
0
  6
CONTINUOUS
 62
     7
100
AcDbCircle
 10
96.188374
 20
54.307375
 30
0.0
 40
0.156967
100
AcDbArc
 50
170.872345
 51
194.067459
  0
ARC
  5
A09
100
AcDbEntity
  8
0
  6
CONTINUOUS
 62
     7
100
AcDbCircle
 10
96.228954
 20
54.32221
 30
0.0
 40
0.199987
100
AcDbArc
 50
195.36438
 51
231.294464
  0
ARC
  5
A0A
100
AcDbEntity
  8
0
  6
CONTINUOUS
 62
     7
100
AcDbCircle
 10
96.341259
 20
54.485829
 30
0.0
 40
0.398167
100
AcDbArc
 50
233.406525
 51
306.593506
  0
ARC
  5
A0B
100
AcDbEntity
  8
0
  6
CONTINUOUS
 62
     7
100
AcDbCircle
 10
96.453564
 20
54.32221
 30
0.0
 40
0.199987
100
AcDbArc
 50
308.705536
 51
344.63562
  0
ARC
  5
A0C
100
AcDbEntity
  8
0
  6
CONTINUOUS
 62
     7
100
AcDbCircle
 10
96.494144
 20
54.307375
 30
0.0
 40
0.156967
100
AcDbArc
 50
345.932556
 51
14.067448
  0
ARC
  5
A0D
100
AcDbEntity
  8
0
  6
CONTINUOUS
 62
     7
100
AcDbCircle
 10
96.453564
 20
54.292541
 30
0.0
 40
0.199987
100
AcDbArc
 50
15.36437
 51
51.294476
  0
ARC
  5
A0E
100
AcDbEntity
  8
0
  6
CONTINUOUS
 62
     7
100
AcDbCircle
 10
96.341259
 20
54.128922
 30
0.0
 40
0.398167
100
AcDbArc
 50
53.406513
 51
89.115585
  0
ARC
  5
A0F
100
AcDbEntity
  8
0
  6
CONTINUOUS
 62
     7
100
AcDbCircle
 10
96.132473
 20
54.310189
 30
0.0
 40
0.326336
100
AcDbArc
 50
176.099823
 51
192.816757
  0
ARC
  5
A10
100
AcDbEntity
  8
0
  6
CONTINUOUS
 62
     7
100
AcDbCircle
 10
96.187911
 20
54.328638
 30
0.0
 40
0.384527
100
AcDbArc
 50
193.66481
 51
228.147797
  0
ARC
  5
A11
100
AcDbEntity
  8
0
  6
CONTINUOUS
 62
     7
100
AcDbCircle
 10
96.341336
 20
54.532119
 30
0.0
 40
0.638822
100
AcDbArc
 50
230.074966
 51
309.925018
  0
ARC
  5
A12
100
AcDbEntity
  8
0
  6
CONTINUOUS
 62
     7
100
AcDbCircle
 10
96.494761
 20
54.328638
 30
0.0
 40
0.384527
100
AcDbArc
 50
311.852234
 51
346.335083
  0
ARC
  5
A13
100
AcDbEntity
  8
0
  6
CONTINUOUS
 62
     7
100
AcDbCircle
 10
96.550199
 20
54.310189
 30
0.0
 40
0.326336
100
AcDbArc
 50
347.183136
 51
12.816745
  0
ARC
  5
A14
100
AcDbEntity
  8
0
  6
CONTINUOUS
 62
     7
100
AcDbCircle
 10
96.494761
 20
54.29174
 30
0.0
 40
0.384527
100
AcDbArc
 50
13.664816
 51
48.147785
  0
ARC
  5
A15
100
AcDbEntity
  8
0
  6
CONTINUOUS
 62
     7
100
AcDbCircle
 10
96.341336
 20
54.088259
 30
0.0
 40
0.638822
100
AcDbArc
 50
50.07497
 51
88.967163
  0
LINE
  5
A16
100
AcDbEntity
  8
0
  6
CONTINUOUS
 62
     7
100
AcDbLine
 10
98.396136
 20
55.293297
 30
0.0
 11
98.396136
 21
54.453297
 31
0.0
  0
LINE
  5
A17
100
AcDbEntity
  8
0
  6
CONTINUOUS
 62
     7
100
AcDbLine
 10
97.276137
 20
55.293297
 30
0.0
 11
97.276137
 21
54.453297
 31
0.0
  0
LINE
  5
A18
100
AcDbEntity
  8
0
  6
CONTINUOUS
 62
     7
100
AcDbLine
 10
97.276137
 20
55.293297
 30
0.0
 11
97.486136
 21
55.293297
 31
0.0
  0
LINE
  5
A19
100
AcDbEntity
  8
0
  6
CONTINUOUS
 62
     7
100
AcDbLine
 10
98.186136
 20
55.293297
 30
0.0
 11
98.396136
 21
55.293297
 31
0.0
  0
LINE
  5
A1A
100
AcDbEntity
  8
0
  6
CONTINUOUS
 62
     7
100
AcDbLine
 10
98.186136
 20
55.293297
 30
0.0
 11
98.186136
 21
54.453297
 31
0.0
  0
LINE
  5
A1B
100
AcDbEntity
  8
0
  6
CONTINUOUS
 62
     7
100
AcDbLine
 10
97.486136
 20
55.293297
 30
0.0
 11
97.486136
 21
54.453297
 31
0.0
  0
ARC
  5
A1C
100
AcDbEntity
  8
0
  6
CONTINUOUS
 62
     7
100
AcDbCircle
 10
97.836136
 20
54.453297
 30
0.0
 40
0.56
100
AcDbArc
 50
180.0
 51
0.0
  0
ARC
  5
A1D
100
AcDbEntity
  8
0
  6
CONTINUOUS
 62
     7
100
AcDbCircle
 10
97.836136
 20
54.453297
 30
0.0
 40
0.35
100
AcDbArc
 50
180.0
 51
0.0
  0
LINE
  5
A1E
100
AcDbEntity
  8
0
  6
CONTINUOUS
 62
     7
100
AcDbLine
 10
98.746137
 20
55.293297
 30
0.0
 11
98.746137
 21
53.89329
 31
0.0
  0
LINE
  5
A1F
100
AcDbEntity
  8
0
  6
CONTINUOUS
 62
     7
100
AcDbLine
 10
98.746137
 20
55.293297
 30
0.0
 11
99.502137
 21
55.293297
 31
0.0
  0
LINE
  5
A20
100
AcDbEntity
  8
0
  6
CONTINUOUS
 62
     7
100
AcDbLine
 10
98.746137
 20
53.89329
 30
0.0
 11
99.502137
 21
53.89329
 31
0.0
  0
LINE
  5
A21
100
AcDbEntity
  8
0
  6
CONTINUOUS
 62
     7
100
AcDbLine
 10
98.956137
 20
54.539628
 30
0.0
 11
99.430968
 21
54.539628
 31
0.0
  0
LINE
  5
A22
100
AcDbEntity
  8
0
  6
CONTINUOUS
 62
     7
100
AcDbLine
 10
98.956137
 20
54.103297
 30
0.0
 11
99.430968
 21
54.103297
 31
0.0
  0
LINE
  5
A23
100
AcDbEntity
  8
0
  6
CONTINUOUS
 62
     7
100
AcDbLine
 10
98.956137
 20
54.721628
 30
0.0
 11
99.430968
 21
54.721628
 31
0.0
  0
LINE
  5
A24
100
AcDbEntity
  8
0
  6
CONTINUOUS
 62
     7
100
AcDbLine
 10
98.956137
 20
55.083297
 30
0.0
 11
99.430968
 21
55.083297
 31
0.0
  0
LINE
  5
A25
100
AcDbEntity
  8
0
  6
CONTINUOUS
 62
     7
100
AcDbLine
 10
98.956137
 20
54.539628
 30
0.0
 11
98.956137
 21
54.103297
 31
0.0
  0
LINE
  5
A26
100
AcDbEntity
  8
0
  6
CONTINUOUS
 62
     7
100
AcDbLine
 10
98.956137
 20
55.083297
 30
0.0
 11
98.956137
 21
54.721628
 31
0.0
  0
ARC
  5
A27
100
AcDbEntity
  8
0
  6
CONTINUOUS
 62
     7
100
AcDbCircle
 10
99.502137
 20
54.957297
 30
0.0
 40
0.336
100
AcDbArc
 50
294.53299
 51
90.0
  0
ARC
  5
A28
100
AcDbEntity
  8
0
  6
CONTINUOUS
 62
     7
100
AcDbCircle
 10
99.502137
 20
54.285297
 30
0.0
 40
0.392
100
AcDbArc
 50
270.0
 51
69.151299
  0
ARC
  5
A29
100
AcDbEntity
  8
0
  6
CONTINUOUS
 62
     7
100
AcDbCircle
 10
99.430968
 20
54.902466
 30
0.0
 40
0.180833
100
AcDbArc
 50
270.0
 51
89.999901
  0
ARC
  5
A2A
100
AcDbEntity
  8
0
  6
CONTINUOUS
 62
     7
100
AcDbCircle
 10
99.430968
 20
54.321466
 30
0.0
 40
0.218166
100
AcDbArc
 50
270.0
 51
90.0
  0
LINE
  5
A2B
100
AcDbEntity
  8
0
  6
CONTINUOUS
 62
     7
100
AcDbLine
 10
100.216137
 20
55.293297
 30
0.0
 11
100.426137
 21
55.293297
 31
0.0
  0
LINE
  5
A2C
100
AcDbEntity
  8
0
  6
CONTINUOUS
 62
     7
100
AcDbLine
 10
100.216137
 20
53.89329
 30
0.0
 11
100.426137
 21
53.89329
 31
0.0
  0
LINE
  5
A2D
100
AcDbEntity
  8
0
  6
CONTINUOUS
 62
     7
100
AcDbLine
 10
100.426137
 20
55.293297
 30
0.0
 11
100.426137
 21
53.89329
 31
0.0
  0
LINE
  5
A2E
100
AcDbEntity
  8
0
  6
CONTINUOUS
 62
     7
100
AcDbLine
 10
100.216137
 20
55.293297
 30
0.0
 11
100.216137
 21
53.89329
 31
0.0
  0
LINE
  5
A2F
100
AcDbEntity
  8
0
  6
CONTINUOUS
 62
     7
100
AcDbLine
 10
100.776893
 20
54.332393
 30
0.0
 11
101.00342
 21
54.332393
 31
0.0
  0
LINE
  5
A30
100
AcDbEntity
  8
0
  6
CONTINUOUS
 62
     7
100
AcDbLine
 10
101.595557
 20
54.910047
 30
0.0
 11
101.806817
 21
54.910047
 31
0.0
  0
ARC
  5
A31
100
AcDbEntity
  8
0
  6
CONTINUOUS
 62
     7
100
AcDbCircle
 10
101.469198
 20
54.910047
 30
0.0
 40
0.126356
100
AcDbArc
 50
0.0
 51
14.57341
  0
ARC
  5
A32
100
AcDbEntity
  8
0
  6
CONTINUOUS
 62
     7
100
AcDbCircle
 10
101.431708
 20
54.895844
 30
0.0
 40
0.16627
100
AcDbArc
 50
16.059877
 51
52.490891
  0
ARC
  5
A33
100
AcDbEntity
  8
0
  6
CONTINUOUS
 62
     7
100
AcDbCircle
 10
101.327954
 20
54.739186
 30
0.0
 40
0.353956
100
AcDbArc
 50
54.609219
 51
125.390778
  0
ARC
  5
A34
100
AcDbEntity
  8
0
  6
CONTINUOUS
 62
     7
100
AcDbCircle
 10
101.2242
 20
54.895844
 30
0.0
 40
0.16627
100
AcDbArc
 50
127.509109
 51
163.940125
  0
ARC
  5
A35
100
AcDbEntity
  8
0
  6
CONTINUOUS
 62
     7
100
AcDbCircle
 10
101.186711
 20
54.910047
 30
0.0
 40
0.126356
100
AcDbArc
 50
165.42659
 51
194.57341
  0
ARC
  5
A36
100
AcDbEntity
  8
0
  6
CONTINUOUS
 62
     7
100
AcDbCircle
 10
101.2242
 20
54.924251
 30
0.0
 40
0.16627
100
AcDbArc
 50
196.059875
 51
232.490891
  0
ARC
  5
A37
100
AcDbEntity
  8
0
  6
CONTINUOUS
 62
     7
100
AcDbCircle
 10
101.327954
 20
55.080909
 30
0.0
 40
0.353956
100
AcDbArc
 50
234.609238
 51
269.184113
  0
ARC
  5
A38
100
AcDbEntity
  8
0
  6
CONTINUOUS
 62
     7
100
AcDbCircle
 10
101.499038
 20
54.910047
 30
0.0
 40
0.30778
100
AcDbArc
 50
0.0
 51
12.482304
  0
ARC
  5
A39
100
AcDbEntity
  8
0
  6
CONTINUOUS
 62
     7
100
AcDbCircle
 10
101.453627
 20
54.895333
 30
0.0
 40
0.355326
100
AcDbArc
 50
13.216222
 51
47.258354
  0
ARC
  5
A3A
100
AcDbEntity
  8
0
  6
CONTINUOUS
 62
     7
100
AcDbCircle
 10
101.327954
 20
54.733043
 30
0.0
 40
0.560093
100
AcDbArc
 50
49.084457
 51
130.915512
  0
ARC
  5
A3B
100
AcDbEntity
  8
0
  6
CONTINUOUS
 62
     7
100
AcDbCircle
 10
101.202281
 20
54.895333
 30
0.0
 40
0.355325
100
AcDbArc
 50
132.741592
 51
166.783783
  0
ARC
  5
A3C
100
AcDbEntity
  8
0
  6
CONTINUOUS
 62
     7
100
AcDbCircle
 10
101.156871
 20
54.910047
 30
0.0
 40
0.30778
100
AcDbArc
 50
167.5177
 51
192.4823
  0
ARC
  5
A3D
100
AcDbEntity
  8
0
  6
CONTINUOUS
 62
     7
100
AcDbCircle
 10
101.202281
 20
54.924761
 30
0.0
 40
0.355326
100
AcDbArc
 50
193.216217
 51
227.258362
  0
ARC
  5
A3E
100
AcDbEntity
  8
0
  6
CONTINUOUS
 62
     7
100
AcDbCircle
 10
101.327954
 20
55.087051
 30
0.0
 40
0.560093
100
AcDbArc
 50
229.084457
 51
268.907928
  0
ARC
  5
A3F
100
AcDbEntity
  8
0
  6
CONTINUOUS
 62
     7
100
AcDbCircle
 10
101.158374
 20
54.307375
 30
0.0
 40
0.156967
100
AcDbArc
 50
170.872345
 51
194.067459
  0
ARC
  5
A40
100
AcDbEntity
  8
0
  6
CONTINUOUS
 62
     7
100
AcDbCircle
 10
101.198954
 20
54.32221
 30
0.0
 40
0.199987
100
AcDbArc
 50
195.36438
 51
231.294464
  0
ARC
  5
A41
100
AcDbEntity
  8
0
  6
CONTINUOUS
 62
     7
100
AcDbCircle
 10
101.311259
 20
54.485829
 30
0.0
 40
0.398167
100
AcDbArc
 50
233.406525
 51
306.593506
  0
ARC
  5
A42
100
AcDbEntity
  8
0
  6
CONTINUOUS
 62
     7
100
AcDbCircle
 10
101.423564
 20
54.32221
 30
0.0
 40
0.199987
100
AcDbArc
 50
308.705536
 51
344.63562
  0
ARC
  5
A43
100
AcDbEntity
  8
0
  6
CONTINUOUS
 62
     7
100
AcDbCircle
 10
101.464144
 20
54.307375
 30
0.0
 40
0.156967
100
AcDbArc
 50
345.932556
 51
14.067448
  0
ARC
  5
A44
100
AcDbEntity
  8
0
  6
CONTINUOUS
 62
     7
100
AcDbCircle
 10
101.423564
 20
54.292541
 30
0.0
 40
0.199987
100
AcDbArc
 50
15.36437
 51
51.294476
  0
ARC
  5
A45
100
AcDbEntity
  8
0
  6
CONTINUOUS
 62
     7
100
AcDbCircle
 10
101.311259
 20
54.128922
 30
0.0
 40
0.398167
100
AcDbArc
 50
53.406513
 51
89.115562
  0
ARC
  5
A46
100
AcDbEntity
  8
0
  6
CONTINUOUS
 62
     7
100
AcDbCircle
 10
101.102473
 20
54.310189
 30
0.0
 40
0.326336
100
AcDbArc
 50
176.099823
 51
192.816757
  0
ARC
  5
A47
100
AcDbEntity
  8
0
  6
CONTINUOUS
 62
     7
100
AcDbCircle
 10
101.157911
 20
54.328638
 30
0.0
 40
0.384527
100
AcDbArc
 50
193.664825
 51
228.147797
  0
ARC
  5
A48
100
AcDbEntity
  8
0
  6
CONTINUOUS
 62
     7
100
AcDbCircle
 10
101.311336
 20
54.532119
 30
0.0
 40
0.638822
100
AcDbArc
 50
230.074966
 51
309.925018
  0
ARC
  5
A49
100
AcDbEntity
  8
0
  6
CONTINUOUS
 62
     7
100
AcDbCircle
 10
101.464762
 20
54.328638
 30
0.0
 40
0.384527
100
AcDbArc
 50
311.852173
 51
346.335083
  0
ARC
  5
A4A
100
AcDbEntity
  8
0
  6
CONTINUOUS
 62
     7
100
AcDbCircle
 10
101.520199
 20
54.310189
 30
0.0
 40
0.326336
100
AcDbArc
 50
347.183136
 51
12.816745
  0
ARC
  5
A4B
100
AcDbEntity
  8
0
  6
CONTINUOUS
 62
     7
100
AcDbCircle
 10
101.464762
 20
54.29174
 30
0.0
 40
0.384527
100
AcDbArc
 50
13.664822
 51
48.147793
  0
ARC
  5
A4C
100
AcDbEntity
  8
0
  6
CONTINUOUS
 62
     7
100
AcDbCircle
 10
101.311336
 20
54.088259
 30
0.0
 40
0.638822
100
AcDbArc
 50
50.074966
 51
88.967163
  0
LINE
  5
A4D
100
AcDbEntity
  8
0
  6
CONTINUOUS
 62
     7
100
AcDbLine
 10
102.176137
 20
55.293297
 30
0.0
 11
102.386137
 21
55.293297
 31
0.0
  0
LINE
  5
A4E
100
AcDbEntity
  8
0
  6
CONTINUOUS
 62
     7
100
AcDbLine
 10
103.086137
 20
53.89329
 30
0.0
 11
103.296137
 21
53.89329
 31
0.0
  0
LINE
  5
A4F
100
AcDbEntity
  8
0
  6
CONTINUOUS
 62
     7
100
AcDbLine
 10
102.176137
 20
53.89329
 30
0.0
 11
102.386137
 21
53.89329
 31
0.0
  0
LINE
  5
A50
100
AcDbEntity
  8
0
  6
CONTINUOUS
 62
     7
100
AcDbLine
 10
103.086137
 20
55.293297
 30
0.0
 11
103.296137
 21
55.293297
 31
0.0
  0
LINE
  5
A51
100
AcDbEntity
  8
0
  6
CONTINUOUS
 62
     7
100
AcDbLine
 10
102.176137
 20
55.293297
 30
0.0
 11
102.176137
 21
53.89329
 31
0.0
  0
LINE
  5
A52
100
AcDbEntity
  8
0
  6
CONTINUOUS
 62
     7
100
AcDbLine
 10
103.296137
 20
55.293297
 30
0.0
 11
103.296137
 21
53.89329
 31
0.0
  0
LINE
  5
A53
100
AcDbEntity
  8
0
  6
CONTINUOUS
 62
     7
100
AcDbLine
 10
102.386137
 20
54.705297
 30
0.0
 11
103.086137
 21
54.705297
 31
0.0
  0
LINE
  5
A54
100
AcDbEntity
  8
0
  6
CONTINUOUS
 62
     7
100
AcDbLine
 10
102.386137
 20
54.537297
 30
0.0
 11
102.386137
 21
53.89329
 31
0.0
  0
LINE
  5
A55
100
AcDbEntity
  8
0
  6
CONTINUOUS
 62
     7
100
AcDbLine
 10
103.086137
 20
54.537297
 30
0.0
 11
103.086137
 21
53.89329
 31
0.0
  0
LINE
  5
A56
100
AcDbEntity
  8
0
  6
CONTINUOUS
 62
     7
100
AcDbLine
 10
103.086137
 20
55.293297
 30
0.0
 11
103.086137
 21
54.705297
 31
0.0
  0
LINE
  5
A57
100
AcDbEntity
  8
0
  6
CONTINUOUS
 62
     7
100
AcDbLine
 10
102.386137
 20
55.293297
 30
0.0
 11
102.386137
 21
54.705297
 31
0.0
  0
LINE
  5
A58
100
AcDbEntity
  8
0
  6
CONTINUOUS
 62
     7
100
AcDbLine
 10
102.386137
 20
54.537297
 30
0.0
 11
103.086137
 21
54.537297
 31
0.0
  0
LINE
  5
B62
100
AcDbEntity
  8
0
  6
CONTINUOUS
 62
     7
100
AcDbLine
 10
250.254903
 20
34.563139
 30
0.0
 11
245.305204
 21
39.51298
 31
0.0
  0
LINE
  5
B63
100
AcDbEntity
  8
0
  6
CONTINUOUS
 62
     7
100
AcDbLine
 10
245.305204
 20
39.51298
 30
0.0
 11
246.355182
 21
37.694311
 31
0.0
  0
LINE
  5
B64
100
AcDbEntity
  8
0
  6
CONTINUOUS
 62
     7
100
AcDbLine
 10
245.305204
 20
39.51298
 30
0.0
 11
247.123841
 21
38.462953
 31
0.0
  0
LINE
  5
B74
100
AcDbEntity
  8
0
  6
CONTINUOUS
 62
     7
100
AcDbLine
 10
234.173104
 20
146.805897
 30
0.0
 11
224.804301
 21
146.805897
 31
0.0
  0
LINE
  5
B75
100
AcDbEntity
  8
0
  6
CONTINUOUS
 62
     7
100
AcDbLine
 10
224.804301
 20
146.805897
 30
0.0
 11
217.3017
 21
135.083001
 31
0.0
  0
LINE
  5
B76
100
AcDbEntity
  8
0
  6
CONTINUOUS
 62
     7
100
AcDbLine
 10
217.3017
 20
135.083001
 30
0.0
 11
218.852924
 21
136.498521
 31
0.0
  0
LINE
  5
B77
100
AcDbEntity
  8
0
  6
CONTINUOUS
 62
     7
100
AcDbLine
 10
217.3017
 20
135.083001
 30
0.0
 11
217.937346
 21
137.08449
 31
0.0
  0
TEXT
  5
B78
100
AcDbEntity
  8
0
 62
     7
100
AcDbText
 10
224.804301
 20
146.805897
 30
0.0
 40
2.24
  1
φ６穴
 41
0.655462
100
AcDbText
  0
LINE
  5
B7B
100
AcDbEntity
  8
0
  6
CONTINUOUS
 62
     7
100
AcDbLine
 10
202.691999
 20
179.381799
 30
0.0
 11
212.159505
 21
179.381799
 31
0.0
  0
LINE
  5
B7C
100
AcDbEntity
  8
0
  6
CONTINUOUS
 62
     7
100
AcDbLine
 10
212.159505
 20
179.381799
 30
0.0
 11
214.924503
 21
182.522005
 31
0.0
  0
LINE
  5
B7D
100
AcDbEntity
  8
0
  6
CONTINUOUS
 62
     7
100
AcDbLine
 10
214.924503
 20
182.522005
 30
0.0
 11
213.176094
 21
181.358795
 31
0.0
  0
LINE
  5
B7E
100
AcDbEntity
  8
0
  6
CONTINUOUS
 62
     7
100
AcDbLine
 10
214.924503
 20
182.522005
 30
0.0
 11
213.991942
 21
180.640434
 31
0.0
  0
TEXT
  5
B7F
100
AcDbEntity
  8
0
 62
     7
100
AcDbText
 10
202.691999
 20
179.381799
 30
0.0
 40
2.24
  1
φ６穴
 41
0.655462
100
AcDbText
  0
LINE
  5
B82
100
AcDbEntity
  8
0
  6
CONTINUOUS
 62
     7
100
AcDbLine
 10
32.333349
 20
165.497999
 30
0.0
 11
44.411639
 21
165.497999
 31
0.0
  0
LINE
  5
B83
100
AcDbEntity
  8
0
  6
CONTINUOUS
 62
     7
100
AcDbLine
 10
44.411639
 20
165.497999
 30
0.0
 11
46.588292
 21
160.056198
 31
0.0
  0
LINE
  5
B84
100
AcDbEntity
  8
0
  6
CONTINUOUS
 62
     7
100
AcDbLine
 10
46.588292
 20
160.056198
 30
0.0
 11
46.339614
 21
162.141426
 31
0.0
  0
LINE
  5
B85
100
AcDbEntity
  8
0
  6
CONTINUOUS
 62
     7
100
AcDbLine
 10
46.588292
 20
160.056198
 30
0.0
 11
45.330319
 21
161.737721
 31
0.0
  0
TEXT
  5
B86
100
AcDbEntity
  8
0
 62
     7
100
AcDbText
 10
32.333349
 20
165.497999
 30
0.0
 40
2.24
  1
ｹ-ﾌﾞﾙ
 41
1.061538
100
AcDbText
  0
LINE
  5
B89
100
AcDbEntity
  8
0
  6
CONTINUOUS
 62
     7
100
AcDbLine
 10
227.766004
 20
107.510841
 30
0.0
 11
204.979602
 21
107.51091
 31
0.0
  0
LINE
  5
B8A
100
AcDbEntity
  8
0
  6
CONTINUOUS
 62
     7
100
AcDbLine
 10
204.979602
 20
107.51091
 30
0.0
 11
215.071497
 21
122.426861
 31
0.0
  0
LINE
  5
B8B
100
AcDbEntity
  8
0
  6
CONTINUOUS
 62
     7
100
AcDbLine
 10
215.071497
 20
122.426861
 30
0.0
 11
213.484641
 21
121.051396
 31
0.0
  0
LINE
  5
B8C
100
AcDbEntity
  8
0
  6
CONTINUOUS
 62
     7
100
AcDbLine
 10
215.071497
 20
122.426861
 30
0.0
 11
214.384976
 21
120.44225
 31
0.0
  0
TEXT
  5
B8D
100
AcDbEntity
  8
0
 62
     7
100
AcDbText
 10
208.219781
 20
108.204447
 30
0.0
 40
2.24
  1
UNC1/4ﾈｼﾞ
 41
0.751456
100
AcDbText
  0
LINE
  5
BDA
100
AcDbEntity
  8
0
  6
CONTINUOUS
100
AcDbLine
 10
190.012572
 20
124.240525
 30
0.0
 11
190.055406
 21
125.652552
 31
0.0
  0
LINE
  5
BDB
100
AcDbEntity
  8
0
  6
CONTINUOUS
100
AcDbLine
 10
190.055406
 20
125.652552
 30
0.0
 11
190.076821
 21
125.609764
 31
0.0
  0
LINE
  5
BDC
100
AcDbEntity
  8
0
  6
CONTINUOUS
100
AcDbLine
 10
190.012572
 20
124.240525
 30
0.0
 11
189.241579
 21
125.481397
 31
0.0
  0
LINE
  5
D86
100
AcDbEntity
  8
0
  6
BYBLOCK
 62
     7
100
AcDbLine
 10
139.837251
 20
155.995501
 30
0.0
 11
157.931551
 21
155.995501
 31
0.0
  0
LINE
  5
D87
100
AcDbEntity
  8
0
  6
BYBLOCK
 62
     7
100
AcDbLine
 10
119.7
 20
120.995357
 30
0.0
 11
157.931551
 21
120.995357
 31
0.0
  0
LINE
  5
D88
100
AcDbEntity
  8
0
  6
BYBLOCK
 62
     7
100
AcDbLine
 10
156.881551
 20
155.995501
 30
0.0
 11
156.881551
 21
120.995357
 31
0.0
  0
LINE
  5
D89
100
AcDbEntity
  8
0
  6
BYBLOCK
 62
     7
100
AcDbLine
 10
156.881551
 20
155.995501
 30
0.0
 11
156.338029
 21
153.967055
 31
0.0
  0
LINE
  5
D8A
100
AcDbEntity
  8
0
  6
BYBLOCK
 62
     7
100
AcDbLine
 10
156.881551
 20
155.995501
 30
0.0
 11
157.425072
 21
153.967055
 31
0.0
  0
LINE
  5
D8B
100
AcDbEntity
  8
0
  6
BYBLOCK
 62
     7
100
AcDbLine
 10
156.881551
 20
120.995357
 30
0.0
 11
157.425072
 21
123.023799
 31
0.0
  0
LINE
  5
D8C
100
AcDbEntity
  8
0
  6
BYBLOCK
 62
     7
100
AcDbLine
 10
156.881551
 20
120.995357
 30
0.0
 11
156.338029
 21
123.023799
 31
0.0
  0
TEXT
  5
D8D
100
AcDbEntity
  8
0
 62
     7
100
AcDbText
 10
156.038498
 20
136.746971
 30
0.0
 40
2.1
  1
50
 50
89.900002
 41
0.96
100
AcDbText
  0
LINE
  5
D8E
100
AcDbEntity
  8
0
  6
BYBLOCK
 62
     7
100
AcDbLine
 10
125.026581
 20
160.265495
 30
0.0
 11
157.931551
 21
160.265495
 31
0.0
  0
LINE
  5
D8F
100
AcDbEntity
  8
0
  6
BYBLOCK
 62
     7
100
AcDbLine
 10
139.837251
 20
155.995501
 30
0.0
 11
157.931551
 21
155.995501
 31
0.0
  0
LINE
  5
D90
100
AcDbEntity
  8
0
  6
BYBLOCK
 62
     7
100
AcDbLine
 10
156.881551
 20
164.465495
 30
0.0
 11
156.881551
 21
151.795501
 31
0.0
  0
LINE
  5
D91
100
AcDbEntity
  8
0
  6
BYBLOCK
 62
     7
100
AcDbLine
 10
156.881551
 20
160.265495
 30
0.0
 11
156.881551
 21
166.708997
 31
0.0
  0
LINE
  5
D92
100
AcDbEntity
  8
0
  6
BYBLOCK
 62
     7
100
AcDbLine
 10
156.881551
 20
160.265495
 30
0.0
 11
157.425072
 21
162.293943
 31
0.0
  0
LINE
  5
D93
100
AcDbEntity
  8
0
  6
BYBLOCK
 62
     7
100
AcDbLine
 10
156.881551
 20
160.265495
 30
0.0
 11
156.338029
 21
162.293943
 31
0.0
  0
LINE
  5
D94
100
AcDbEntity
  8
0
  6
BYBLOCK
 62
     7
100
AcDbLine
 10
156.881551
 20
155.995501
 30
0.0
 11
156.338029
 21
153.967055
 31
0.0
  0
LINE
  5
D95
100
AcDbEntity
  8
0
  6
BYBLOCK
 62
     7
100
AcDbLine
 10
156.881551
 20
155.995501
 30
0.0
 11
157.425072
 21
153.967055
 31
0.0
  0
TEXT
  5
D96
100
AcDbEntity
  8
0
 62
     7
100
AcDbText
 10
156.036971
 20
161.705464
 30
0.0
 40
2.1
  1
6.1
 50
89.900002
 41
1.17
100
AcDbText
  0
LINE
  5
D97
100
AcDbEntity
  8
0
  6
BYBLOCK
 62
     7
100
AcDbLine
 10
51.45
 20
148.967501
 30
0.0
 11
33.468328
 21
148.967501
 31
0.0
  0
LINE
  5
D98
100
AcDbEntity
  8
0
  6
BYBLOCK
 62
     7
100
AcDbLine
 10
76.3
 20
120.995357
 30
0.0
 11
33.468328
 21
120.995357
 31
0.0
  0
LINE
  5
D99
100
AcDbEntity
  8
0
  6
BYBLOCK
 62
     7
100
AcDbLine
 10
34.518328
 20
148.967501
 30
0.0
 11
34.518328
 21
120.995357
 31
0.0
  0
LINE
  5
D9A
100
AcDbEntity
  8
0
  6
BYBLOCK
 62
     7
100
AcDbLine
 10
34.518328
 20
148.967501
 30
0.0
 11
33.974807
 21
146.93906
 31
0.0
  0
LINE
  5
D9B
100
AcDbEntity
  8
0
  6
BYBLOCK
 62
     7
100
AcDbLine
 10
34.518328
 20
148.967501
 30
0.0
 11
35.061849
 21
146.93906
 31
0.0
  0
LINE
  5
D9C
100
AcDbEntity
  8
0
  6
BYBLOCK
 62
     7
100
AcDbLine
 10
34.518328
 20
120.995357
 30
0.0
 11
35.061849
 21
123.023799
 31
0.0
  0
LINE
  5
D9D
100
AcDbEntity
  8
0
  6
BYBLOCK
 62
     7
100
AcDbLine
 10
34.518328
 20
120.995357
 30
0.0
 11
33.974807
 21
123.023799
 31
0.0
  0
TEXT
  5
D9E
100
AcDbEntity
  8
0
 62
     7
100
AcDbText
 10
33.67222
 20
130.259372
 30
0.0
 40
2.1
  1
(40)
 50
89.900002
 41
0.864
100
AcDbText
  0
LINE
  5
D9F
100
AcDbEntity
  8
0
  6
BYBLOCK
 62
     7
100
AcDbLine
 10
44.030001
 20
67.393952
 30
0.0
 11
44.030001
 21
107.864269
 31
0.0
  0
LINE
  5
DA0
100
AcDbEntity
  8
0
  6
BYBLOCK
 62
     7
100
AcDbLine
 10
151.969999
 20
67.393952
 30
0.0
 11
151.969999
 21
107.864269
 31
0.0
  0
LINE
  5
DA1
100
AcDbEntity
  8
0
  6
BYBLOCK
 62
     7
100
AcDbLine
 10
44.030001
 20
106.814269
 30
0.0
 11
151.969999
 21
106.814269
 31
0.0
  0
LINE
  5
DA2
100
AcDbEntity
  8
0
  6
BYBLOCK
 62
     7
100
AcDbLine
 10
44.030001
 20
106.814269
 30
0.0
 11
46.058443
 21
106.270748
 31
0.0
  0
LINE
  5
DA3
100
AcDbEntity
  8
0
  6
BYBLOCK
 62
     7
100
AcDbLine
 10
44.030001
 20
106.814269
 30
0.0
 11
46.058443
 21
107.357791
 31
0.0
  0
LINE
  5
DA4
100
AcDbEntity
  8
0
  6
BYBLOCK
 62
     7
100
AcDbLine
 10
151.969999
 20
106.814269
 30
0.0
 11
149.941552
 21
107.357791
 31
0.0
  0
LINE
  5
DA5
100
AcDbEntity
  8
0
  6
BYBLOCK
 62
     7
100
AcDbLine
 10
151.969999
 20
106.814269
 30
0.0
 11
149.941558
 21
106.270748
 31
0.0
  0
TEXT
  5
DA6
100
AcDbEntity
  8
0
 62
     7
100
AcDbText
 10
91.936016
 20
107.664959
 30
0.0
 40
2.1
  1
(154.2)
 50
359.899994
 41
0.848571
100
AcDbText
  0
LINE
  5
DA7
100
AcDbEntity
  8
0
  6
BYBLOCK
 62
     7
100
AcDbLine
 10
52.5
 20
64.600014
 30
0.0
 11
52.5
 21
103.490249
 31
0.0
  0
LINE
  5
DA8
100
AcDbEntity
  8
0
  6
BYBLOCK
 62
     7
100
AcDbLine
 10
143.5
 20
64.600014
 30
0.0
 11
143.5
 21
103.490249
 31
0.0
  0
LINE
  5
DA9
100
AcDbEntity
  8
0
  6
BYBLOCK
 62
     7
100
AcDbLine
 10
52.5
 20
102.440249
 30
0.0
 11
143.5
 21
102.440249
 31
0.0
  0
LINE
  5
DAA
100
AcDbEntity
  8
0
  6
BYBLOCK
 62
     7
100
AcDbLine
 10
52.5
 20
102.440249
 30
0.0
 11
54.528445
 21
101.896728
 31
0.0
  0
LINE
  5
DAB
100
AcDbEntity
  8
0
  6
BYBLOCK
 62
     7
100
AcDbLine
 10
52.5
 20
102.440249
 30
0.0
 11
54.528445
 21
102.983771
 31
0.0
  0
LINE
  5
DAC
100
AcDbEntity
  8
0
  6
BYBLOCK
 62
     7
100
AcDbLine
 10
143.5
 20
102.440249
 30
0.0
 11
141.471555
 21
102.983768
 31
0.0
  0
LINE
  5
DAD
100
AcDbEntity
  8
0
  6
BYBLOCK
 62
     7
100
AcDbLine
 10
143.5
 20
102.440249
 30
0.0
 11
141.471555
 21
101.896728
 31
0.0
  0
TEXT
  5
DAE
100
AcDbEntity
  8
0
 62
     7
100
AcDbText
 10
95.112011
 20
103.284829
 30
0.0
 40
2.1
  1
130
 50
359.899994
 41
0.936
100
AcDbText
  0
LINE
  5
DAF
100
AcDbEntity
  8
0
  6
BYBLOCK
 62
     7
100
AcDbLine
 10
58.1
 20
89.997051
 30
0.0
 11
58.1
 21
98.468311
 31
0.0
  0
LINE
  5
DB0
100
AcDbEntity
  8
0
  6
BYBLOCK
 62
     7
100
AcDbLine
 10
137.9
 20
89.997051
 30
0.0
 11
137.9
 21
98.468311
 31
0.0
  0
LINE
  5
DB1
100
AcDbEntity
  8
0
  6
BYBLOCK
 62
     7
100
AcDbLine
 10
58.1
 20
97.418311
 30
0.0
 11
137.9
 21
97.418311
 31
0.0
  0
LINE
  5
DB2
100
AcDbEntity
  8
0
  6
BYBLOCK
 62
     7
100
AcDbLine
 10
58.1
 20
97.418311
 30
0.0
 11
60.128445
 21
96.874789
 31
0.0
  0
LINE
  5
DB3
100
AcDbEntity
  8
0
  6
BYBLOCK
 62
     7
100
AcDbLine
 10
58.1
 20
97.418311
 30
0.0
 11
60.128445
 21
97.961832
 31
0.0
  0
LINE
  5
DB4
100
AcDbEntity
  8
0
  6
BYBLOCK
 62
     7
100
AcDbLine
 10
137.9
 20
97.418311
 30
0.0
 11
135.871555
 21
97.961829
 31
0.0
  0
LINE
  5
DB5
100
AcDbEntity
  8
0
  6
BYBLOCK
 62
     7
100
AcDbLine
 10
137.9
 20
97.418311
 30
0.0
 11
135.871555
 21
96.874789
 31
0.0
  0
TEXT
  5
DB6
100
AcDbEntity
  8
0
 62
     7
100
AcDbText
 10
93.625011
 20
98.258311
 30
0.0
 40
2.1
  1
(114)
 41
0.92
100
AcDbText
  0
LINE
  5
DB7
100
AcDbEntity
  8
0
  6
BYBLOCK
 62
     7
100
AcDbLine
 10
81.27
 20
75.45
 30
0.0
 11
81.27
 21
93.01762
 31
0.0
  0
LINE
  5
DB8
100
AcDbEntity
  8
0
  6
BYBLOCK
 62
     7
100
AcDbLine
 10
114.73
 20
75.45
 30
0.0
 11
114.73
 21
93.01762
 31
0.0
  0
LINE
  5
DB9
100
AcDbEntity
  8
0
  6
BYBLOCK
 62
     7
100
AcDbLine
 10
81.27
 20
91.96762
 30
0.0
 11
114.73
 21
91.96762
 31
0.0
  0
LINE
  5
DBA
100
AcDbEntity
  8
0
  6
BYBLOCK
 62
     7
100
AcDbLine
 10
81.27
 20
91.96762
 30
0.0
 11
83.298445
 21
91.424099
 31
0.0
  0
LINE
  5
DBB
100
AcDbEntity
  8
0
  6
BYBLOCK
 62
     7
100
AcDbLine
 10
81.27
 20
91.96762
 30
0.0
 11
83.298445
 21
92.511141
 31
0.0
  0
LINE
  5
DBC
100
AcDbEntity
  8
0
  6
BYBLOCK
 62
     7
100
AcDbLine
 10
114.73
 20
91.96762
 30
0.0
 11
112.701555
 21
92.511139
 31
0.0
  0
LINE
  5
DBD
100
AcDbEntity
  8
0
  6
BYBLOCK
 62
     7
100
AcDbLine
 10
114.73
 20
91.96762
 30
0.0
 11
112.701555
 21
91.424099
 31
0.0
  0
TEXT
  5
DBE
100
AcDbEntity
  8
0
 62
     7
100
AcDbText
 10
92.750011
 20
92.80762
 30
0.0
 40
2.1
  1
(47.8)
 41
0.84
100
AcDbText
  0
LINE
  5
DBF
100
AcDbEntity
  8
0
  6
BYBLOCK
 62
     7
100
AcDbLine
 10
114.03
 20
53.05
 30
0.0
 11
158.503521
 21
53.05
 31
0.0
  0
LINE
  5
DC0
100
AcDbEntity
  8
0
  6
BYBLOCK
 62
     7
100
AcDbLine
 10
114.03
 20
76.15
 30
0.0
 11
158.503521
 21
76.15
 31
0.0
  0
LINE
  5
DC1
100
AcDbEntity
  8
0
  6
BYBLOCK
 62
     7
100
AcDbLine
 10
157.453521
 20
53.05
 30
0.0
 11
157.453521
 21
76.15
 31
0.0
  0
LINE
  5
DC2
100
AcDbEntity
  8
0
  6
BYBLOCK
 62
     7
100
AcDbLine
 10
157.453521
 20
53.05
 30
0.0
 11
157.997042
 21
55.078445
 31
0.0
  0
LINE
  5
DC3
100
AcDbEntity
  8
0
  6
BYBLOCK
 62
     7
100
AcDbLine
 10
157.453521
 20
53.05
 30
0.0
 11
156.91
 21
55.078445
 31
0.0
  0
LINE
  5
DC4
100
AcDbEntity
  8
0
  6
BYBLOCK
 62
     7
100
AcDbLine
 10
157.453521
 20
76.15
 30
0.0
 11
156.91
 21
74.121555
 31
0.0
  0
LINE
  5
DC5
100
AcDbEntity
  8
0
  6
BYBLOCK
 62
     7
100
AcDbLine
 10
157.453521
 20
76.15
 30
0.0
 11
157.997042
 21
74.121555
 31
0.0
  0
TEXT
  5
DC6
100
AcDbEntity
  8
0
 62
     7
100
AcDbText
 10
156.607413
 20
61.101485
 30
0.0
 40
2.1
  1
(33)
 50
89.900002
 41
0.81
100
AcDbText
  0
LINE
  5
DC7
100
AcDbEntity
  8
0
  6
BYBLOCK
 62
     7
100
AcDbLine
 10
98.000011
 20
85.6
 30
0.0
 11
163.515588
 21
85.6
 31
0.0
  0
LINE
  5
DC8
100
AcDbEntity
  8
0
  6
BYBLOCK
 62
     7
100
AcDbLine
 10
98.000011
 20
43.6
 30
0.0
 11
163.515588
 21
43.6
 31
0.0
  0
LINE
  5
DC9
100
AcDbEntity
  8
0
  6
BYBLOCK
 62
     7
100
AcDbLine
 10
162.465588
 20
85.6
 30
0.0
 11
162.465588
 21
43.6
 31
0.0
  0
LINE
  5
DCA
100
AcDbEntity
  8
0
  6
BYBLOCK
 62
     7
100
AcDbLine
 10
162.465588
 20
85.6
 30
0.0
 11
161.922067
 21
83.571555
 31
0.0
  0
LINE
  5
DCB
100
AcDbEntity
  8
0
  6
BYBLOCK
 62
     7
100
AcDbLine
 10
162.465588
 20
85.6
 30
0.0
 11
163.009109
 21
83.571555
 31
0.0
  0
LINE
  5
DCC
100
AcDbEntity
  8
0
  6
BYBLOCK
 62
     7
100
AcDbLine
 10
162.465588
 20
43.6
 30
0.0
 11
163.009109
 21
45.628445
 31
0.0
  0
LINE
  5
DCD
100
AcDbEntity
  8
0
  6
BYBLOCK
 62
     7
100
AcDbLine
 10
162.465588
 20
43.6
 30
0.0
 11
161.922067
 21
45.628445
 31
0.0
  0
TEXT
  5
DCE
100
AcDbEntity
  8
0
 62
     7
100
AcDbText
 10
161.622535
 20
62.851469
 30
0.0
 40
2.1
  1
60
 50
89.900002
 41
0.96
100
AcDbText
  0
LINE
  5
EB8
100
AcDbEntity
  8
0
  6
BYBLOCK
 62
     7
100
AcDbLine
 10
49.266629
 20
64.600014
 30
0.0
 11
36.626237
 21
64.600014
 31
0.0
  0
LINE
  5
EB9
100
AcDbEntity
  8
0
  6
BYBLOCK
 62
     7
100
AcDbLine
 10
52.639998
 20
36.289061
 30
0.0
 11
36.626237
 21
36.289061
 31
0.0
  0
LINE
  5
EBA
100
AcDbEntity
  8
0
  6
BYBLOCK
 62
     7
100
AcDbLine
 10
37.676237
 20
64.600014
 30
0.0
 11
37.676237
 21
36.289061
 31
0.0
  0
LINE
  5
EBB
100
AcDbEntity
  8
0
  6
BYBLOCK
 62
     7
100
AcDbLine
 10
37.676237
 20
64.600014
 30
0.0
 11
37.132717
 21
62.571569
 31
0.0
  0
LINE
  5
EBC
100
AcDbEntity
  8
0
  6
BYBLOCK
 62
     7
100
AcDbLine
 10
37.676237
 20
64.600014
 30
0.0
 11
38.219759
 21
62.571569
 31
0.0
  0
LINE
  5
EBD
100
AcDbEntity
  8
0
  6
BYBLOCK
 62
     7
100
AcDbLine
 10
37.676237
 20
36.289061
 30
0.0
 11
38.219759
 21
38.317505
 31
0.0
  0
LINE
  5
EBE
100
AcDbEntity
  8
0
  6
BYBLOCK
 62
     7
100
AcDbLine
 10
37.676237
 20
36.289061
 30
0.0
 11
37.132717
 21
38.317505
 31
0.0
  0
TEXT
  5
EBF
100
AcDbEntity
  8
0
 62
     7
100
AcDbText
 10
36.83013
 20
48.374211
 30
0.0
 40
2.1
  1
40.4
 50
89.900002
 41
0.996923
100
AcDbText
  0
LINE
  5
EC0
100
AcDbEntity
  8
0
  6
BYBLOCK
 62
     7
100
AcDbLine
 10
49.139998
 20
39.789059
 30
0.0
 11
49.139998
 21
27.195149
 31
0.0
  0
LINE
  5
EC1
100
AcDbEntity
  8
0
  6
BYBLOCK
 62
     7
100
AcDbLine
 10
146.860002
 20
39.789059
 30
0.0
 11
146.860002
 21
27.195149
 31
0.0
  0
LINE
  5
EC2
100
AcDbEntity
  8
0
  6
BYBLOCK
 62
     7
100
AcDbLine
 10
49.139998
 20
28.245149
 30
0.0
 11
146.860002
 21
28.245149
 31
0.0
  0
LINE
  5
EC3
100
AcDbEntity
  8
0
  6
BYBLOCK
 62
     7
100
AcDbLine
 10
49.139998
 20
28.245149
 30
0.0
 11
51.16844
 21
27.701628
 31
0.0
  0
LINE
  5
EC4
100
AcDbEntity
  8
0
  6
BYBLOCK
 62
     7
100
AcDbLine
 10
49.139998
 20
28.245149
 30
0.0
 11
51.16844
 21
28.788671
 31
0.0
  0
LINE
  5
EC5
100
AcDbEntity
  8
0
  6
BYBLOCK
 62
     7
100
AcDbLine
 10
146.860002
 20
28.245149
 30
0.0
 11
144.831555
 21
28.788668
 31
0.0
  0
LINE
  5
EC6
100
AcDbEntity
  8
0
  6
BYBLOCK
 62
     7
100
AcDbLine
 10
146.860002
 20
28.245149
 30
0.0
 11
144.83156
 21
27.701628
 31
0.0
  0
TEXT
  5
EC7
100
AcDbEntity
  8
0
 62
     7
100
AcDbText
 10
94.088348
 20
29.092784
 30
0.0
 40
2.1
  1
139.6
 50
359.899994
 41
0.92
100
AcDbText
  0
LINE
  5
EC8
100
AcDbEntity
  8
0
  6
BYBLOCK
 62
     7
100
AcDbLine
 10
182.298202
 20
171.766501
 30
0.0
 11
182.298202
 21
164.252694
 31
0.0
  0
LINE
  5
EC9
100
AcDbEntity
  8
0
  6
BYBLOCK
 62
     7
100
AcDbLine
 10
250.198197
 20
171.766501
 30
0.0
 11
250.198197
 21
164.252694
 31
0.0
  0
LINE
  5
ECA
100
AcDbEntity
  8
0
  6
BYBLOCK
 62
     7
100
AcDbLine
 10
182.298202
 20
165.302694
 30
0.0
 11
250.198197
 21
165.302694
 31
0.0
  0
LINE
  5
ECB
100
AcDbEntity
  8
0
  6
BYBLOCK
 62
     7
100
AcDbLine
 10
182.298202
 20
165.302694
 30
0.0
 11
184.326643
 21
164.759174
 31
0.0
  0
LINE
  5
ECC
100
AcDbEntity
  8
0
  6
BYBLOCK
 62
     7
100
AcDbLine
 10
182.298202
 20
165.302694
 30
0.0
 11
184.326643
 21
165.846216
 31
0.0
  0
LINE
  5
ECD
100
AcDbEntity
  8
0
  6
BYBLOCK
 62
     7
100
AcDbLine
 10
250.198197
 20
165.302694
 30
0.0
 11
248.16975
 21
165.846216
 31
0.0
  0
LINE
  5
ECE
100
AcDbEntity
  8
0
  6
BYBLOCK
 62
     7
100
AcDbLine
 10
250.198197
 20
165.302694
 30
0.0
 11
248.16975
 21
164.759174
 31
0.0
  0
TEXT
  5
ECF
100
AcDbEntity
  8
0
 62
     7
100
AcDbText
 10
214.189436
 20
166.139638
 30
0.0
 40
2.1
  1
97
 50
0.1
 41
0.96
100
AcDbText
  0
LINE
  5
ED0
100
AcDbEntity
  8
0
  6
BYBLOCK
 62
     7
100
AcDbLine
 10
167.388483
 20
138.166501
 30
0.0
 11
160.985372
 21
138.166501
 31
0.0
  0
LINE
  5
ED1
100
AcDbEntity
  8
0
  6
BYBLOCK
 62
     7
100
AcDbLine
 10
178.656799
 20
124.166149
 30
0.0
 11
160.985372
 21
124.166149
 31
0.0
  0
LINE
  5
ED2
100
AcDbEntity
  8
0
  6
BYBLOCK
 62
     7
100
AcDbLine
 10
162.035372
 20
138.166501
 30
0.0
 11
162.035372
 21
124.166149
 31
0.0
  0
LINE
  5
ED3
100
AcDbEntity
  8
0
  6
BYBLOCK
 62
     7
100
AcDbLine
 10
162.035372
 20
138.166501
 30
0.0
 11
161.491851
 21
136.138059
 31
0.0
  0
LINE
  5
ED4
100
AcDbEntity
  8
0
  6
BYBLOCK
 62
     7
100
AcDbLine
 10
162.035372
 20
138.166501
 30
0.0
 11
162.578893
 21
136.138059
 31
0.0
  0
LINE
  5
ED5
100
AcDbEntity
  8
0
  6
BYBLOCK
 62
     7
100
AcDbLine
 10
162.035372
 20
124.166149
 30
0.0
 11
162.578893
 21
126.19459
 31
0.0
  0
LINE
  5
ED6
100
AcDbEntity
  8
0
  6
BYBLOCK
 62
     7
100
AcDbLine
 10
162.035372
 20
124.166149
 30
0.0
 11
161.491851
 21
126.19459
 31
0.0
  0
TEXT
  5
ED7
100
AcDbEntity
  8
0
 62
     7
100
AcDbText
 10
161.192319
 20
129.202301
 30
0.0
 40
2.1
  1
20
 50
89.900002
 41
0.96
100
AcDbText
  0
LINE
  5
ED8
100
AcDbEntity
  8
0
  6
BYBLOCK
 62
     7
100
AcDbLine
 10
179.605301
 20
127.462517
 30
0.0
 11
178.4216
 21
134.937401
 31
0.0
  0
LINE
  5
ED9
100
AcDbEntity
  8
0
  6
BYBLOCK
 62
     7
100
AcDbLine
 10
183.753498
 20
128.119542
 30
0.0
 11
182.569802
 21
135.594699
 31
0.0
  0
LINE
  5
EDA
100
AcDbEntity
  8
0
  6
BYBLOCK
 62
     7
100
AcDbLine
 10
178.585401
 20
133.900699
 30
0.0
 11
182.733598
 21
134.557302
 31
0.0
  0
LINE
  5
EDB
100
AcDbEntity
  8
0
  6
BYBLOCK
 62
     7
100
AcDbLine
 10
178.585401
 20
133.900699
 30
0.0
 11
180.673876
 21
133.680988
 31
0.0
  0
LINE
  5
EDC
100
AcDbEntity
  8
0
  6
BYBLOCK
 62
     7
100
AcDbLine
 10
178.585401
 20
133.900699
 30
0.0
 11
180.503929
 21
134.754663
 31
0.0
  0
LINE
  5
EDD
100
AcDbEntity
  8
0
  6
BYBLOCK
 62
     7
100
AcDbLine
 10
182.733598
 20
134.557302
 30
0.0
 11
180.645123
 21
134.777013
 31
0.0
  0
LINE
  5
EDE
100
AcDbEntity
  8
0
  6
BYBLOCK
 62
     7
100
AcDbLine
 10
182.733598
 20
134.557302
 30
0.0
 11
180.81507
 21
133.703339
 31
0.0
  0
TEXT
  5
EDF
100
AcDbEntity
  8
0
 62
     7
100
AcDbText
 10
179.872277
 20
134.956414
 30
0.0
 40
2.1
  1
6
 50
8.9
 41
0.82
100
AcDbText
  0
ARC
  5
EE0
100
AcDbEntity
  8
0
  6
BYBLOCK
 62
     7
100
AcDbCircle
 10
216.248197
 20
133.266501
 30
0.0
 40
27.751711
100
AcDbArc
 50
174.219162
 51
194.780838
  0
LINE
  5
EE1
100
AcDbEntity
  8
0
  6
BYBLOCK
 62
     7
100
AcDbLine
 10
212.748197
 20
133.265801
 30
0.0
 11
187.446699
 21
133.265801
 31
0.0
  0
LINE
  5
EE2
100
AcDbEntity
  8
0
  6
BYBLOCK
 62
     7
100
AcDbLine
 10
177.5375
 20
127.134921
 30
0.0
 11
185.1409
 21
128.3392
 31
0.0
  0
LINE
  5
EE3
100
AcDbEntity
  8
0
  6
BYBLOCK
 62
     7
100
AcDbLine
 10
188.838159
 20
128.925178
 30
0.0
 11
188.830127
 21
126.825195
 31
0.0
  0
LINE
  5
EE4
100
AcDbEntity
  8
0
  6
BYBLOCK
 62
     7
100
AcDbLine
 10
188.838159
 20
128.925178
 30
0.0
 11
189.881195
 21
127.10252
 31
0.0
  0
TEXT
  5
EE5
100
AcDbEntity
  8
0
 62
     7
100
AcDbText
 10
188.10775
 20
128.555034
 30
0.0
 40
1.75
  1
9°
 50
95.199997
 41
1.56
100
AcDbText
  0
ARC
  5
EE6
100
AcDbEntity
  8
0
  6
BYBLOCK
 62
     7
100
AcDbCircle
 10
216.248197
 20
133.266501
 30
0.0
 40
27.751711
100
AcDbArc
 50
189.0
 51
199.0
  0
LINE
  5
EE7
100
AcDbEntity
  8
0
  6
BYBLOCK
 62
     7
100
AcDbLine
 10
185.317299
 20
128.367131
 30
0.0
 11
189.875705
 21
129.089038
 31
0.0
  0
LINE
  5
EE8
100
AcDbEntity
  8
0
  6
BYBLOCK
 62
     7
100
AcDbLine
 10
186.797098
 20
123.125462
 30
0.0
 11
191.001296
 21
124.573058
 31
0.0
  0
LINE
  5
EE9
100
AcDbEntity
  8
0
  6
BYBLOCK
 62
     7
100
AcDbLine
 10
188.496491
 20
133.266501
 30
0.0
 11
189.241555
 21
135.229884
 31
0.0
  0
LINE
  5
EEA
100
AcDbEntity
  8
0
  6
BYBLOCK
 62
     7
100
AcDbLine
 10
188.496491
 20
133.266501
 30
0.0
 11
188.160045
 21
135.339376
 31
0.0
  0
TEXT
  5
EEB
100
AcDbEntity
  8
0
 62
     7
100
AcDbText
 10
189.347703
 20
123.553077
 30
0.0
 40
1.75
  1
10°
 50
104.0
 41
1.44
100
AcDbText
  0
LINE
  5
EEC
100
AcDbEntity
  8
0
  6
BYBLOCK
 62
     7
100
AcDbLine
 10
216.248197
 20
133.266501
 30
0.0
 11
190.298497
 21
109.779961
 31
0.0
  0
LINE
  5
EED
100
AcDbEntity
  8
0
  6
BYBLOCK
 62
     7
100
AcDbLine
 10
190.298497
 20
109.779961
 30
0.0
 11
192.167143
 21
110.738156
 31
0.0
  0
LINE
  5
EEE
100
AcDbEntity
  8
0
  6
BYBLOCK
 62
     7
100
AcDbLine
 10
190.298497
 20
109.779961
 30
0.0
 11
191.437695
 21
111.544108
 31
0.0
  0
TEXT
  5
EEF
100
AcDbEntity
  8
0
 62
     7
100
AcDbText
 10
190.87875
 20
111.434556
 30
0.0
 40
2.1
  1
R50
 50
42.200001
 41
0.78
100
AcDbText
  0
LINE
  5
EF0
100
AcDbEntity
  8
0
  6
BYBLOCK
 62
     7
100
AcDbLine
 10
216.248901
 20
133.266501
 30
0.0
 11
231.7679
 21
117.800069
 31
0.0
  0
LINE
  5
EF1
100
AcDbEntity
  8
0
  6
BYBLOCK
 62
     7
100
AcDbLine
 10
231.7679
 20
117.800069
 30
0.0
 11
230.714813
 21
119.616939
 31
0.0
  0
LINE
  5
EF2
100
AcDbEntity
  8
0
  6
BYBLOCK
 62
     7
100
AcDbLine
 10
231.7679
 20
117.800069
 30
0.0
 11
229.947469
 21
118.846982
 31
0.0
  0
TEXT
  5
EF3
100
AcDbEntity
  8
0
 62
     7
100
AcDbText
 10
221.969941
 20
128.749751
 30
0.0
 40
2.1
  1
R31.3
 50
315.100006
 41
0.92
100
AcDbText
  0
ARC
  5
EF4
100
AcDbEntity
  8
0
  6
BYBLOCK
 62
     7
100
AcDbCircle
 10
216.248197
 20
133.266501
 30
0.0
 40
29.245441
100
AcDbArc
 50
312.39801
 51
326.36499
  0
ARC
  5
EF5
100
AcDbEntity
  8
0
  6
BYBLOCK
 62
     7
100
AcDbCircle
 10
216.248197
 20
133.266501
 30
0.0
 40
29.245441
100
AcDbArc
 50
326.36499
 51
336.36499
  0
LINE
  5
EF6
100
AcDbEntity
  8
0
  6
BYBLOCK
 62
     7
100
AcDbLine
 10
238.298197
 20
118.596739
 30
0.0
 11
241.472005
 21
116.485331
 31
0.0
  0
LINE
  5
EF7
100
AcDbEntity
  8
0
  6
BYBLOCK
 62
     7
100
AcDbLine
 10
240.390495
 20
122.701191
 30
0.0
 11
244.002498
 21
121.120241
 31
0.0
  0
LINE
  5
EF8
100
AcDbEntity
  8
0
  6
BYBLOCK
 62
     7
100
AcDbLine
 10
240.597454
 20
117.067439
 30
0.0
 11
242.173532
 21
118.45523
 31
0.0
  0
LINE
  5
EF9
100
AcDbEntity
  8
0
  6
BYBLOCK
 62
     7
100
AcDbLine
 10
240.597454
 20
117.067439
 30
0.0
 11
241.268486
 21
119.057343
 31
0.0
  0
LINE
  5
EFA
100
AcDbEntity
  8
0
  6
BYBLOCK
 62
     7
100
AcDbLine
 10
243.040468
 20
121.541742
 30
0.0
 11
241.729314
 21
119.901351
 31
0.0
  0
LINE
  5
EFB
100
AcDbEntity
  8
0
  6
BYBLOCK
 62
     7
100
AcDbLine
 10
243.040468
 20
121.541742
 30
0.0
 11
242.725171
 21
119.465544
 31
0.0
  0
TEXT
  5
EFC
100
AcDbEntity
  8
0
 62
     7
100
AcDbText
 10
234.653574
 20
111.352952
 30
0.0
 40
2.1
  1
10°
 50
47.0
 41
1.44
100
AcDbText
  0
ARC
  5
EFD
100
AcDbEntity
  8
0
  6
BYBLOCK
 62
     7
100
AcDbCircle
 10
216.248197
 20
133.266501
 30
0.0
 40
29.245441
100
AcDbArc
 50
336.36499
 51
0.0
  0
LINE
  5
EFE
100
AcDbEntity
  8
0
  6
BYBLOCK
 62
     7
100
AcDbLine
 10
240.390495
 20
122.701191
 30
0.0
 11
244.002498
 21
121.120311
 31
0.0
  0
LINE
  5
EFF
100
AcDbEntity
  8
0
  6
BYBLOCK
 62
     7
100
AcDbLine
 10
219.748197
 20
133.266501
 30
0.0
 11
246.544196
 21
133.266501
 31
0.0
  0
LINE
  5
F00
100
AcDbEntity
  8
0
  6
BYBLOCK
 62
     7
100
AcDbLine
 10
243.040468
 20
121.541742
 30
0.0
 11
244.351622
 21
123.182131
 31
0.0
  0
LINE
  5
F01
100
AcDbEntity
  8
0
  6
BYBLOCK
 62
     7
100
AcDbLine
 10
243.040468
 20
121.541742
 30
0.0
 11
243.355765
 21
123.617938
 31
0.0
  0
LINE
  5
F02
100
AcDbEntity
  8
0
  6
BYBLOCK
 62
     7
100
AcDbLine
 10
245.49364
 20
133.266501
 30
0.0
 11
244.950119
 21
131.238059
 31
0.0
  0
LINE
  5
F03
100
AcDbEntity
  8
0
  6
BYBLOCK
 62
     7
100
AcDbLine
 10
245.49364
 20
133.266501
 30
0.0
 11
246.037161
 21
131.238059
 31
0.0
  0
TEXT
  5
F04
100
AcDbEntity
  8
0
 62
     7
100
AcDbText
 10
243.047635
 20
122.0461
 30
0.0
 40
2.1
  1
23.64°
 50
79.400002
 41
0.913846
100
AcDbText
  0
LINE
  5
F05
100
AcDbEntity
  8
0
  6
BYBLOCK
 62
     7
100
AcDbLine
 10
181.955897
 20
89.997051
 30
0.0
 11
181.955897
 21
103.490249
 31
0.0
  0
LINE
  5
F06
100
AcDbEntity
  8
0
  6
BYBLOCK
 62
     7
100
AcDbLine
 10
224.095895
 20
81.936829
 30
0.0
 11
224.095895
 21
103.490249
 31
0.0
  0
LINE
  5
F07
100
AcDbEntity
  8
0
  6
BYBLOCK
 62
     7
100
AcDbLine
 10
181.955897
 20
102.440249
 30
0.0
 11
224.095895
 21
102.440249
 31
0.0
  0
LINE
  5
F08
100
AcDbEntity
  8
0
  6
BYBLOCK
 62
     7
100
AcDbLine
 10
181.955897
 20
102.440249
 30
0.0
 11
183.984339
 21
101.896728
 31
0.0
  0
LINE
  5
F09
100
AcDbEntity
  8
0
  6
BYBLOCK
 62
     7
100
AcDbLine
 10
181.955897
 20
102.440249
 30
0.0
 11
183.984339
 21
102.983771
 31
0.0
  0
LINE
  5
F0A
100
AcDbEntity
  8
0
  6
BYBLOCK
 62
     7
100
AcDbLine
 10
224.095895
 20
102.440249
 30
0.0
 11
222.067448
 21
102.983768
 31
0.0
  0
LINE
  5
F0B
100
AcDbEntity
  8
0
  6
BYBLOCK
 62
     7
100
AcDbLine
 10
224.095895
 20
102.440249
 30
0.0
 11
222.067448
 21
101.896728
 31
0.0
  0
TEXT
  5
F0C
100
AcDbEntity
  8
0
 62
     7
100
AcDbText
 10
197.775902
 20
103.28025
 30
0.0
 40
2.1
  1
(60.2)
 41
0.876522
100
AcDbText
  0
LINE
  5
F0D
100
AcDbEntity
  8
0
  6
BYBLOCK
 62
     7
100
AcDbLine
 10
210.464801
 20
92.827081
 30
0.0
 11
210.464801
 21
98.760841
 31
0.0
  0
LINE
  5
F0E
100
AcDbEntity
  8
0
  6
BYBLOCK
 62
     7
100
AcDbLine
 10
189.095895
 20
78.94755
 30
0.0
 11
189.095895
 21
98.760841
 31
0.0
  0
LINE
  5
F0F
100
AcDbEntity
  8
0
  6
BYBLOCK
 62
     7
100
AcDbLine
 10
210.464801
 20
97.710841
 30
0.0
 11
189.095895
 21
97.710841
 31
0.0
  0
LINE
  5
F10
100
AcDbEntity
  8
0
  6
BYBLOCK
 62
     7
100
AcDbLine
 10
210.464801
 20
97.710841
 30
0.0
 11
208.436354
 21
98.254359
 31
0.0
  0
LINE
  5
F11
100
AcDbEntity
  8
0
  6
BYBLOCK
 62
     7
100
AcDbLine
 10
210.464801
 20
97.710841
 30
0.0
 11
208.436354
 21
97.167319
 31
0.0
  0
LINE
  5
F12
100
AcDbEntity
  8
0
  6
BYBLOCK
 62
     7
100
AcDbLine
 10
189.095895
 20
97.710841
 30
0.0
 11
191.124343
 21
97.167319
 31
0.0
  0
LINE
  5
F13
100
AcDbEntity
  8
0
  6
BYBLOCK
 62
     7
100
AcDbLine
 10
189.095895
 20
97.710841
 30
0.0
 11
191.124343
 21
98.254362
 31
0.0
  0
TEXT
  5
F14
100
AcDbEntity
  8
0
 62
     7
100
AcDbText
 10
196.279996
 20
98.550841
 30
0.0
 40
2.1
  1
30.5
 41
0.996923
100
AcDbText
  0
LINE
  5
F15
100
AcDbEntity
  8
0
  6
BYBLOCK
 62
     7
100
AcDbLine
 10
221.995895
 20
89.997051
 30
0.0
 11
247.969403
 21
89.997051
 31
0.0
  0
LINE
  5
F16
100
AcDbEntity
  8
0
  6
BYBLOCK
 62
     7
100
AcDbLine
 10
261.524202
 20
64.600014
 30
0.0
 11
245.869403
 21
64.600014
 31
0.0
  0
LINE
  5
F17
100
AcDbEntity
  8
0
  6
BYBLOCK
 62
     7
100
AcDbLine
 10
246.919403
 20
89.997051
 30
0.0
 11
246.919403
 21
64.600014
 31
0.0
  0
LINE
  5
F18
100
AcDbEntity
  8
0
  6
BYBLOCK
 62
     7
100
AcDbLine
 10
246.919403
 20
89.997051
 30
0.0
 11
246.375882
 21
87.968607
 31
0.0
  0
LINE
  5
F19
100
AcDbEntity
  8
0
  6
BYBLOCK
 62
     7
100
AcDbLine
 10
246.919403
 20
89.997051
 30
0.0
 11
247.462924
 21
87.968607
 31
0.0
  0
LINE
  5
F1A
100
AcDbEntity
  8
0
  6
BYBLOCK
 62
     7
100
AcDbLine
 10
246.919403
 20
64.600014
 30
0.0
 11
247.462924
 21
66.628459
 31
0.0
  0
LINE
  5
F1B
100
AcDbEntity
  8
0
  6
BYBLOCK
 62
     7
100
AcDbLine
 10
246.919403
 20
64.600014
 30
0.0
 11
246.375882
 21
66.628459
 31
0.0
  0
TEXT
  5
F1C
100
AcDbEntity
  8
0
 62
     7
100
AcDbText
 10
246.070241
 20
72.050034
 30
0.0
 40
2.1
  1
(36.3)
 50
89.900002
 41
0.84
100
AcDbText
  0
LINE
  5
F1D
100
AcDbEntity
  8
0
  6
BYBLOCK
 62
     7
100
AcDbLine
 10
219.748197
 20
133.266501
 30
0.0
 11
270.615101
 21
133.266501
 31
0.0
  0
LINE
  5
F1E
100
AcDbEntity
  8
0
  6
BYBLOCK
 62
     7
100
AcDbLine
 10
261.608199
 20
138.166501
 30
0.0
 11
270.615101
 21
138.166501
 31
0.0
  0
LINE
  5
F1F
100
AcDbEntity
  8
0
  6
BYBLOCK
 62
     7
100
AcDbLine
 10
269.565101
 20
129.066501
 30
0.0
 11
269.565101
 21
142.366501
 31
0.0
  0
LINE
  5
F20
100
AcDbEntity
  8
0
  6
BYBLOCK
 62
     7
100
AcDbLine
 10
269.565101
 20
133.266501
 30
0.0
 11
269.021581
 21
131.238059
 31
0.0
  0
LINE
  5
F21
100
AcDbEntity
  8
0
  6
BYBLOCK
 62
     7
100
AcDbLine
 10
269.565101
 20
133.266501
 30
0.0
 11
270.108623
 21
131.238059
 31
0.0
  0
LINE
  5
F22
100
AcDbEntity
  8
0
  6
BYBLOCK
 62
     7
100
AcDbLine
 10
269.565101
 20
138.166501
 30
0.0
 11
270.108623
 21
140.194943
 31
0.0
  0
LINE
  5
F23
100
AcDbEntity
  8
0
  6
BYBLOCK
 62
     7
100
AcDbLine
 10
269.565101
 20
138.166501
 30
0.0
 11
269.021581
 21
140.194943
 31
0.0
  0
TEXT
  5
F24
100
AcDbEntity
  8
0
 62
     7
100
AcDbText
 10
268.726631
 20
134.723132
 30
0.0
 40
2.1
  1
7
 50
90.099998
 41
0.82
100
AcDbText
  0
LINE
  5
F25
100
AcDbEntity
  8
0
  6
BYBLOCK
 62
     7
100
AcDbLine
 10
265.108199
 20
117.166149
 30
0.0
 11
276.681997
 21
117.166149
 31
0.0
  0
LINE
  5
F26
100
AcDbEntity
  8
0
  6
BYBLOCK
 62
     7
100
AcDbLine
 10
265.108199
 20
138.166501
 30
0.0
 11
276.681997
 21
138.166501
 31
0.0
  0
LINE
  5
F27
100
AcDbEntity
  8
0
  6
BYBLOCK
 62
     7
100
AcDbLine
 10
275.631997
 20
117.166149
 30
0.0
 11
275.631997
 21
138.166501
 31
0.0
  0
LINE
  5
F28
100
AcDbEntity
  8
0
  6
BYBLOCK
 62
     7
100
AcDbLine
 10
275.631997
 20
117.166149
 30
0.0
 11
276.175517
 21
119.19459
 31
0.0
  0
LINE
  5
F29
100
AcDbEntity
  8
0
  6
BYBLOCK
 62
     7
100
AcDbLine
 10
275.631997
 20
117.166149
 30
0.0
 11
275.088475
 21
119.19459
 31
0.0
  0
LINE
  5
F2A
100
AcDbEntity
  8
0
  6
BYBLOCK
 62
     7
100
AcDbLine
 10
275.631997
 20
138.166501
 30
0.0
 11
275.088475
 21
136.138059
 31
0.0
  0
LINE
  5
F2B
100
AcDbEntity
  8
0
  6
BYBLOCK
 62
     7
100
AcDbLine
 10
275.631997
 20
138.166501
 30
0.0
 11
276.175517
 21
136.138059
 31
0.0
  0
TEXT
  5
F2C
100
AcDbEntity
  8
0
 62
     7
100
AcDbText
 10
274.795053
 20
125.91468
 30
0.0
 40
2.1
  1
30
 50
90.099998
 41
0.96
100
AcDbText
  0
LINE
  5
F2D
100
AcDbEntity
  8
0
  6
CONTINUOUS
 62
     7
100
AcDbLine
 10
44.788309
 20
163.031903
 30
0.0
 11
44.292443
 21
162.470726
 31
0.0
  0
LINE
  5
F2E
100
AcDbEntity
  8
0
  6
CONTINUOUS
 62
     7
100
AcDbLine
 10
44.292443
 20
162.470726
 30
0.0
 11
43.879081
 21
161.794962
 31
0.0
  0
LINE
  5
F2F
100
AcDbEntity
  8
0
  6
CONTINUOUS
 62
     7
100
AcDbLine
 10
43.879081
 20
161.794962
 30
0.0
 11
43.621752
 21
161.110642
 31
0.0
  0
LINE
  5
F30
100
AcDbEntity
  8
0
  6
CONTINUOUS
 62
     7
100
AcDbLine
 10
43.621752
 20
161.110642
 30
0.0
 11
43.59397
 21
160.523798
 31
0.0
  0
LINE
  5
F31
100
AcDbEntity
  8
0
  6
CONTINUOUS
 62
     7
100
AcDbLine
 10
43.59397
 20
160.523798
 30
0.0
 11
43.781007
 21
160.062896
 31
0.0
  0
LINE
  5
F32
100
AcDbEntity
  8
0
  6
CONTINUOUS
 62
     7
100
AcDbLine
 10
43.781007
 20
160.062896
 30
0.0
 11
44.079717
 21
159.617759
 31
0.0
  0
LINE
  5
F33
100
AcDbEntity
  8
0
  6
CONTINUOUS
 62
     7
100
AcDbLine
 10
44.079717
 20
159.617759
 30
0.0
 11
44.429978
 21
159.0909
 31
0.0
  0
LINE
  5
F34
100
AcDbEntity
  8
0
  6
CONTINUOUS
 62
     7
100
AcDbLine
 10
44.429978
 20
159.0909
 30
0.0
 11
44.689557
 21
158.537488
 31
0.0
  0
LINE
  5
F35
100
AcDbEntity
  8
0
  6
CONTINUOUS
 62
     7
100
AcDbLine
 10
44.689557
 20
158.537488
 30
0.0
 11
44.841945
 21
157.948839
 31
0.0
  0
LINE
  5
F36
100
AcDbEntity
  8
0
  6
CONTINUOUS
 62
     7
100
AcDbLine
 10
44.841945
 20
157.948839
 30
0.0
 11
44.87794
 21
157.363864
 31
0.0
  0
LINE
  5
F37
100
AcDbEntity
  8
0
  6
CONTINUOUS
 62
     7
100
AcDbLine
 10
44.87794
 20
157.363864
 30
0.0
 11
44.788309
 21
156.821497
 31
0.0
  0
LINE
  5
F38
100
AcDbEntity
  8
0
  6
CONTINUOUS
 62
     7
100
AcDbLine
 10
44.788309
 20
156.821497
 30
0.0
 11
44.511011
 21
156.227422
 31
0.0
  0
LINE
  5
F39
100
AcDbEntity
  8
0
  6
CONTINUOUS
 62
     7
100
AcDbLine
 10
44.511011
 20
156.227422
 30
0.0
 11
44.095535
 21
155.704035
 31
0.0
  0
LINE
  5
F3A
100
AcDbEntity
  8
0
  6
CONTINUOUS
 62
     7
100
AcDbLine
 10
44.095535
 20
155.704035
 30
0.0
 11
43.59397
 21
155.268895
 31
0.0
  0
LINE
  5
F3B
100
AcDbEntity
  8
0
  6
BYBLOCK
 62
     7
100
AcDbLine
 10
219.748197
 20
183.666501
 30
0.0
 11
263.108997
 21
183.666501
 31
0.0
  0
LINE
  5
F3C
100
AcDbEntity
  8
0
  6
BYBLOCK
 62
     7
100
AcDbLine
 10
253.698197
 20
175.266501
 30
0.0
 11
263.108997
 21
175.266501
 31
0.0
  0
LINE
  5
F3D
100
AcDbEntity
  8
0
  6
BYBLOCK
 62
     7
100
AcDbLine
 10
262.058997
 20
183.666501
 30
0.0
 11
262.058997
 21
175.266501
 31
0.0
  0
LINE
  5
F3E
100
AcDbEntity
  8
0
  6
BYBLOCK
 62
     7
100
AcDbLine
 10
262.058997
 20
183.666501
 30
0.0
 11
261.515475
 21
181.638054
 31
0.0
  0
LINE
  5
F3F
100
AcDbEntity
  8
0
  6
BYBLOCK
 62
     7
100
AcDbLine
 10
262.058997
 20
183.666501
 30
0.0
 11
262.602518
 21
181.638054
 31
0.0
  0
LINE
  5
F40
100
AcDbEntity
  8
0
  6
BYBLOCK
 62
     7
100
AcDbLine
 10
262.058997
 20
175.266501
 30
0.0
 11
262.602518
 21
177.294948
 31
0.0
  0
LINE
  5
F41
100
AcDbEntity
  8
0
  6
BYBLOCK
 62
     7
100
AcDbLine
 10
262.058997
 20
175.266501
 30
0.0
 11
261.515475
 21
177.294948
 31
0.0
  0
TEXT
  5
F42
100
AcDbEntity
  8
0
 62
     7
100
AcDbText
 10
261.222053
 20
177.715038
 30
0.0
 40
2.1
  1
12
 50
90.099998
 41
1.44
100
AcDbText
  0
LINE
  5
F43
100
AcDbEntity
  8
0
  6
BYBLOCK
 62
     7
100
AcDbLine
 10
236.529996
 20
119.773092
 30
0.0
 11
230.911101
 21
111.327238
 31
0.0
  0
LINE
  5
F44
100
AcDbEntity
  8
0
  6
BYBLOCK
 62
     7
100
AcDbLine
 10
232.450404
 20
122.487199
 30
0.0
 11
226.831499
 21
114.041351
 31
0.0
  0
LINE
  5
F45
100
AcDbEntity
  8
0
  6
BYBLOCK
 62
     7
100
AcDbLine
 10
234.989624
 20
109.874991
 30
0.0
 11
223.916377
 21
117.241921
 31
0.0
  0
LINE
  5
F46
100
AcDbEntity
  8
0
  6
BYBLOCK
 62
     7
100
AcDbLine
 10
231.492797
 20
112.201399
 30
0.0
 11
232.880577
 21
110.625305
 31
0.0
  0
LINE
  5
F47
100
AcDbEntity
  8
0
  6
BYBLOCK
 62
     7
100
AcDbLine
 10
231.492797
 20
112.201399
 30
0.0
 11
233.482695
 21
111.530351
 31
0.0
  0
LINE
  5
F48
100
AcDbEntity
  8
0
  6
BYBLOCK
 62
     7
100
AcDbLine
 10
227.413205
 20
114.915512
 30
0.0
 11
226.025424
 21
116.491607
 31
0.0
  0
LINE
  5
F49
100
AcDbEntity
  8
0
  6
BYBLOCK
 62
     7
100
AcDbLine
 10
227.413205
 20
114.915512
 30
0.0
 11
225.423307
 21
115.586561
 31
0.0
  0
TEXT
  5
F4A
100
AcDbEntity
  8
0
 62
     7
100
AcDbText
 10
229.189032
 20
114.74236
 30
0.0
 40
2.1
  1
7
 50
326.399994
 41
0.82
100
AcDbText
  0
TEXT
  5
F4C
100
AcDbEntity
  8
1
  6
CONTINUOUS
 62
     7
100
AcDbText
 10
6.531
 20
42.913
 30
0.0
 40
2.304
  1
　
 41
0.573
  7
KANJI
100
AcDbText
  0
LINE
  5
F55
100
AcDbEntity
  8
0
100
AcDbLine
 10
281.0
 20
4.0
 30
0.0
 11
201.0
 21
4.0
 31
0.0
  0
LINE
  5
F56
100
AcDbEntity
  8
0
100
AcDbLine
 10
281.0
 20
20.0
 30
0.0
 11
281.0
 21
4.0
 31
0.0
  0
LINE
  5
F57
100
AcDbEntity
  8
0
100
AcDbLine
 10
281.0
 20
12.0
 30
0.0
 11
201.0
 21
12.0
 31
0.0
  0
LINE
  5
F58
100
AcDbEntity
  8
0
100
AcDbLine
 10
281.0
 20
20.0
 30
0.0
 11
201.0
 21
20.0
 31
0.0
  0
LINE
  5
F59
100
AcDbEntity
  8
0
100
AcDbLine
 10
221.0
 20
20.0
 30
0.0
 11
221.0
 21
4.0
 31
0.0
  0
LINE
  5
F5A
100
AcDbEntity
  8
0
100
AcDbLine
 10
201.0
 20
20.0
 30
0.0
 11
201.0
 21
4.0
 31
0.0
  0
TEXT
  5
F5B
100
AcDbEntity
  8
0
100
AcDbText
 10
206.93529
 20
13.671686
 30
0.0
 40
4.0
  1
品名
  7
STANDARD1
100
AcDbText
  0
TEXT
  5
F5C
100
AcDbEntity
  8
0
100
AcDbText
 10
206.93529
 20
5.671686
 30
0.0
 40
4.0
  1
型名
  7
STANDARD1
100
AcDbText
  0
TEXT
  5
F5D
100
AcDbEntity
  8
0
100
AcDbText
 10
222.93529
 20
13.671686
 30
0.0
 40
4.0
  1
屋外小型カラーカメラ
  7
STANDARD1
100
AcDbText
  0
TEXT
  5
F5E
100
AcDbEntity
  8
0
100
AcDbText
 10
222.93529
 20
5.671686
 30
0.0
 40
4.0
  1
CIT-743
  7
STANDARD1
100
AcDbText
  0
ENDSEC
  0
SECTION
  2
OBJECTS
  0
DICTIONARY
  5
C
100
AcDbDictionary
  3
ACAD_GROUP
350
D
  3
ACAD_MLINESTYLE
350
1B
  0
DICTIONARY
  5
D
102
{ACAD_REACTORS
330
C
102
}
100
AcDbDictionary
  3
*A1
350
C0D
  3
*A2
350
C0E
  3
*A3
350
C0F
  3
*A4
350
C10
  3
*A5
350
F5F
  3
*A6
350
F60
  0
DICTIONARY
  5
1B
102
{ACAD_REACTORS
330
C
102
}
100
AcDbDictionary
  3
STANDARD
350
1C
  0
GROUP
  5
C0D
102
{ACAD_REACTORS
330
D
102
}
100
AcDbGroup
300

 70
     3
 71
     1
340
BE9
340
BE8
340
BEB
340
BEA
  0
GROUP
  5
C0E
102
{ACAD_REACTORS
330
D
102
}
100
AcDbGroup
300

 70
     3
 71
     1
340
BE5
340
BE4
340
BE7
340
BE6
  0
GROUP
  5
C0F
102
{ACAD_REACTORS
330
D
102
}
100
AcDbGroup
300

 70
     3
 71
     1
340
C18
340
C17
340
C1A
340
C19
  0
GROUP
  5
C10
102
{ACAD_REACTORS
330
D
102
}
100
AcDbGroup
300

 70
     3
 71
     1
340
C13
340
C14
340
C15
340
C16
  0
GROUP
  5
F5F
102
{ACAD_REACTORS
330
D
102
}
100
AcDbGroup
300

 70
     1
 71
     1
  0
GROUP
  5
F60
102
{ACAD_REACTORS
330
D
102
}
100
AcDbGroup
300

 70
     1
 71
     1
  0
MLINESTYLE
  5
1C
102
{ACAD_REACTORS
330
1B
102
}
100
AcDbMlineStyle
  2
STANDARD
 70
     0
  3

 62
   256
 51
90.0
 52
90.0
 71
     2
 49
0.5
 62
   256
  6
BYLAYER
 49
-0.5
 62
   256
  6
BYLAYER
  0
ENDSEC
  0
EOF
