  0
SECTION
  2
HEADER
  9
$ACADVER
  1
AC1012
  9
$DWGCODEPAGE
  3
dos932
  9
$INSBASE
 10
0.0
 20
0.0
 30
0.0
  9
$EXTMIN
 10
-72.94069
 20
22.1862
 30
0.0
  9
$EXTMAX
 10
232.2833285905401
 20
270.65939
 30
0.0
  9
$LIMMIN
 10
0.0
 20
0.0
  9
$LIMMAX
 10
12.0
 20
9.0
  9
$ORTHOMODE
 70
     0
  9
$REGENMODE
 70
     1
  9
$FILLMODE
 70
     1
  9
$QTEXTMODE
 70
     0
  9
$MIRRTEXT
 70
     1
  9
$DRAGMODE
 70
     2
  9
$LTSCALE
 40
1.0
  9
$OSMODE
 70
    37
  9
$ATTMODE
 70
     1
  9
$TEXTSIZE
 40
0.0
  9
$TRACEWID
 40
0.05
  9
$TEXTSTYLE
  7
STANDARD
  9
$CLAYER
  8
0
  9
$CELTYPE
  6
CONTINUOUS
  9
$CECOLOR
 62
   256
  9
$CELTSCALE
 40
1.0
  9
$DELOBJ
 70
     1
  9
$DISPSILH
 70
     0
  9
$DIMSCALE
 40
1.0
  9
$DIMASZ
 40
0.18
  9
$DIMEXO
 40
0.0625
  9
$DIMDLI
 40
0.38
  9
$DIMRND
 40
0.0
  9
$DIMDLE
 40
0.0
  9
$DIMEXE
 40
0.18
  9
$DIMTP
 40
0.0
  9
$DIMTM
 40
0.0
  9
$DIMTXT
 40
0.18
  9
$DIMCEN
 40
0.09
  9
$DIMTSZ
 40
0.0
  9
$DIMTOL
 70
     0
  9
$DIMLIM
 70
     0
  9
$DIMTIH
 70
     1
  9
$DIMTOH
 70
     1
  9
$DIMSE1
 70
     0
  9
$DIMSE2
 70
     0
  9
$DIMTAD
 70
     0
  9
$DIMZIN
 70
     0
  9
$DIMBLK
  1

  9
$DIMASO
 70
     1
  9
$DIMSHO
 70
     1
  9
$DIMPOST
  1

  9
$DIMAPOST
  1

  9
$DIMALT
 70
     0
  9
$DIMALTD
 70
     2
  9
$DIMALTF
 40
25.4
  9
$DIMLFAC
 40
1.0
  9
$DIMTOFL
 70
     0
  9
$DIMTVP
 40
0.0
  9
$DIMTIX
 70
     0
  9
$DIMSOXD
 70
     0
  9
$DIMSAH
 70
     0
  9
$DIMBLK1
  1

  9
$DIMBLK2
  1

  9
$DIMSTYLE
  2
STANDARD
  9
$DIMCLRD
 70
     0
  9
$DIMCLRE
 70
     0
  9
$DIMCLRT
 70
     0
  9
$DIMTFAC
 40
1.0
  9
$DIMGAP
 40
0.09
  9
$DIMJUST
 70
     0
  9
$DIMSD1
 70
     0
  9
$DIMSD2
 70
     0
  9
$DIMTOLJ
 70
     1
  9
$DIMTZIN
 70
     0
  9
$DIMALTZ
 70
     0
  9
$DIMALTTZ
 70
     0
  9
$DIMFIT
 70
     3
  9
$DIMUPT
 70
     0
  9
$DIMUNIT
 70
     2
  9
$DIMDEC
 70
     4
  9
$DIMTDEC
 70
     4
  9
$DIMALTU
 70
     2
  9
$DIMALTTD
 70
     2
  9
$DIMTXSTY
  7
STANDARD
  9
$DIMAUNIT
 70
     0
  9
$LUNITS
 70
     2
  9
$LUPREC
 70
     4
  9
$SKETCHINC
 40
0.1
  9
$FILLETRAD
 40
0.0
  9
$AUNITS
 70
     0
  9
$AUPREC
 70
     0
  9
$MENU
  1
.
  9
$ELEVATION
 40
0.0
  9
$PELEVATION
 40
0.0
  9
$THICKNESS
 40
0.0
  9
$LIMCHECK
 70
     0
  9
$BLIPMODE
 70
     0
  9
$CHAMFERA
 40
0.0
  9
$CHAMFERB
 40
0.0
  9
$CHAMFERC
 40
0.0
  9
$CHAMFERD
 40
0.0
  9
$SKPOLY
 70
     0
  9
$TDCREATE
 40
2453769.429754861
  9
$TDUPDATE
 40
2453769.430175960
  9
$TDINDWG
 40
0.0004223727
  9
$TDUSRTIMER
 40
0.0004223727
  9
$USRTIMER
 70
     1
  9
$ANGBASE
 50
0.0
  9
$ANGDIR
 70
     0
  9
$PDMODE
 70
     0
  9
$PDSIZE
 40
0.0
  9
$PLINEWID
 40
0.0
  9
$COORDS
 70
     1
  9
$SPLFRAME
 70
     0
  9
$SPLINETYPE
 70
     6
  9
$SPLINESEGS
 70
     8
  9
$ATTDIA
 70
     0
  9
$ATTREQ
 70
     1
  9
$HANDLING
 70
 10241
  9
$HANDSEED
  5
162A
  9
$SURFTAB1
 70
     6
  9
$SURFTAB2
 70
     6
  9
$SURFTYPE
 70
     6
  9
$SURFU
 70
     6
  9
$SURFV
 70
     6
  9
$UCSNAME
  2

  9
$UCSORG
 10
0.0
 20
0.0
 30
0.0
  9
$UCSXDIR
 10
1.0
 20
0.0
 30
0.0
  9
$UCSYDIR
 10
0.0
 20
1.0
 30
0.0
  9
$PUCSNAME
  2

  9
$PUCSORG
 10
0.0
 20
0.0
 30
0.0
  9
$PUCSXDIR
 10
1.0
 20
0.0
 30
0.0
  9
$PUCSYDIR
 10
0.0
 20
1.0
 30
0.0
  9
$USERI1
 70
     0
  9
$USERI2
 70
     0
  9
$USERI3
 70
     0
  9
$USERI4
 70
     0
  9
$USERI5
 70
     0
  9
$USERR1
 40
0.0
  9
$USERR2
 40
0.0
  9
$USERR3
 40
0.0
  9
$USERR4
 40
0.0
  9
$USERR5
 40
0.0
  9
$WORLDVIEW
 70
     1
  9
$SHADEDGE
 70
     3
  9
$SHADEDIF
 70
    70
  9
$TILEMODE
 70
     1
  9
$MAXACTVP
 70
    64
  9
$PINSBASE
 10
0.0
 20
0.0
 30
0.0
  9
$PLIMCHECK
 70
     0
  9
$PEXTMIN
 10
1.000000000000000E+20
 20
1.000000000000000E+20
 30
1.000000000000000E+20
  9
$PEXTMAX
 10
-1.000000000000000E+20
 20
-1.000000000000000E+20
 30
-1.000000000000000E+20
  9
$PLIMMIN
 10
0.0
 20
0.0
  9
$PLIMMAX
 10
12.0
 20
9.0
  9
$UNITMODE
 70
     0
  9
$VISRETAIN
 70
     1
  9
$PLINEGEN
 70
     0
  9
$PSLTSCALE
 70
     1
  9
$TREEDEPTH
 70
  3020
  9
$PICKSTYLE
 70
     1
  9
$CMLSTYLE
  2
STANDARD
  9
$CMLJUST
 70
     0
  9
$CMLSCALE
 40
1.0
  9
$SAVEIMAGES
 70
     1
  0
ENDSEC
  0
SECTION
  2
CLASSES
  0
CLASS
  1
ACDBDICTIONARYWDFLT
  2
AcDbDictionaryWithDefault
  3
AutoCAD 2000
 90
    32768
280
     0
281
     0
  0
CLASS
  1
ACDBPLACEHOLDER
  2
AcDbPlaceHolder
  3
AutoCAD 2000
 90
    32768
280
     0
281
     0
  0
CLASS
  1
LAYOUT
  2
AcDbLayout
  3
AutoCAD 2000
 90
    32768
280
     0
281
     0
  0
CLASS
  1
LONG_TRANSACTION
  2
AcDbLongTransaction
  3
AutoCAD 2000
 90
    32768
280
     0
281
     0
  0
CLASS
  1
LWPOLYLINE
  2
AcDbPolyline
  3
AutoCAD 2000
 90
    32768
280
     0
281
     1
  0
CLASS
  1
HATCH
  2
AcDbHatch
  3
AutoCAD 2000
 90
    32768
280
     0
281
     1
  0
CLASS
  1
XRECORD
  2
AcDbXrecord
  3
AutoCAD 2000
 90
    32768
280
     0
281
     0
  0
ENDSEC
  0
SECTION
  2
TABLES
  0
TABLE
  2
VPORT
  5
8
330
0
100
AcDbSymbolTable
 70
     3
  0
VPORT
  5
F51
330
8
100
AcDbSymbolTableRecord
100
AcDbViewportTableRecord
  2
*ACTIVE
 70
     0
 10
0.0
 20
0.0
 11
1.0
 21
1.0
 12
90.14224642102607
 22
144.6477230631483
 13
0.0
 23
0.0
 14
1.0
 24
1.0
 15
0.0
 25
0.0
 16
0.0
 26
0.0
 36
1.0
 17
0.0
 27
0.0
 37
0.0
 40
274.852820575659
 41
1.478908188585607
 42
50.0
 43
0.0
 44
0.0
 50
0.0
 51
0.0
 71
     0
 72
   100
 73
     1
 74
     1
 75
     0
 76
     0
 77
     0
 78
     0
  0
ENDTAB
  0
TABLE
  2
LTYPE
  5
5
330
0
100
AcDbSymbolTable
 70
     2
  0
LTYPE
  5
13
330
5
100
AcDbSymbolTableRecord
100
AcDbLinetypeTableRecord
  2
BYBLOCK
 70
     0
  3

 72
    65
 73
     0
 40
0.0
  0
LTYPE
  5
14
330
5
100
AcDbSymbolTableRecord
100
AcDbLinetypeTableRecord
  2
BYLAYER
 70
     0
  3

 72
    65
 73
     0
 40
0.0
  0
LTYPE
  5
15
330
5
100
AcDbSymbolTableRecord
100
AcDbLinetypeTableRecord
  2
CONTINUOUS
 70
     0
  3
Solid line
 72
    65
 73
     0
 40
0.0
  0
LTYPE
  5
22
330
5
100
AcDbSymbolTableRecord
100
AcDbLinetypeTableRecord
  2
AIGENLINE001
 70
     0
  3
generate AI->DXF Converter
 72
    65
 73
     2
 40
3.53098
 49
2.11844
 74
     0
 49
-1.412529999999999
 74
     0
  0
ENDTAB
  0
TABLE
  2
LAYER
  5
2
330
0
100
AcDbSymbolTable
 70
     3
  0
LAYER
  5
10
330
2
100
AcDbSymbolTableRecord
100
AcDbLayerTableRecord
  2
0
 70
     0
 62
     7
  6
CONTINUOUS
  0
LAYER
  5
23
330
2
100
AcDbSymbolTableRecord
100
AcDbLayerTableRecord
  2
LAYER_1
 70
     0
 62
     7
  6
CONTINUOUS
  0
LAYER
  5
24
330
2
100
AcDbSymbolTableRecord
100
AcDbLayerTableRecord
  2
LAYER_2
 70
     0
 62
     7
  6
CONTINUOUS
  0
ENDTAB
  0
TABLE
  2
STYLE
  5
3
330
0
100
AcDbSymbolTable
 70
     1
  0
STYLE
  5
11
330
3
100
AcDbSymbolTableRecord
100
AcDbTextStyleTableRecord
  2
STANDARD
 70
     0
 40
0.0
 41
0.0
 50
0.0
 71
     0
 42
0.0
  3
TXT
  4
BIGFONT
  0
ENDTAB
  0
TABLE
  2
VIEW
  5
6
330
0
100
AcDbSymbolTable
 70
     0
  0
ENDTAB
  0
TABLE
  2
UCS
  5
7
330
0
100
AcDbSymbolTable
 70
     0
  0
ENDTAB
  0
TABLE
  2
APPID
  5
9
330
0
100
AcDbSymbolTable
 70
     1
  0
APPID
  5
12
330
9
100
AcDbSymbolTableRecord
100
AcDbRegAppTableRecord
  2
ACAD
 70
     0
  0
ENDTAB
  0
TABLE
  2
DIMSTYLE
  5
A
330
0
100
AcDbSymbolTable
 70
     1
  0
DIMSTYLE
105
876
330
A
100
AcDbSymbolTableRecord
100
AcDbDimStyleTableRecord
  2
STANDARD
 70
     0
  3

  4

  5

  6

  7

 40
1.0
 41
0.18
 42
0.0625
 43
0.38
 44
0.18
 45
0.0
 46
0.0
 47
0.0
 48
0.0
140
0.18
141
0.09
142
0.0
143
25.4
144
1.0
145
0.0
146
1.0
147
0.09
 71
     0
 72
     0
 73
     1
 74
     1
 75
     0
 76
     0
 77
     0
 78
     0
170
     0
171
     2
172
     0
173
     0
174
     0
175
     0
176
     0
177
     0
178
     0
270
     2
271
     4
272
     4
273
     2
274
     2
340
11
275
     0
280
     0
281
     0
282
     0
283
     1
284
     0
285
     0
286
     0
287
     3
288
     0
  0
ENDTAB
  0
TABLE
  2
BLOCK_RECORD
  5
1
330
0
100
AcDbSymbolTable
 70
    31
  0
BLOCK_RECORD
  5
1E
102
{ACAD_XDICTIONARY
360
F54
102
}
330
1
100
AcDbSymbolTableRecord
100
AcDbBlockTableRecord
  2
*MODEL_SPACE
  0
BLOCK_RECORD
  5
1A
102
{ACAD_XDICTIONARY
360
F52
102
}
330
1
100
AcDbSymbolTableRecord
100
AcDbBlockTableRecord
  2
*PAPER_SPACE
  0
BLOCK_RECORD
  5
28
330
1
100
AcDbSymbolTableRecord
100
AcDbBlockTableRecord
  2
AIGNBL01030004
  0
BLOCK_RECORD
  5
6D
330
1
100
AcDbSymbolTableRecord
100
AcDbBlockTableRecord
  2
AIGNBL01030005
  0
BLOCK_RECORD
  5
76
330
1
100
AcDbSymbolTableRecord
100
AcDbBlockTableRecord
  2
AIGNBL01030006
  0
BLOCK_RECORD
  5
A9
330
1
100
AcDbSymbolTableRecord
100
AcDbBlockTableRecord
  2
AIGNBL01030007
  0
BLOCK_RECORD
  5
ED
330
1
100
AcDbSymbolTableRecord
100
AcDbBlockTableRecord
  2
AIGNBL01030008
  0
BLOCK_RECORD
  5
F8
330
1
100
AcDbSymbolTableRecord
100
AcDbBlockTableRecord
  2
AIGNBL0103000C
  0
BLOCK_RECORD
  5
12B
330
1
100
AcDbSymbolTableRecord
100
AcDbBlockTableRecord
  2
AIGNBL0103000D
  0
BLOCK_RECORD
  5
15E
330
1
100
AcDbSymbolTableRecord
100
AcDbBlockTableRecord
  2
AIGNBL0103000E
  0
BLOCK_RECORD
  5
1A2
330
1
100
AcDbSymbolTableRecord
100
AcDbBlockTableRecord
  2
AIGNBL01020003
  0
BLOCK_RECORD
  5
1AA
330
1
100
AcDbSymbolTableRecord
100
AcDbBlockTableRecord
  2
AIGNBL0102000B
  0
BLOCK_RECORD
  5
1B0
330
1
100
AcDbSymbolTableRecord
100
AcDbBlockTableRecord
  2
AIGNBL01020011
  0
BLOCK_RECORD
  5
1E4
330
1
100
AcDbSymbolTableRecord
100
AcDbBlockTableRecord
  2
AIGNBL01020012
  0
BLOCK_RECORD
  5
231
330
1
100
AcDbSymbolTableRecord
100
AcDbBlockTableRecord
  2
AIGNBL01020013
  0
BLOCK_RECORD
  5
246
330
1
100
AcDbSymbolTableRecord
100
AcDbBlockTableRecord
  2
AIGNBL02020003
  0
BLOCK_RECORD
  5
284
330
1
100
AcDbSymbolTableRecord
100
AcDbBlockTableRecord
  2
AIGNBL02020004
  0
BLOCK_RECORD
  5
2D9
330
1
100
AcDbSymbolTableRecord
100
AcDbBlockTableRecord
  2
AIGNBL02020005
  0
BLOCK_RECORD
  5
31C
330
1
100
AcDbSymbolTableRecord
100
AcDbBlockTableRecord
  2
AIGNBL02020006
  0
BLOCK_RECORD
  5
332
330
1
100
AcDbSymbolTableRecord
100
AcDbBlockTableRecord
  2
AIGNBL02020007
  0
BLOCK_RECORD
  5
347
330
1
100
AcDbSymbolTableRecord
100
AcDbBlockTableRecord
  2
AIGNBL02020008
  0
BLOCK_RECORD
  5
36A
330
1
100
AcDbSymbolTableRecord
100
AcDbBlockTableRecord
  2
AIGNBL02020009
  0
BLOCK_RECORD
  5
373
330
1
100
AcDbSymbolTableRecord
100
AcDbBlockTableRecord
  2
AIGNBL0202000A
  0
BLOCK_RECORD
  5
384
330
1
100
AcDbSymbolTableRecord
100
AcDbBlockTableRecord
  2
AIGNBL0202000B
  0
BLOCK_RECORD
  5
3AB
330
1
100
AcDbSymbolTableRecord
100
AcDbBlockTableRecord
  2
AIGNBL01010002
  0
BLOCK_RECORD
  5
3C5
330
1
100
AcDbSymbolTableRecord
100
AcDbBlockTableRecord
  2
AIGNBL01010009
  0
BLOCK_RECORD
  5
3CD
330
1
100
AcDbSymbolTableRecord
100
AcDbBlockTableRecord
  2
AIGNBL0101000A
  0
BLOCK_RECORD
  5
3E3
330
1
100
AcDbSymbolTableRecord
100
AcDbBlockTableRecord
  2
AIGNBL0101000F
  0
BLOCK_RECORD
  5
3EA
330
1
100
AcDbSymbolTableRecord
100
AcDbBlockTableRecord
  2
AIGNBL01010010
  0
BLOCK_RECORD
  5
3F0
330
1
100
AcDbSymbolTableRecord
100
AcDbBlockTableRecord
  2
AIGNBL01010014
  0
BLOCK_RECORD
  5
475
330
1
100
AcDbSymbolTableRecord
100
AcDbBlockTableRecord
  2
AIGNBL01010015
  0
BLOCK_RECORD
  5
764
330
1
100
AcDbSymbolTableRecord
100
AcDbBlockTableRecord
  2
AIGNBL01010016
  0
BLOCK_RECORD
  5
84B
330
1
100
AcDbSymbolTableRecord
100
AcDbBlockTableRecord
  2
AIGNBL02010002
  0
ENDTAB
  0
ENDSEC
  0
SECTION
  2
BLOCKS
  0
BLOCK
  5
1F
330
1E
100
AcDbEntity
  8
0
100
AcDbBlockBegin
  2
*MODEL_SPACE
 70
     0
 10
0.0
 20
0.0
 30
0.0
  3
*MODEL_SPACE
  1

  0
ENDBLK
  5
20
330
1E
100
AcDbEntity
  8
0
100
AcDbBlockEnd
  0
BLOCK
  5
1B
330
1A
100
AcDbEntity
 67
     1
  8
0
100
AcDbBlockBegin
  2
*PAPER_SPACE
 70
     0
 10
0.0
 20
0.0
 30
0.0
  3
*PAPER_SPACE
  1

  0
ENDBLK
  5
1C
330
1A
100
AcDbEntity
 67
     1
  8
0
100
AcDbBlockEnd
  0
BLOCK
  5
29
330
28
100
AcDbEntity
  8
LAYER_1
100
AcDbBlockBegin
  2
AIGNBL01030004
 70
     0
 10
0.0
 20
0.0
 30
0.0
  3
AIGNBL01030004
  1

  0
POLYLINE
  5
2A
330
28
100
AcDbEntity
  8
LAYER_1
100
AcDb2dPolyline
 66
     1
 10
0.0
 20
0.0
 30
0.0
 70
     1
 40
0.35278
 41
0.35278
  0
VERTEX
  5
F56
330
2A
100
AcDbEntity
  8
LAYER_1
100
AcDbVertex
100
AcDb2dVertex
 10
173.643
 20
57.5865
 30
0.0
 42
0.0374
  0
VERTEX
  5
F57
330
2A
100
AcDbEntity
  8
LAYER_1
100
AcDbVertex
100
AcDb2dVertex
 10
173.8729999999999
 20
57.6036
 30
0.0
 42
0.0691
  0
VERTEX
  5
F58
330
2A
100
AcDbEntity
  8
LAYER_1
100
AcDbVertex
100
AcDb2dVertex
 10
174.0609999999999
 20
57.6611
 30
0.0
 42
0.2483
  0
VERTEX
  5
F59
330
2A
100
AcDbEntity
  8
LAYER_1
100
AcDbVertex
100
AcDb2dVertex
 10
174.27
 20
57.9511
 30
0.0
 42
0.0451
  0
VERTEX
  5
F5A
330
2A
100
AcDbEntity
  8
LAYER_1
100
AcDbVertex
100
AcDb2dVertex
 10
174.2809999999999
 20
58.1088
 30
0.0
 42
0.0517
  0
VERTEX
  5
F5B
330
2A
100
AcDbEntity
  8
LAYER_1
100
AcDbVertex
100
AcDb2dVertex
 10
174.263
 20
58.2888
 30
0.0
 42
0.1299
  0
VERTEX
  5
F5C
330
2A
100
AcDbEntity
  8
LAYER_1
100
AcDbVertex
100
AcDb2dVertex
 10
174.168
 20
58.4703
 30
0.0
 42
0.0973
  0
VERTEX
  5
F5D
330
2A
100
AcDbEntity
  8
LAYER_1
100
AcDbVertex
100
AcDb2dVertex
 10
174.0559999999999
 20
58.54569999999999
 30
0.0
 42
0.0385
  0
VERTEX
  5
F5E
330
2A
100
AcDbEntity
  8
LAYER_1
100
AcDbVertex
100
AcDb2dVertex
 10
173.9749999999999
 20
58.5735
 30
0.0
 42
0.0314
  0
VERTEX
  5
F5F
330
2A
100
AcDbEntity
  8
LAYER_1
100
AcDbVertex
100
AcDb2dVertex
 10
173.867
 20
58.5946
 30
0.0
 42
0.022
  0
VERTEX
  5
F60
330
2A
100
AcDbEntity
  8
LAYER_1
100
AcDbVertex
100
AcDb2dVertex
 10
173.724
 20
58.60669999999999
 30
0.0
 42
0.0107
  0
VERTEX
  5
F61
330
2A
100
AcDbEntity
  8
LAYER_1
100
AcDbVertex
100
AcDb2dVertex
 10
173.572
 20
58.6097
 30
0.0
 42
0.0338
  0
VERTEX
  5
F62
330
2A
100
AcDbEntity
  8
LAYER_1
100
AcDbVertex
100
AcDb2dVertex
 10
173.32
 20
58.5928
 30
0.0
 42
0.0692
  0
VERTEX
  5
F63
330
2A
100
AcDbEntity
  8
LAYER_1
100
AcDbVertex
100
AcDb2dVertex
 10
173.143
 20
58.5399
 30
0.0
 42
0.196
  0
VERTEX
  5
F64
330
2A
100
AcDbEntity
  8
LAYER_1
100
AcDbVertex
100
AcDb2dVertex
 10
172.9589999999999
 20
58.3342
 30
0.0
 42
0.0959
  0
VERTEX
  5
F65
330
2A
100
AcDbEntity
  8
LAYER_1
100
AcDbVertex
100
AcDb2dVertex
 10
172.923
 20
58.09470000000001
 30
0.0
 42
0.0553
  0
VERTEX
  5
F66
330
2A
100
AcDbEntity
  8
LAYER_1
100
AcDbVertex
100
AcDb2dVertex
 10
172.942
 20
57.92
 30
0.0
 42
0.2786
  0
VERTEX
  5
F67
330
2A
100
AcDbEntity
  8
LAYER_1
100
AcDbVertex
100
AcDb2dVertex
 10
173.2369999999999
 20
57.629
 30
0.0
 42
0.0303
  0
VERTEX
  5
F68
330
2A
100
AcDbEntity
  8
LAYER_1
100
AcDbVertex
100
AcDb2dVertex
 10
173.3379999999999
 20
57.6064
 30
0.0
 42
0.0239
  0
VERTEX
  5
F69
330
2A
100
AcDbEntity
  8
LAYER_1
100
AcDbVertex
100
AcDb2dVertex
 10
173.472
 20
57.5916
 30
0.0
 42
0.0167
  0
SEQEND
  5
F6A
330
2A
100
AcDbEntity
  8
LAYER_1
  0
POLYLINE
  5
40
330
28
100
AcDbEntity
  8
LAYER_1
100
AcDb2dPolyline
 66
     1
 10
0.0
 20
0.0
 30
0.0
 70
     1
 40
0.35278
 41
0.35278
  0
VERTEX
  5
F6B
330
40
100
AcDbEntity
  8
LAYER_1
100
AcDbVertex
100
AcDb2dVertex
 10
172.3829999999999
 20
58.5815
 30
0.0
 42
0.0419
  0
VERTEX
  5
F6C
330
40
100
AcDbEntity
  8
LAYER_1
100
AcDbVertex
100
AcDb2dVertex
 10
172.1729999999999
 20
58.5683
 30
0.0
 42
0.0824
  0
VERTEX
  5
F6D
330
40
100
AcDbEntity
  8
LAYER_1
100
AcDbVertex
100
AcDb2dVertex
 10
172.029
 20
58.5186
 30
0.0
 42
0.1655
  0
VERTEX
  5
F6E
330
40
100
AcDbEntity
  8
LAYER_1
100
AcDbVertex
100
AcDb2dVertex
 10
171.902
 20
58.3716
 30
0.0
 42
0.0822
  0
VERTEX
  5
F6F
330
40
100
AcDbEntity
  8
LAYER_1
100
AcDbVertex
100
AcDb2dVertex
 10
171.862
 20
58.20409999999999
 30
0.0
 42
0.024
  0
VERTEX
  5
F70
330
40
100
AcDbEntity
  8
LAYER_1
100
AcDbVertex
100
AcDb2dVertex
 10
171.858
 20
58.10159999999999
 30
0.0
 42
0.0458
  0
VERTEX
  5
F71
330
40
100
AcDbEntity
  8
LAYER_1
100
AcDbVertex
100
AcDb2dVertex
 10
171.874
 20
57.916
 30
0.0
 42
0.2577
  0
VERTEX
  5
F72
330
40
100
AcDbEntity
  8
LAYER_1
100
AcDbVertex
100
AcDb2dVertex
 10
172.095
 20
57.6684
 30
0.0
 42
0.032
  0
VERTEX
  5
F73
330
40
100
AcDbEntity
  8
LAYER_1
100
AcDbVertex
100
AcDb2dVertex
 10
172.189
 20
57.6379
 30
0.0
 42
0.0247
  0
VERTEX
  5
F74
330
40
100
AcDbEntity
  8
LAYER_1
100
AcDbVertex
100
AcDb2dVertex
 10
172.3159999999999
 20
57.6118
 30
0.0
 42
0.0177
  0
VERTEX
  5
F75
330
40
100
AcDbEntity
  8
LAYER_1
100
AcDbVertex
100
AcDb2dVertex
 10
172.4859999999999
 20
57.5915
 30
0.0
 42
0.0128
  0
VERTEX
  5
F76
330
40
100
AcDbEntity
  8
LAYER_1
100
AcDbVertex
100
AcDb2dVertex
 10
172.7299999999999
 20
57.5774
 30
0.0
 42
0.0065
  0
VERTEX
  5
F77
330
40
100
AcDbEntity
  8
LAYER_1
100
AcDbVertex
100
AcDb2dVertex
 10
172.9829999999999
 20
57.5724
 30
0.0
 42
-0.019
  0
VERTEX
  5
F78
330
40
100
AcDbEntity
  8
LAYER_1
100
AcDbVertex
100
AcDb2dVertex
 10
172.9079999999999
 20
57.62859999999999
 30
0.0
 42
-0.1641
  0
VERTEX
  5
F79
330
40
100
AcDbEntity
  8
LAYER_1
100
AcDbVertex
100
AcDb2dVertex
 10
172.7389999999999
 20
57.91109999999999
 30
0.0
 42
-0.0629
  0
VERTEX
  5
F7A
330
40
100
AcDbEntity
  8
LAYER_1
100
AcDbVertex
100
AcDb2dVertex
 10
172.7149999999999
 20
58.1298
 30
0.0
 42
-0.0766
  0
VERTEX
  5
F7B
330
40
100
AcDbEntity
  8
LAYER_1
100
AcDbVertex
100
AcDb2dVertex
 10
172.7599999999999
 20
58.4275
 30
0.0
 42
-0.2318
  0
VERTEX
  5
F7C
330
40
100
AcDbEntity
  8
LAYER_1
100
AcDbVertex
100
AcDb2dVertex
 10
173.1209999999999
 20
58.77819999999999
 30
0.0
 42
-0.061
  0
VERTEX
  5
F7D
330
40
100
AcDbEntity
  8
LAYER_1
100
AcDbVertex
100
AcDb2dVertex
 10
173.357
 20
58.82899999999999
 30
0.0
 42
-0.0289
  0
VERTEX
  5
F7E
330
40
100
AcDbEntity
  8
LAYER_1
100
AcDbVertex
100
AcDb2dVertex
 10
173.5899999999999
 20
58.83919999999999
 30
0.0
 42
-0.0306
  0
VERTEX
  5
F7F
330
40
100
AcDbEntity
  8
LAYER_1
100
AcDbVertex
100
AcDb2dVertex
 10
173.887
 20
58.8211
 30
0.0
 42
-0.0547
  0
VERTEX
  5
F80
330
40
100
AcDbEntity
  8
LAYER_1
100
AcDbVertex
100
AcDb2dVertex
 10
174.119
 20
58.7639
 30
0.0
 42
-0.2443
  0
VERTEX
  5
F81
330
40
100
AcDbEntity
  8
LAYER_1
100
AcDbVertex
100
AcDb2dVertex
 10
174.458
 20
58.3774
 30
0.0
 42
-0.065
  0
VERTEX
  5
F82
330
40
100
AcDbEntity
  8
LAYER_1
100
AcDbVertex
100
AcDb2dVertex
 10
174.4859999999999
 20
58.1229
 30
0.0
 42
-0.042
  0
VERTEX
  5
F83
330
40
100
AcDbEntity
  8
LAYER_1
100
AcDbVertex
100
AcDb2dVertex
 10
174.467
 20
57.8902
 30
0.0
 42
-0.1033
  0
VERTEX
  5
F84
330
40
100
AcDbEntity
  8
LAYER_1
100
AcDbVertex
100
AcDb2dVertex
 10
174.364
 20
57.63580000000001
 30
0.0
 42
-0.1259
  0
VERTEX
  5
F85
330
40
100
AcDbEntity
  8
LAYER_1
100
AcDbVertex
100
AcDb2dVertex
 10
174.169
 20
57.47600000000001
 30
0.0
 42
-0.0632
  0
VERTEX
  5
F86
330
40
100
AcDbEntity
  8
LAYER_1
100
AcDbVertex
100
AcDb2dVertex
 10
173.962
 20
57.4054
 30
0.0
 42
-0.0212
  0
VERTEX
  5
F87
330
40
100
AcDbEntity
  8
LAYER_1
100
AcDbVertex
100
AcDb2dVertex
 10
173.8229999999999
 20
57.3806
 30
0.0
 42
-0.0173
  0
VERTEX
  5
F88
330
40
100
AcDbEntity
  8
LAYER_1
100
AcDbVertex
100
AcDb2dVertex
 10
173.634
 20
57.3619
 30
0.0
 42
-0.018
  0
VERTEX
  5
F89
330
40
100
AcDbEntity
  8
LAYER_1
100
AcDbVertex
100
AcDb2dVertex
 10
173.1809999999999
 20
57.3502
 30
0.0
 42
-0.0057
  0
VERTEX
  5
F8A
330
40
100
AcDbEntity
  8
LAYER_1
100
AcDbVertex
100
AcDb2dVertex
 10
172.83
 20
57.3541
 30
0.0
 42
-0.0246
  0
VERTEX
  5
F8B
330
40
100
AcDbEntity
  8
LAYER_1
100
AcDbVertex
100
AcDb2dVertex
 10
172.3329999999999
 20
57.38929999999999
 30
0.0
 42
-0.0436
  0
VERTEX
  5
F8C
330
40
100
AcDbEntity
  8
LAYER_1
100
AcDbVertex
100
AcDb2dVertex
 10
172.055
 20
57.4514
 30
0.0
 42
-0.0696
  0
VERTEX
  5
F8D
330
40
100
AcDbEntity
  8
LAYER_1
100
AcDbVertex
100
AcDb2dVertex
 10
171.8729999999999
 20
57.54129999999999
 30
0.0
 42
-0.1792
  0
VERTEX
  5
F8E
330
40
100
AcDbEntity
  8
LAYER_1
100
AcDbVertex
100
AcDb2dVertex
 10
171.682
 20
57.82289999999999
 30
0.0
 42
-0.0737
  0
VERTEX
  5
F8F
330
40
100
AcDbEntity
  8
LAYER_1
100
AcDbVertex
100
AcDb2dVertex
 10
171.65
 20
58.10529999999999
 30
0.0
 42
-0.0438
  0
VERTEX
  5
F90
330
40
100
AcDbEntity
  8
LAYER_1
100
AcDbVertex
100
AcDb2dVertex
 10
171.668
 20
58.32119999999999
 30
0.0
 42
-0.1087
  0
VERTEX
  5
F91
330
40
100
AcDbEntity
  8
LAYER_1
100
AcDbVertex
100
AcDb2dVertex
 10
171.7809999999999
 20
58.5885
 30
0.0
 42
-0.1674
  0
VERTEX
  5
F92
330
40
100
AcDbEntity
  8
LAYER_1
100
AcDbVertex
100
AcDb2dVertex
 10
172.06
 20
58.7718
 30
0.0
 42
-0.0614
  0
VERTEX
  5
F93
330
40
100
AcDbEntity
  8
LAYER_1
100
AcDbVertex
100
AcDb2dVertex
 10
172.2899999999999
 20
58.8085
 30
0.0
 42
-0.0134
  0
VERTEX
  5
F94
330
40
100
AcDbEntity
  8
LAYER_1
100
AcDbVertex
100
AcDb2dVertex
 10
172.3829999999999
 20
58.8109
 30
0.0
  0
SEQEND
  5
F95
330
40
100
AcDbEntity
  8
LAYER_1
  0
ENDBLK
  5
6C
330
28
100
AcDbEntity
  8
0
100
AcDbBlockEnd
  0
BLOCK
  5
6E
330
6D
100
AcDbEntity
  8
LAYER_1
100
AcDbBlockBegin
  2
AIGNBL01030005
 70
     0
 10
0.0
 20
0.0
 30
0.0
  3
AIGNBL01030005
  1

  0
POLYLINE
  5
6F
330
6D
100
AcDbEntity
  8
LAYER_1
100
AcDb2dPolyline
 66
     1
 10
0.0
 20
0.0
 30
0.0
 70
     1
 40
0.35278
 41
0.35278
  0
VERTEX
  5
F96
330
6F
100
AcDbEntity
  8
LAYER_1
100
AcDbVertex
100
AcDb2dVertex
 10
174.1329999999999
 20
56.4789
 30
0.0
  0
VERTEX
  5
F97
330
6F
100
AcDbEntity
  8
LAYER_1
100
AcDbVertex
100
AcDb2dVertex
 10
174.458
 20
56.4789
 30
0.0
  0
VERTEX
  5
F98
330
6F
100
AcDbEntity
  8
LAYER_1
100
AcDbVertex
100
AcDb2dVertex
 10
174.458
 20
56.1826
 30
0.0
  0
VERTEX
  5
F99
330
6F
100
AcDbEntity
  8
LAYER_1
100
AcDbVertex
100
AcDb2dVertex
 10
174.1329999999999
 20
56.1826
 30
0.0
  0
SEQEND
  5
F9A
330
6F
100
AcDbEntity
  8
LAYER_1
  0
ENDBLK
  5
75
330
6D
100
AcDbEntity
  8
0
100
AcDbBlockEnd
  0
BLOCK
  5
77
330
76
100
AcDbEntity
  8
LAYER_1
100
AcDbBlockBegin
  2
AIGNBL01030006
 70
     0
 10
0.0
 20
0.0
 30
0.0
  3
AIGNBL01030006
  1

  0
POLYLINE
  5
78
330
76
100
AcDbEntity
  8
LAYER_1
100
AcDb2dPolyline
 66
     1
 10
0.0
 20
0.0
 30
0.0
 70
     1
 40
0.35278
 41
0.35278
  0
VERTEX
  5
F9B
330
78
100
AcDbEntity
  8
LAYER_1
100
AcDbVertex
100
AcDb2dVertex
 10
173.3919999999999
 20
54.4645
 30
0.0
 42
0.0484
  0
VERTEX
  5
F9C
330
78
100
AcDbEntity
  8
LAYER_1
100
AcDbVertex
100
AcDb2dVertex
 10
173.4709999999999
 20
54.2896
 30
0.0
 42
0.1836
  0
VERTEX
  5
F9D
330
78
100
AcDbEntity
  8
LAYER_1
100
AcDbVertex
100
AcDb2dVertex
 10
173.712
 20
54.1041
 30
0.0
 42
0.0327
  0
VERTEX
  5
F9E
330
78
100
AcDbEntity
  8
LAYER_1
100
AcDbVertex
100
AcDb2dVertex
 10
173.808
 20
54.0805
 30
0.0
 42
0.025
  0
VERTEX
  5
F9F
330
78
100
AcDbEntity
  8
LAYER_1
100
AcDbVertex
100
AcDb2dVertex
 10
173.9409999999999
 20
54.06369999999999
 30
0.0
 42
0.0232
  0
VERTEX
  5
FA0
330
78
100
AcDbEntity
  8
LAYER_1
100
AcDbVertex
100
AcDb2dVertex
 10
174.2499999999999
 20
54.0553
 30
0.0
  0
VERTEX
  5
FA1
330
78
100
AcDbEntity
  8
LAYER_1
100
AcDbVertex
100
AcDb2dVertex
 10
174.2499999999999
 20
55.2972
 30
0.0
  0
VERTEX
  5
FA2
330
78
100
AcDbEntity
  8
LAYER_1
100
AcDbVertex
100
AcDb2dVertex
 10
174.458
 20
55.2972
 30
0.0
  0
VERTEX
  5
FA3
330
78
100
AcDbEntity
  8
LAYER_1
100
AcDbVertex
100
AcDb2dVertex
 10
174.458
 20
53.8262
 30
0.0
 42
-0.0177
  0
VERTEX
  5
FA4
330
78
100
AcDbEntity
  8
LAYER_1
100
AcDbVertex
100
AcDb2dVertex
 10
173.97
 20
53.8377
 30
0.0
 42
-0.0416
  0
VERTEX
  5
FA5
330
78
100
AcDbEntity
  8
LAYER_1
100
AcDbVertex
100
AcDb2dVertex
 10
173.672
 20
53.88399999999999
 30
0.0
 42
-0.0669
  0
VERTEX
  5
FA6
330
78
100
AcDbEntity
  8
LAYER_1
100
AcDbVertex
100
AcDb2dVertex
 10
173.4909999999999
 20
53.9581
 30
0.0
 42
-0.1252
  0
VERTEX
  5
FA7
330
78
100
AcDbEntity
  8
LAYER_1
100
AcDbVertex
100
AcDb2dVertex
 10
173.312
 20
54.1401
 30
0.0
 42
-0.03
  0
VERTEX
  5
FA8
330
78
100
AcDbEntity
  8
LAYER_1
100
AcDbVertex
100
AcDb2dVertex
 10
173.259
 20
54.24009999999999
 30
0.0
 42
-0.0229
  0
VERTEX
  5
FA9
330
78
100
AcDbEntity
  8
LAYER_1
100
AcDbVertex
100
AcDb2dVertex
 10
173.1909999999999
 20
54.4115
 30
0.0
  0
VERTEX
  5
FAA
330
78
100
AcDbEntity
  8
LAYER_1
100
AcDbVertex
100
AcDb2dVertex
 10
173.092
 20
54.68679999999999
 30
0.0
 42
0.0144
  0
VERTEX
  5
FAB
330
78
100
AcDbEntity
  8
LAYER_1
100
AcDbVertex
100
AcDb2dVertex
 10
173.0469999999999
 20
54.8024
 30
0.0
 42
0.0775
  0
VERTEX
  5
FAC
330
78
100
AcDbEntity
  8
LAYER_1
100
AcDbVertex
100
AcDb2dVertex
 10
172.964
 20
54.934
 30
0.0
 42
0.0966
  0
VERTEX
  5
FAD
330
78
100
AcDbEntity
  8
LAYER_1
100
AcDbVertex
100
AcDb2dVertex
 10
172.849
 20
55.0165
 30
0.0
 42
0.0776
  0
VERTEX
  5
FAE
330
78
100
AcDbEntity
  8
LAYER_1
100
AcDbVertex
100
AcDb2dVertex
 10
172.672
 20
55.0675
 30
0.0
 42
0.0399
  0
VERTEX
  5
FAF
330
78
100
AcDbEntity
  8
LAYER_1
100
AcDbVertex
100
AcDb2dVertex
 10
172.4569999999999
 20
55.08189999999999
 30
0.0
 42
0.0365
  0
VERTEX
  5
FB0
330
78
100
AcDbEntity
  8
LAYER_1
100
AcDbVertex
100
AcDb2dVertex
 10
172.2129999999999
 20
55.0643
 30
0.0
 42
0.0755
  0
VERTEX
  5
FB1
330
78
100
AcDbEntity
  8
LAYER_1
100
AcDbVertex
100
AcDb2dVertex
 10
172.049
 20
55.0107
 30
0.0
 42
0.211
  0
VERTEX
  5
FB2
330
78
100
AcDbEntity
  8
LAYER_1
100
AcDbVertex
100
AcDb2dVertex
 10
171.8829999999999
 20
54.7952
 30
0.0
 42
0.0752
  0
VERTEX
  5
FB3
330
78
100
AcDbEntity
  8
LAYER_1
100
AcDbVertex
100
AcDb2dVertex
 10
171.858
 20
54.5775
 30
0.0
 42
0.0521
  0
VERTEX
  5
FB4
330
78
100
AcDbEntity
  8
LAYER_1
100
AcDbVertex
100
AcDb2dVertex
 10
171.877
 20
54.3921
 30
0.0
 42
0.1373
  0
VERTEX
  5
FB5
330
78
100
AcDbEntity
  8
LAYER_1
100
AcDbVertex
100
AcDb2dVertex
 10
171.9829999999999
 20
54.1947
 30
0.0
 42
0.0999
  0
VERTEX
  5
FB6
330
78
100
AcDbEntity
  8
LAYER_1
100
AcDbVertex
100
AcDb2dVertex
 10
172.102
 20
54.12169999999999
 30
0.0
 42
0.0744
  0
VERTEX
  5
FB7
330
78
100
AcDbEntity
  8
LAYER_1
100
AcDbVertex
100
AcDb2dVertex
 10
172.285
 20
54.0825
 30
0.0
 42
0.0298
  0
VERTEX
  5
FB8
330
78
100
AcDbEntity
  8
LAYER_1
100
AcDbVertex
100
AcDb2dVertex
 10
172.549
 20
54.07659999999999
 30
0.0
  0
VERTEX
  5
FB9
330
78
100
AcDbEntity
  8
LAYER_1
100
AcDbVertex
100
AcDb2dVertex
 10
172.549
 20
53.8437
 30
0.0
 42
-0.008
  0
VERTEX
  5
FBA
330
78
100
AcDbEntity
  8
LAYER_1
100
AcDbVertex
100
AcDb2dVertex
 10
172.3459999999999
 20
53.8503
 30
0.0
 42
-0.0476
  0
VERTEX
  5
FBB
330
78
100
AcDbEntity
  8
LAYER_1
100
AcDbVertex
100
AcDb2dVertex
 10
172.088
 20
53.8896
 30
0.0
 42
-0.1073
  0
VERTEX
  5
FBC
330
78
100
AcDbEntity
  8
LAYER_1
100
AcDbVertex
100
AcDb2dVertex
 10
171.849
 20
54.0131
 30
0.0
 42
-0.1203
  0
VERTEX
  5
FBD
330
78
100
AcDbEntity
  8
LAYER_1
100
AcDbVertex
100
AcDb2dVertex
 10
171.71
 20
54.2139
 30
0.0
 42
-0.0653
  0
VERTEX
  5
FBE
330
78
100
AcDbEntity
  8
LAYER_1
100
AcDbVertex
100
AcDb2dVertex
 10
171.6599999999999
 20
54.41259999999999
 30
0.0
 42
-0.0336
  0
VERTEX
  5
FBF
330
78
100
AcDbEntity
  8
LAYER_1
100
AcDbVertex
100
AcDb2dVertex
 10
171.65
 20
54.5844
 30
0.0
 42
-0.0432
  0
VERTEX
  5
FC0
330
78
100
AcDbEntity
  8
LAYER_1
100
AcDbVertex
100
AcDb2dVertex
 10
171.668
 20
54.80360000000001
 30
0.0
 42
-0.1052
  0
VERTEX
  5
FC1
330
78
100
AcDbEntity
  8
LAYER_1
100
AcDbVertex
100
AcDb2dVertex
 10
171.777
 20
55.06759999999999
 30
0.0
 42
-0.1658
  0
VERTEX
  5
FC2
330
78
100
AcDbEntity
  8
LAYER_1
100
AcDbVertex
100
AcDb2dVertex
 10
172.0579999999999
 20
55.2592
 30
0.0
 42
-0.0598
  0
VERTEX
  5
FC3
330
78
100
AcDbEntity
  8
LAYER_1
100
AcDbVertex
100
AcDb2dVertex
 10
172.2879999999999
 20
55.302
 30
0.0
 42
-0.0205
  0
VERTEX
  5
FC4
330
78
100
AcDbEntity
  8
LAYER_1
100
AcDbVertex
100
AcDb2dVertex
 10
172.4329999999999
 20
55.3076
 30
0.0
 42
-0.0342
  0
VERTEX
  5
FC5
330
78
100
AcDbEntity
  8
LAYER_1
100
AcDbVertex
100
AcDb2dVertex
 10
172.717
 20
55.2883
 30
0.0
 42
-0.0587
  0
VERTEX
  5
FC6
330
78
100
AcDbEntity
  8
LAYER_1
100
AcDbVertex
100
AcDb2dVertex
 10
172.924
 20
55.2316
 30
0.0
 42
-0.1568
  0
VERTEX
  5
FC7
330
78
100
AcDbEntity
  8
LAYER_1
100
AcDbVertex
100
AcDb2dVertex
 10
173.182
 20
55.00759999999999
 30
0.0
 42
-0.0611
  0
VERTEX
  5
FC8
330
78
100
AcDbEntity
  8
LAYER_1
100
AcDbVertex
100
AcDb2dVertex
 10
173.279
 20
54.7925
 30
0.0
  0
SEQEND
  5
FC9
330
78
100
AcDbEntity
  8
LAYER_1
  0
ENDBLK
  5
A8
330
76
100
AcDbEntity
  8
0
100
AcDbBlockEnd
  0
BLOCK
  5
AA
330
A9
100
AcDbEntity
  8
LAYER_1
100
AcDbBlockBegin
  2
AIGNBL01030007
 70
     0
 10
0.0
 20
0.0
 30
0.0
  3
AIGNBL01030007
  1

  0
POLYLINE
  5
AB
330
A9
100
AcDbEntity
  8
LAYER_1
100
AcDb2dPolyline
 66
     1
 10
0.0
 20
0.0
 30
0.0
 70
     1
 40
0.35278
 41
0.35278
  0
VERTEX
  5
FCA
330
AB
100
AcDbEntity
  8
LAYER_1
100
AcDbVertex
100
AcDb2dVertex
 10
173.597
 20
52.2845
 30
0.0
 42
0.0097
  0
VERTEX
  5
FCB
330
AB
100
AcDbEntity
  8
LAYER_1
100
AcDbVertex
100
AcDb2dVertex
 10
173.772
 20
52.2822
 30
0.0
 42
0.053
  0
VERTEX
  5
FCC
330
AB
100
AcDbEntity
  8
LAYER_1
100
AcDbVertex
100
AcDb2dVertex
 10
174.0009999999999
 20
52.3075
 30
0.0
 42
0.1422
  0
VERTEX
  5
FCD
330
AB
100
AcDbEntity
  8
LAYER_1
100
AcDbVertex
100
AcDb2dVertex
 10
174.175
 20
52.40870000000001
 30
0.0
 42
0.1016
  0
VERTEX
  5
FCE
330
AB
100
AcDbEntity
  8
LAYER_1
100
AcDbVertex
100
AcDb2dVertex
 10
174.242
 20
52.52839999999999
 30
0.0
 42
0.07
  0
VERTEX
  5
FCF
330
AB
100
AcDbEntity
  8
LAYER_1
100
AcDbVertex
100
AcDb2dVertex
 10
174.275
 20
52.7139
 30
0.0
 42
0.016
  0
VERTEX
  5
FD0
330
AB
100
AcDbEntity
  8
LAYER_1
100
AcDbVertex
100
AcDb2dVertex
 10
174.2779999999999
 20
52.803
 30
0.0
 42
0.0485
  0
VERTEX
  5
FD1
330
AB
100
AcDbEntity
  8
LAYER_1
100
AcDbVertex
100
AcDb2dVertex
 10
174.2599999999999
 20
52.98899999999999
 30
0.0
 42
0.1377
  0
VERTEX
  5
FD2
330
AB
100
AcDbEntity
  8
LAYER_1
100
AcDbVertex
100
AcDb2dVertex
 10
174.157
 20
53.18439999999999
 30
0.0
 42
0.1005
  0
VERTEX
  5
FD3
330
AB
100
AcDbEntity
  8
LAYER_1
100
AcDbVertex
100
AcDb2dVertex
 10
174.032
 20
53.2628
 30
0.0
 42
0.0712
  0
VERTEX
  5
FD4
330
AB
100
AcDbEntity
  8
LAYER_1
100
AcDbVertex
100
AcDb2dVertex
 10
173.847
 20
53.30619999999999
 30
0.0
 42
0.0287
  0
VERTEX
  5
FD5
330
AB
100
AcDbEntity
  8
LAYER_1
100
AcDbVertex
100
AcDb2dVertex
 10
173.685
 20
53.31459999999999
 30
0.0
 42
0.0412
  0
VERTEX
  5
FD6
330
AB
100
AcDbEntity
  8
LAYER_1
100
AcDbVertex
100
AcDb2dVertex
 10
173.4659999999999
 20
53.2966
 30
0.0
 42
0.0778
  0
VERTEX
  5
FD7
330
AB
100
AcDbEntity
  8
LAYER_1
100
AcDbVertex
100
AcDb2dVertex
 10
173.305
 20
53.2409
 30
0.0
 42
0.2056
  0
VERTEX
  5
FD8
330
AB
100
AcDbEntity
  8
LAYER_1
100
AcDbVertex
100
AcDb2dVertex
 10
173.1479999999999
 20
53.03119999999999
 30
0.0
 42
0.0342
  0
VERTEX
  5
FD9
330
AB
100
AcDbEntity
  8
LAYER_1
100
AcDbVertex
100
AcDb2dVertex
 10
173.13
 20
52.94360000000001
 30
0.0
 42
0.039
  0
VERTEX
  5
FDA
330
AB
100
AcDbEntity
  8
LAYER_1
100
AcDbVertex
100
AcDb2dVertex
 10
173.117
 20
52.7113
 30
0.0
  0
VERTEX
  5
FDB
330
AB
100
AcDbEntity
  8
LAYER_1
100
AcDbVertex
100
AcDb2dVertex
 10
173.117
 20
52.5349
 30
0.0
  0
VERTEX
  5
FDC
330
AB
100
AcDbEntity
  8
LAYER_1
100
AcDbVertex
100
AcDb2dVertex
 10
172.909
 20
52.5349
 30
0.0
  0
VERTEX
  5
FDD
330
AB
100
AcDbEntity
  8
LAYER_1
100
AcDbVertex
100
AcDb2dVertex
 10
172.909
 20
52.743
 30
0.0
 42
0.0118
  0
VERTEX
  5
FDE
330
AB
100
AcDbEntity
  8
LAYER_1
100
AcDbVertex
100
AcDb2dVertex
 10
172.9049999999999
 20
52.89699999999999
 30
0.0
 42
0.0636
  0
VERTEX
  5
FDF
330
AB
100
AcDbEntity
  8
LAYER_1
100
AcDbVertex
100
AcDb2dVertex
 10
172.8729999999999
 20
53.0881
 30
0.0
 42
0.2265
  0
VERTEX
  5
FE0
330
AB
100
AcDbEntity
  8
LAYER_1
100
AcDbVertex
100
AcDb2dVertex
 10
172.704
 20
53.2559
 30
0.0
 42
0.0408
  0
VERTEX
  5
FE1
330
AB
100
AcDbEntity
  8
LAYER_1
100
AcDbVertex
100
AcDb2dVertex
 10
172.6229999999999
 20
53.2786
 30
0.0
 42
0.0305
  0
VERTEX
  5
FE2
330
AB
100
AcDbEntity
  8
LAYER_1
100
AcDbVertex
100
AcDb2dVertex
 10
172.513
 20
53.2928
 30
0.0
 42
0.0183
  0
VERTEX
  5
FE3
330
AB
100
AcDbEntity
  8
LAYER_1
100
AcDbVertex
100
AcDb2dVertex
 10
172.3899999999999
 20
53.29699999999999
 30
0.0
 42
0.0404
  0
VERTEX
  5
FE4
330
AB
100
AcDbEntity
  8
LAYER_1
100
AcDbVertex
100
AcDb2dVertex
 10
172.175
 20
53.2798
 30
0.0
 42
0.0859
  0
VERTEX
  5
FE5
330
AB
100
AcDbEntity
  8
LAYER_1
100
AcDbVertex
100
AcDb2dVertex
 10
172.029
 20
53.2252
 30
0.0
 42
0.1615
  0
VERTEX
  5
FE6
330
AB
100
AcDbEntity
  8
LAYER_1
100
AcDbVertex
100
AcDb2dVertex
 10
171.902
 20
53.0711
 30
0.0
 42
0.0811
  0
VERTEX
  5
FE7
330
AB
100
AcDbEntity
  8
LAYER_1
100
AcDbVertex
100
AcDb2dVertex
 10
171.862
 20
52.8939
 30
0.0
 42
0.0219
  0
VERTEX
  5
FE8
330
AB
100
AcDbEntity
  8
LAYER_1
100
AcDbVertex
100
AcDb2dVertex
 10
171.858
 20
52.7995
 30
0.0
 42
0.0544
  0
VERTEX
  5
FE9
330
AB
100
AcDbEntity
  8
LAYER_1
100
AcDbVertex
100
AcDb2dVertex
 10
171.8779999999999
 20
52.6103
 30
0.0
 42
0.1285
  0
VERTEX
  5
FEA
330
AB
100
AcDbEntity
  8
LAYER_1
100
AcDbVertex
100
AcDb2dVertex
 10
171.9759999999999
 20
52.4271
 30
0.0
 42
0.0998
  0
VERTEX
  5
FEB
330
AB
100
AcDbEntity
  8
LAYER_1
100
AcDbVertex
100
AcDb2dVertex
 10
172.088
 20
52.3534
 30
0.0
 42
0.0413
  0
VERTEX
  5
FEC
330
AB
100
AcDbEntity
  8
LAYER_1
100
AcDbVertex
100
AcDb2dVertex
 10
172.168
 20
52.32829999999999
 30
0.0
 42
0.0325
  0
VERTEX
  5
FED
330
AB
100
AcDbEntity
  8
LAYER_1
100
AcDbVertex
100
AcDb2dVertex
 10
172.2679999999999
 20
52.3121
 30
0.0
 42
0.0298
  0
VERTEX
  5
FEE
330
AB
100
AcDbEntity
  8
LAYER_1
100
AcDbVertex
100
AcDb2dVertex
 10
172.472
 20
52.3055
 30
0.0
  0
VERTEX
  5
FEF
330
AB
100
AcDbEntity
  8
LAYER_1
100
AcDbVertex
100
AcDb2dVertex
 10
172.472
 20
52.0764
 30
0.0
 42
-0.0347
  0
VERTEX
  5
FF0
330
AB
100
AcDbEntity
  8
LAYER_1
100
AcDbVertex
100
AcDb2dVertex
 10
172.202
 20
52.095
 30
0.0
 42
-0.0928
  0
VERTEX
  5
FF1
330
AB
100
AcDbEntity
  8
LAYER_1
100
AcDbVertex
100
AcDb2dVertex
 10
171.919
 20
52.1946
 30
0.0
 42
-0.1994
  0
VERTEX
  5
FF2
330
AB
100
AcDbEntity
  8
LAYER_1
100
AcDbVertex
100
AcDb2dVertex
 10
171.68
 20
52.5355
 30
0.0
 42
-0.0679
  0
VERTEX
  5
FF3
330
AB
100
AcDbEntity
  8
LAYER_1
100
AcDbVertex
100
AcDb2dVertex
 10
171.65
 20
52.7995
 30
0.0
 42
-0.0429
  0
VERTEX
  5
FF4
330
AB
100
AcDbEntity
  8
LAYER_1
100
AcDbVertex
100
AcDb2dVertex
 10
171.668
 20
53.0188
 30
0.0
 42
-0.1019
  0
VERTEX
  5
FF5
330
AB
100
AcDbEntity
  8
LAYER_1
100
AcDbVertex
100
AcDb2dVertex
 10
171.775
 20
53.28359999999999
 30
0.0
 42
-0.1655
  0
VERTEX
  5
FF6
330
AB
100
AcDbEntity
  8
LAYER_1
100
AcDbVertex
100
AcDb2dVertex
 10
172.05
 20
53.4795
 30
0.0
 42
-0.064
  0
VERTEX
  5
FF7
330
AB
100
AcDbEntity
  8
LAYER_1
100
AcDbVertex
100
AcDb2dVertex
 10
172.2739999999999
 20
53.52199999999999
 30
0.0
 42
-0.0191
  0
VERTEX
  5
FF8
330
AB
100
AcDbEntity
  8
LAYER_1
100
AcDbVertex
100
AcDb2dVertex
 10
172.3869999999999
 20
53.5261
 30
0.0
 42
-0.0429
  0
VERTEX
  5
FF9
330
AB
100
AcDbEntity
  8
LAYER_1
100
AcDbVertex
100
AcDb2dVertex
 10
172.615
 20
53.5066
 30
0.0
 42
-0.0698
  0
VERTEX
  5
FFA
330
AB
100
AcDbEntity
  8
LAYER_1
100
AcDbVertex
100
AcDb2dVertex
 10
172.793
 20
53.4468
 30
0.0
 42
-0.2051
  0
VERTEX
  5
FFB
330
AB
100
AcDbEntity
  8
LAYER_1
100
AcDbVertex
100
AcDb2dVertex
 10
173.0109999999999
 20
53.1768
 30
0.0
 42
-0.0162
  0
VERTEX
  5
FFC
330
AB
100
AcDbEntity
  8
LAYER_1
100
AcDbVertex
100
AcDb2dVertex
 10
173.057
 20
53.2682
 30
0.0
 42
-0.2081
  0
VERTEX
  5
FFD
330
AB
100
AcDbEntity
  8
LAYER_1
100
AcDbVertex
100
AcDb2dVertex
 10
173.3779999999999
 20
53.5067
 30
0.0
 42
-0.0737
  0
VERTEX
  5
FFE
330
AB
100
AcDbEntity
  8
LAYER_1
100
AcDbVertex
100
AcDb2dVertex
 10
173.692
 20
53.5437
 30
0.0
 42
-0.041
  0
VERTEX
  5
FFF
330
AB
100
AcDbEntity
  8
LAYER_1
100
AcDbVertex
100
AcDb2dVertex
 10
173.937
 20
53.5238
 30
0.0
 42
-0.0663
  0
VERTEX
  5
1000
330
AB
100
AcDbEntity
  8
LAYER_1
100
AcDbVertex
100
AcDb2dVertex
 10
174.154
 20
53.4555
 30
0.0
 42
-0.2051
  0
VERTEX
  5
1001
330
AB
100
AcDbEntity
  8
LAYER_1
100
AcDbVertex
100
AcDb2dVertex
 10
174.4429999999999
 20
53.1214
 30
0.0
 42
-0.0628
  0
VERTEX
  5
1002
330
AB
100
AcDbEntity
  8
LAYER_1
100
AcDbVertex
100
AcDb2dVertex
 10
174.4819999999999
 20
52.9119
 30
0.0
 42
-0.0185
  0
VERTEX
  5
1003
330
AB
100
AcDbEntity
  8
LAYER_1
100
AcDbVertex
100
AcDb2dVertex
 10
174.4859999999999
 20
52.8064
 30
0.0
 42
-0.0419
  0
VERTEX
  5
1004
330
AB
100
AcDbEntity
  8
LAYER_1
100
AcDbVertex
100
AcDb2dVertex
 10
174.467
 20
52.5741
 30
0.0
 42
-0.0961
  0
VERTEX
  5
1005
330
AB
100
AcDbEntity
  8
LAYER_1
100
AcDbVertex
100
AcDb2dVertex
 10
174.366
 20
52.3115
 30
0.0
 42
-0.164
  0
VERTEX
  5
1006
330
AB
100
AcDbEntity
  8
LAYER_1
100
AcDbVertex
100
AcDb2dVertex
 10
174.107
 20
52.1151
 30
0.0
 42
-0.0644
  0
VERTEX
  5
1007
330
AB
100
AcDbEntity
  8
LAYER_1
100
AcDbVertex
100
AcDb2dVertex
 10
173.885
 20
52.067
 30
0.0
 42
-0.0289
  0
VERTEX
  5
1008
330
AB
100
AcDbEntity
  8
LAYER_1
100
AcDbVertex
100
AcDb2dVertex
 10
173.597
 20
52.055
 30
0.0
  0
SEQEND
  5
1009
330
AB
100
AcDbEntity
  8
LAYER_1
  0
ENDBLK
  5
EC
330
A9
100
AcDbEntity
  8
0
100
AcDbBlockEnd
  0
BLOCK
  5
EE
330
ED
100
AcDbEntity
  8
LAYER_1
100
AcDbBlockBegin
  2
AIGNBL01030008
 70
     0
 10
0.0
 20
0.0
 30
0.0
  3
AIGNBL01030008
  1

  0
POLYLINE
  5
EF
330
ED
100
AcDbEntity
  8
LAYER_1
100
AcDb2dPolyline
 66
     1
 10
0.0
 20
0.0
 30
0.0
 70
     1
 40
0.35278
 41
0.35278
  0
VERTEX
  5
100A
330
EF
100
AcDbEntity
  8
LAYER_1
100
AcDbVertex
100
AcDb2dVertex
 10
171.6779999999999
 20
51.272
 30
0.0
  0
VERTEX
  5
100B
330
EF
100
AcDbEntity
  8
LAYER_1
100
AcDbVertex
100
AcDb2dVertex
 10
174.458
 20
51.272
 30
0.0
  0
VERTEX
  5
100C
330
EF
100
AcDbEntity
  8
LAYER_1
100
AcDbVertex
100
AcDb2dVertex
 10
174.458
 20
51.03909999999999
 30
0.0
  0
VERTEX
  5
100D
330
EF
100
AcDbEntity
  8
LAYER_1
100
AcDbVertex
100
AcDb2dVertex
 10
171.886
 20
51.03909999999999
 30
0.0
  0
VERTEX
  5
100E
330
EF
100
AcDbEntity
  8
LAYER_1
100
AcDbVertex
100
AcDb2dVertex
 10
171.886
 20
50.52399999999999
 30
0.0
  0
VERTEX
  5
100F
330
EF
100
AcDbEntity
  8
LAYER_1
100
AcDbVertex
100
AcDb2dVertex
 10
171.6779999999999
 20
50.52399999999999
 30
0.0
  0
SEQEND
  5
1010
330
EF
100
AcDbEntity
  8
LAYER_1
  0
ENDBLK
  5
F7
330
ED
100
AcDbEntity
  8
0
100
AcDbBlockEnd
  0
BLOCK
  5
F9
330
F8
100
AcDbEntity
  8
LAYER_1
100
AcDbBlockBegin
  2
AIGNBL0103000C
 70
     0
 10
0.0
 20
0.0
 30
0.0
  3
AIGNBL0103000C
  1

  0
POLYLINE
  5
FA
330
F8
100
AcDbEntity
  8
LAYER_1
100
AcDb2dPolyline
 66
     1
 10
0.0
 20
0.0
 30
0.0
 70
     1
 40
0.35278
 41
0.35278
  0
VERTEX
  5
1011
330
FA
100
AcDbEntity
  8
LAYER_1
100
AcDbVertex
100
AcDb2dVertex
 10
163.716
 20
145.139
 30
0.0
 42
0.0484
  0
VERTEX
  5
1012
330
FA
100
AcDbEntity
  8
LAYER_1
100
AcDbVertex
100
AcDb2dVertex
 10
163.795
 20
144.964
 30
0.0
 42
0.1836
  0
VERTEX
  5
1013
330
FA
100
AcDbEntity
  8
LAYER_1
100
AcDbVertex
100
AcDb2dVertex
 10
164.0359999999999
 20
144.7789999999999
 30
0.0
 42
0.0327
  0
VERTEX
  5
1014
330
FA
100
AcDbEntity
  8
LAYER_1
100
AcDbVertex
100
AcDb2dVertex
 10
164.132
 20
144.7549999999999
 30
0.0
 42
0.025
  0
VERTEX
  5
1015
330
FA
100
AcDbEntity
  8
LAYER_1
100
AcDbVertex
100
AcDb2dVertex
 10
164.2649999999999
 20
144.738
 30
0.0
 42
0.0232
  0
VERTEX
  5
1016
330
FA
100
AcDbEntity
  8
LAYER_1
100
AcDbVertex
100
AcDb2dVertex
 10
164.5729999999999
 20
144.73
 30
0.0
  0
VERTEX
  5
1017
330
FA
100
AcDbEntity
  8
LAYER_1
100
AcDbVertex
100
AcDb2dVertex
 10
164.5729999999999
 20
145.972
 30
0.0
  0
VERTEX
  5
1018
330
FA
100
AcDbEntity
  8
LAYER_1
100
AcDbVertex
100
AcDb2dVertex
 10
164.7809999999999
 20
145.972
 30
0.0
  0
VERTEX
  5
1019
330
FA
100
AcDbEntity
  8
LAYER_1
100
AcDbVertex
100
AcDb2dVertex
 10
164.7809999999999
 20
144.501
 30
0.0
 42
-0.0177
  0
VERTEX
  5
101A
330
FA
100
AcDbEntity
  8
LAYER_1
100
AcDbVertex
100
AcDb2dVertex
 10
164.294
 20
144.5129999999999
 30
0.0
 42
-0.0415
  0
VERTEX
  5
101B
330
FA
100
AcDbEntity
  8
LAYER_1
100
AcDbVertex
100
AcDb2dVertex
 10
163.9959999999999
 20
144.5589999999999
 30
0.0
 42
-0.067
  0
VERTEX
  5
101C
330
FA
100
AcDbEntity
  8
LAYER_1
100
AcDbVertex
100
AcDb2dVertex
 10
163.8149999999999
 20
144.6329999999999
 30
0.0
 42
-0.1252
  0
VERTEX
  5
101D
330
FA
100
AcDbEntity
  8
LAYER_1
100
AcDbVertex
100
AcDb2dVertex
 10
163.6359999999999
 20
144.815
 30
0.0
 42
-0.03
  0
VERTEX
  5
101E
330
FA
100
AcDbEntity
  8
LAYER_1
100
AcDbVertex
100
AcDb2dVertex
 10
163.583
 20
144.9149999999999
 30
0.0
 42
-0.0229
  0
VERTEX
  5
101F
330
FA
100
AcDbEntity
  8
LAYER_1
100
AcDbVertex
100
AcDb2dVertex
 10
163.5149999999999
 20
145.086
 30
0.0
  0
VERTEX
  5
1020
330
FA
100
AcDbEntity
  8
LAYER_1
100
AcDbVertex
100
AcDb2dVertex
 10
163.416
 20
145.3619999999999
 30
0.0
 42
0.0144
  0
VERTEX
  5
1021
330
FA
100
AcDbEntity
  8
LAYER_1
100
AcDbVertex
100
AcDb2dVertex
 10
163.371
 20
145.477
 30
0.0
 42
0.0776
  0
VERTEX
  5
1022
330
FA
100
AcDbEntity
  8
LAYER_1
100
AcDbVertex
100
AcDb2dVertex
 10
163.287
 20
145.609
 30
0.0
 42
0.1412
  0
VERTEX
  5
1023
330
FA
100
AcDbEntity
  8
LAYER_1
100
AcDbVertex
100
AcDb2dVertex
 10
163.1
 20
145.7189999999999
 30
0.0
 42
0.0326
  0
VERTEX
  5
1024
330
FA
100
AcDbEntity
  8
LAYER_1
100
AcDbVertex
100
AcDb2dVertex
 10
163.0039999999999
 20
145.741
 30
0.0
 42
0.0424
  0
VERTEX
  5
1025
330
FA
100
AcDbEntity
  8
LAYER_1
100
AcDbVertex
100
AcDb2dVertex
 10
162.781
 20
145.757
 30
0.0
 42
0.0362
  0
VERTEX
  5
1026
330
FA
100
AcDbEntity
  8
LAYER_1
100
AcDbVertex
100
AcDb2dVertex
 10
162.536
 20
145.739
 30
0.0
 42
0.0755
  0
VERTEX
  5
1027
330
FA
100
AcDbEntity
  8
LAYER_1
100
AcDbVertex
100
AcDb2dVertex
 10
162.372
 20
145.685
 30
0.0
 42
0.211
  0
VERTEX
  5
1028
330
FA
100
AcDbEntity
  8
LAYER_1
100
AcDbVertex
100
AcDb2dVertex
 10
162.2069999999999
 20
145.47
 30
0.0
 42
0.0752
  0
VERTEX
  5
1029
330
FA
100
AcDbEntity
  8
LAYER_1
100
AcDbVertex
100
AcDb2dVertex
 10
162.181
 20
145.2519999999999
 30
0.0
 42
0.0521
  0
VERTEX
  5
102A
330
FA
100
AcDbEntity
  8
LAYER_1
100
AcDbVertex
100
AcDb2dVertex
 10
162.1999999999999
 20
145.067
 30
0.0
 42
0.1373
  0
VERTEX
  5
102B
330
FA
100
AcDbEntity
  8
LAYER_1
100
AcDbVertex
100
AcDb2dVertex
 10
162.307
 20
144.87
 30
0.0
 42
0.0999
  0
VERTEX
  5
102C
330
FA
100
AcDbEntity
  8
LAYER_1
100
AcDbVertex
100
AcDb2dVertex
 10
162.426
 20
144.7959999999999
 30
0.0
 42
0.0744
  0
VERTEX
  5
102D
330
FA
100
AcDbEntity
  8
LAYER_1
100
AcDbVertex
100
AcDb2dVertex
 10
162.6079999999999
 20
144.7569999999999
 30
0.0
 42
0.0299
  0
VERTEX
  5
102E
330
FA
100
AcDbEntity
  8
LAYER_1
100
AcDbVertex
100
AcDb2dVertex
 10
162.873
 20
144.751
 30
0.0
  0
VERTEX
  5
102F
330
FA
100
AcDbEntity
  8
LAYER_1
100
AcDbVertex
100
AcDb2dVertex
 10
162.873
 20
144.519
 30
0.0
 42
-0.008
  0
VERTEX
  5
1030
330
FA
100
AcDbEntity
  8
LAYER_1
100
AcDbVertex
100
AcDb2dVertex
 10
162.6699999999999
 20
144.525
 30
0.0
 42
-0.0476
  0
VERTEX
  5
1031
330
FA
100
AcDbEntity
  8
LAYER_1
100
AcDbVertex
100
AcDb2dVertex
 10
162.4109999999999
 20
144.564
 30
0.0
 42
-0.1073
  0
VERTEX
  5
1032
330
FA
100
AcDbEntity
  8
LAYER_1
100
AcDbVertex
100
AcDb2dVertex
 10
162.173
 20
144.6879999999999
 30
0.0
 42
-0.1203
  0
VERTEX
  5
1033
330
FA
100
AcDbEntity
  8
LAYER_1
100
AcDbVertex
100
AcDb2dVertex
 10
162.0339999999999
 20
144.889
 30
0.0
 42
-0.0653
  0
VERTEX
  5
1034
330
FA
100
AcDbEntity
  8
LAYER_1
100
AcDbVertex
100
AcDb2dVertex
 10
161.984
 20
145.087
 30
0.0
 42
-0.0336
  0
VERTEX
  5
1035
330
FA
100
AcDbEntity
  8
LAYER_1
100
AcDbVertex
100
AcDb2dVertex
 10
161.9729999999999
 20
145.2589999999999
 30
0.0
 42
-0.0432
  0
VERTEX
  5
1036
330
FA
100
AcDbEntity
  8
LAYER_1
100
AcDbVertex
100
AcDb2dVertex
 10
161.992
 20
145.4779999999999
 30
0.0
 42
-0.1053
  0
VERTEX
  5
1037
330
FA
100
AcDbEntity
  8
LAYER_1
100
AcDbVertex
100
AcDb2dVertex
 10
162.101
 20
145.742
 30
0.0
 42
-0.1658
  0
VERTEX
  5
1038
330
FA
100
AcDbEntity
  8
LAYER_1
100
AcDbVertex
100
AcDb2dVertex
 10
162.3809999999999
 20
145.934
 30
0.0
 42
-0.0598
  0
VERTEX
  5
1039
330
FA
100
AcDbEntity
  8
LAYER_1
100
AcDbVertex
100
AcDb2dVertex
 10
162.612
 20
145.9769999999999
 30
0.0
 42
-0.0204
  0
VERTEX
  5
103A
330
FA
100
AcDbEntity
  8
LAYER_1
100
AcDbVertex
100
AcDb2dVertex
 10
162.756
 20
145.982
 30
0.0
 42
-0.0339
  0
VERTEX
  5
103B
330
FA
100
AcDbEntity
  8
LAYER_1
100
AcDbVertex
100
AcDb2dVertex
 10
163.0409999999999
 20
145.9629999999999
 30
0.0
 42
-0.0586
  0
VERTEX
  5
103C
330
FA
100
AcDbEntity
  8
LAYER_1
100
AcDbVertex
100
AcDb2dVertex
 10
163.247
 20
145.906
 30
0.0
 42
-0.1568
  0
VERTEX
  5
103D
330
FA
100
AcDbEntity
  8
LAYER_1
100
AcDbVertex
100
AcDb2dVertex
 10
163.506
 20
145.682
 30
0.0
 42
-0.0611
  0
VERTEX
  5
103E
330
FA
100
AcDbEntity
  8
LAYER_1
100
AcDbVertex
100
AcDb2dVertex
 10
163.6029999999999
 20
145.467
 30
0.0
  0
SEQEND
  5
103F
330
FA
100
AcDbEntity
  8
LAYER_1
  0
ENDBLK
  5
12A
330
F8
100
AcDbEntity
  8
0
100
AcDbBlockEnd
  0
BLOCK
  5
12C
330
12B
100
AcDbEntity
  8
LAYER_1
100
AcDbBlockBegin
  2
AIGNBL0103000D
 70
     0
 10
0.0
 20
0.0
 30
0.0
  3
AIGNBL0103000D
  1

  0
POLYLINE
  5
12D
330
12B
100
AcDbEntity
  8
LAYER_1
100
AcDb2dPolyline
 66
     1
 10
0.0
 20
0.0
 30
0.0
 70
     1
 40
0.35278
 41
0.35278
  0
VERTEX
  5
1040
330
12D
100
AcDbEntity
  8
LAYER_1
100
AcDbVertex
100
AcDb2dVertex
 10
162.001
 20
144.1589999999999
 30
0.0
  0
VERTEX
  5
1041
330
12D
100
AcDbEntity
  8
LAYER_1
100
AcDbVertex
100
AcDb2dVertex
 10
162.21
 20
144.1589999999999
 30
0.0
  0
VERTEX
  5
1042
330
12D
100
AcDbEntity
  8
LAYER_1
100
AcDbVertex
100
AcDb2dVertex
 10
162.21
 20
143.0329999999999
 30
0.0
  0
VERTEX
  5
1043
330
12D
100
AcDbEntity
  8
LAYER_1
100
AcDbVertex
100
AcDb2dVertex
 10
163.1409999999999
 20
143.0089999999999
 30
0.0
 42
-0.0187
  0
VERTEX
  5
1044
330
12D
100
AcDbEntity
  8
LAYER_1
100
AcDbVertex
100
AcDb2dVertex
 10
163.0819999999999
 20
143.078
 30
0.0
 42
-0.1454
  0
VERTEX
  5
1045
330
12D
100
AcDbEntity
  8
LAYER_1
100
AcDbVertex
100
AcDb2dVertex
 10
162.9479999999999
 20
143.4399999999999
 30
0.0
 42
-0.0234
  0
VERTEX
  5
1046
330
12D
100
AcDbEntity
  8
LAYER_1
100
AcDbVertex
100
AcDb2dVertex
 10
162.9429999999999
 20
143.5339999999999
 30
0.0
 42
-0.0468
  0
VERTEX
  5
1047
330
12D
100
AcDbEntity
  8
LAYER_1
100
AcDbVertex
100
AcDb2dVertex
 10
162.962
 20
143.733
 30
0.0
 42
-0.112
  0
VERTEX
  5
1048
330
12D
100
AcDbEntity
  8
LAYER_1
100
AcDbVertex
100
AcDb2dVertex
 10
163.0679999999999
 20
143.972
 30
0.0
 42
-0.1299
  0
VERTEX
  5
1049
330
12D
100
AcDbEntity
  8
LAYER_1
100
AcDbVertex
100
AcDb2dVertex
 10
163.2779999999999
 20
144.1259999999999
 30
0.0
 42
-0.0636
  0
VERTEX
  5
104A
330
12D
100
AcDbEntity
  8
LAYER_1
100
AcDbVertex
100
AcDb2dVertex
 10
163.497
 20
144.187
 30
0.0
 42
-0.0219
  0
VERTEX
  5
104B
330
12D
100
AcDbEntity
  8
LAYER_1
100
AcDbVertex
100
AcDb2dVertex
 10
163.6409999999999
 20
144.204
 30
0.0
 42
-0.0194
  0
VERTEX
  5
104C
330
12D
100
AcDbEntity
  8
LAYER_1
100
AcDbVertex
100
AcDb2dVertex
 10
163.85
 20
144.212
 30
0.0
 42
-0.0282
  0
VERTEX
  5
104D
330
12D
100
AcDbEntity
  8
LAYER_1
100
AcDbVertex
100
AcDb2dVertex
 10
164.188
 20
144.1929999999999
 30
0.0
 42
-0.0532
  0
VERTEX
  5
104E
330
12D
100
AcDbEntity
  8
LAYER_1
100
AcDbVertex
100
AcDb2dVertex
 10
164.434
 20
144.1349999999999
 30
0.0
 42
-0.113
  0
VERTEX
  5
104F
330
12D
100
AcDbEntity
  8
LAYER_1
100
AcDbVertex
100
AcDb2dVertex
 10
164.657
 20
143.99
 30
0.0
 42
-0.1229
  0
VERTEX
  5
1050
330
12D
100
AcDbEntity
  8
LAYER_1
100
AcDbVertex
100
AcDb2dVertex
 10
164.7759999999999
 20
143.7659999999999
 30
0.0
 42
-0.0731
  0
VERTEX
  5
1051
330
12D
100
AcDbEntity
  8
LAYER_1
100
AcDbVertex
100
AcDb2dVertex
 10
164.81
 20
143.4809999999999
 30
0.0
 42
-0.0438
  0
VERTEX
  5
1052
330
12D
100
AcDbEntity
  8
LAYER_1
100
AcDbVertex
100
AcDb2dVertex
 10
164.789
 20
143.2429999999999
 30
0.0
 42
-0.1026
  0
VERTEX
  5
1053
330
12D
100
AcDbEntity
  8
LAYER_1
100
AcDbVertex
100
AcDb2dVertex
 10
164.683
 20
142.985
 30
0.0
 42
-0.1267
  0
VERTEX
  5
1054
330
12D
100
AcDbEntity
  8
LAYER_1
100
AcDbVertex
100
AcDb2dVertex
 10
164.4899999999999
 20
142.8279999999999
 30
0.0
 42
-0.0682
  0
VERTEX
  5
1055
330
12D
100
AcDbEntity
  8
LAYER_1
100
AcDbVertex
100
AcDb2dVertex
 10
164.297
 20
142.7669999999999
 30
0.0
 42
-0.0496
  0
VERTEX
  5
1056
330
12D
100
AcDbEntity
  8
LAYER_1
100
AcDbVertex
100
AcDb2dVertex
 10
164.0159999999999
 20
142.7439999999999
 30
0.0
  0
VERTEX
  5
1057
330
12D
100
AcDbEntity
  8
LAYER_1
100
AcDbVertex
100
AcDb2dVertex
 10
164.0159999999999
 20
142.9729999999999
 30
0.0
 42
0.0386
  0
VERTEX
  5
1058
330
12D
100
AcDbEntity
  8
LAYER_1
100
AcDbVertex
100
AcDb2dVertex
 10
164.2509999999999
 20
142.982
 30
0.0
 42
0.0793
  0
VERTEX
  5
1059
330
12D
100
AcDbEntity
  8
LAYER_1
100
AcDbVertex
100
AcDb2dVertex
 10
164.417
 20
143.032
 30
0.0
 42
0.2176
  0
VERTEX
  5
105A
330
12D
100
AcDbEntity
  8
LAYER_1
100
AcDbVertex
100
AcDb2dVertex
 10
164.5749999999999
 20
143.2369999999999
 30
0.0
 42
0.0359
  0
VERTEX
  5
105B
330
12D
100
AcDbEntity
  8
LAYER_1
100
AcDbVertex
100
AcDb2dVertex
 10
164.5929999999999
 20
143.3239999999999
 30
0.0
 42
0.0338
  0
VERTEX
  5
105C
330
12D
100
AcDbEntity
  8
LAYER_1
100
AcDbVertex
100
AcDb2dVertex
 10
164.6009999999999
 20
143.4739999999999
 30
0.0
 42
0.0472
  0
VERTEX
  5
105D
330
12D
100
AcDbEntity
  8
LAYER_1
100
AcDbVertex
100
AcDb2dVertex
 10
164.5839999999999
 20
143.6629999999999
 30
0.0
 42
0.1345
  0
VERTEX
  5
105E
330
12D
100
AcDbEntity
  8
LAYER_1
100
AcDbVertex
100
AcDb2dVertex
 10
164.4899999999999
 20
143.847
 30
0.0
 42
0.099
  0
VERTEX
  5
105F
330
12D
100
AcDbEntity
  8
LAYER_1
100
AcDbVertex
100
AcDb2dVertex
 10
164.3779999999999
 20
143.9199999999999
 30
0.0
 42
0.0384
  0
VERTEX
  5
1060
330
12D
100
AcDbEntity
  8
LAYER_1
100
AcDbVertex
100
AcDb2dVertex
 10
164.2949999999999
 20
143.947
 30
0.0
 42
0.0293
  0
VERTEX
  5
1061
330
12D
100
AcDbEntity
  8
LAYER_1
100
AcDbVertex
100
AcDb2dVertex
 10
164.189
 20
143.967
 30
0.0
 42
0.0357
  0
VERTEX
  5
1062
330
12D
100
AcDbEntity
  8
LAYER_1
100
AcDbVertex
100
AcDb2dVertex
 10
163.8959999999999
 20
143.982
 30
0.0
 42
0.0106
  0
VERTEX
  5
1063
330
12D
100
AcDbEntity
  8
LAYER_1
100
AcDbVertex
100
AcDb2dVertex
 10
163.717
 20
143.9779999999999
 30
0.0
 42
0.0218
  0
VERTEX
  5
1064
330
12D
100
AcDbEntity
  8
LAYER_1
100
AcDbVertex
100
AcDb2dVertex
 10
163.556
 20
143.965
 30
0.0
 42
0.0641
  0
VERTEX
  5
1065
330
12D
100
AcDbEntity
  8
LAYER_1
100
AcDbVertex
100
AcDb2dVertex
 10
163.358
 20
143.9139999999999
 30
0.0
 42
0.2588
  0
VERTEX
  5
1066
330
12D
100
AcDbEntity
  8
LAYER_1
100
AcDbVertex
100
AcDb2dVertex
 10
163.1629999999999
 20
143.657
 30
0.0
 42
0.048
  0
VERTEX
  5
1067
330
12D
100
AcDbEntity
  8
LAYER_1
100
AcDbVertex
100
AcDb2dVertex
 10
163.151
 20
143.5089999999999
 30
0.0
 42
0.0471
  0
VERTEX
  5
1068
330
12D
100
AcDbEntity
  8
LAYER_1
100
AcDbVertex
100
AcDb2dVertex
 10
163.1709999999999
 20
143.301
 30
0.0
 42
0.0775
  0
VERTEX
  5
1069
330
12D
100
AcDbEntity
  8
LAYER_1
100
AcDbVertex
100
AcDb2dVertex
 10
163.2279999999999
 20
143.147
 30
0.0
 42
0.2112
  0
VERTEX
  5
106A
330
12D
100
AcDbEntity
  8
LAYER_1
100
AcDbVertex
100
AcDb2dVertex
 10
163.445
 20
142.994
 30
0.0
 42
0.0249
  0
VERTEX
  5
106B
330
12D
100
AcDbEntity
  8
LAYER_1
100
AcDbVertex
100
AcDb2dVertex
 10
163.526
 20
142.98
 30
0.0
  0
VERTEX
  5
106C
330
12D
100
AcDbEntity
  8
LAYER_1
100
AcDbVertex
100
AcDb2dVertex
 10
163.526
 20
142.7789999999999
 30
0.0
  0
VERTEX
  5
106D
330
12D
100
AcDbEntity
  8
LAYER_1
100
AcDbVertex
100
AcDb2dVertex
 10
162.001
 20
142.807
 30
0.0
  0
SEQEND
  5
106E
330
12D
100
AcDbEntity
  8
LAYER_1
  0
ENDBLK
  5
15D
330
12B
100
AcDbEntity
  8
0
100
AcDbBlockEnd
  0
BLOCK
  5
15F
330
15E
100
AcDbEntity
  8
LAYER_1
100
AcDbBlockBegin
  2
AIGNBL0103000E
 70
     0
 10
0.0
 20
0.0
 30
0.0
  3
AIGNBL0103000E
  1

  0
POLYLINE
  5
160
330
15E
100
AcDbEntity
  8
LAYER_1
100
AcDb2dPolyline
 66
     1
 10
0.0
 20
0.0
 30
0.0
 70
     1
 40
0.35278
 41
0.35278
  0
VERTEX
  5
106F
330
160
100
AcDbEntity
  8
LAYER_1
100
AcDbVertex
100
AcDb2dVertex
 10
163.9199999999999
 20
141.195
 30
0.0
 42
0.0105
  0
VERTEX
  5
1070
330
160
100
AcDbEntity
  8
LAYER_1
100
AcDbVertex
100
AcDb2dVertex
 10
164.1049999999999
 20
141.1929999999999
 30
0.0
 42
0.0551
  0
VERTEX
  5
1071
330
160
100
AcDbEntity
  8
LAYER_1
100
AcDbVertex
100
AcDb2dVertex
 10
164.3309999999999
 20
141.22
 30
0.0
 42
0.1451
  0
VERTEX
  5
1072
330
160
100
AcDbEntity
  8
LAYER_1
100
AcDbVertex
100
AcDb2dVertex
 10
164.503
 20
141.3239999999999
 30
0.0
 42
0.1003
  0
VERTEX
  5
1073
330
160
100
AcDbEntity
  8
LAYER_1
100
AcDbVertex
100
AcDb2dVertex
 10
164.5679999999999
 20
141.447
 30
0.0
 42
0.0348
  0
VERTEX
  5
1074
330
160
100
AcDbEntity
  8
LAYER_1
100
AcDbVertex
100
AcDb2dVertex
 10
164.588
 20
141.5279999999999
 30
0.0
 42
0.0445
  0
VERTEX
  5
1075
330
160
100
AcDbEntity
  8
LAYER_1
100
AcDbVertex
100
AcDb2dVertex
 10
164.6009999999999
 20
141.714
 30
0.0
 42
0.0485
  0
VERTEX
  5
1076
330
160
100
AcDbEntity
  8
LAYER_1
100
AcDbVertex
100
AcDb2dVertex
 10
164.583
 20
141.9
 30
0.0
 42
0.1377
  0
VERTEX
  5
1077
330
160
100
AcDbEntity
  8
LAYER_1
100
AcDbVertex
100
AcDb2dVertex
 10
164.48
 20
142.0949999999999
 30
0.0
 42
0.1006
  0
VERTEX
  5
1078
330
160
100
AcDbEntity
  8
LAYER_1
100
AcDbVertex
100
AcDb2dVertex
 10
164.3559999999999
 20
142.1739999999999
 30
0.0
 42
0.0713
  0
VERTEX
  5
1079
330
160
100
AcDbEntity
  8
LAYER_1
100
AcDbVertex
100
AcDb2dVertex
 10
164.1699999999999
 20
142.217
 30
0.0
 42
0.0288
  0
VERTEX
  5
107A
330
160
100
AcDbEntity
  8
LAYER_1
100
AcDbVertex
100
AcDb2dVertex
 10
164.009
 20
142.225
 30
0.0
 42
0.0412
  0
VERTEX
  5
107B
330
160
100
AcDbEntity
  8
LAYER_1
100
AcDbVertex
100
AcDb2dVertex
 10
163.7889999999999
 20
142.208
 30
0.0
 42
0.0778
  0
VERTEX
  5
107C
330
160
100
AcDbEntity
  8
LAYER_1
100
AcDbVertex
100
AcDb2dVertex
 10
163.6289999999999
 20
142.152
 30
0.0
 42
0.2056
  0
VERTEX
  5
107D
330
160
100
AcDbEntity
  8
LAYER_1
100
AcDbVertex
100
AcDb2dVertex
 10
163.472
 20
141.942
 30
0.0
 42
0.0342
  0
VERTEX
  5
107E
330
160
100
AcDbEntity
  8
LAYER_1
100
AcDbVertex
100
AcDb2dVertex
 10
163.4529999999999
 20
141.8539999999999
 30
0.0
 42
0.039
  0
VERTEX
  5
107F
330
160
100
AcDbEntity
  8
LAYER_1
100
AcDbVertex
100
AcDb2dVertex
 10
163.441
 20
141.622
 30
0.0
  0
VERTEX
  5
1080
330
160
100
AcDbEntity
  8
LAYER_1
100
AcDbVertex
100
AcDb2dVertex
 10
163.441
 20
141.446
 30
0.0
  0
VERTEX
  5
1081
330
160
100
AcDbEntity
  8
LAYER_1
100
AcDbVertex
100
AcDb2dVertex
 10
163.233
 20
141.446
 30
0.0
  0
VERTEX
  5
1082
330
160
100
AcDbEntity
  8
LAYER_1
100
AcDbVertex
100
AcDb2dVertex
 10
163.233
 20
141.6539999999999
 30
0.0
 42
0.0118
  0
VERTEX
  5
1083
330
160
100
AcDbEntity
  8
LAYER_1
100
AcDbVertex
100
AcDb2dVertex
 10
163.2289999999999
 20
141.8079999999999
 30
0.0
 42
0.0636
  0
VERTEX
  5
1084
330
160
100
AcDbEntity
  8
LAYER_1
100
AcDbVertex
100
AcDb2dVertex
 10
163.196
 20
141.999
 30
0.0
 42
0.2265
  0
VERTEX
  5
1085
330
160
100
AcDbEntity
  8
LAYER_1
100
AcDbVertex
100
AcDb2dVertex
 10
163.0279999999999
 20
142.1669999999999
 30
0.0
 42
0.0408
  0
VERTEX
  5
1086
330
160
100
AcDbEntity
  8
LAYER_1
100
AcDbVertex
100
AcDb2dVertex
 10
162.9459999999999
 20
142.1889999999999
 30
0.0
 42
0.0303
  0
VERTEX
  5
1087
330
160
100
AcDbEntity
  8
LAYER_1
100
AcDbVertex
100
AcDb2dVertex
 10
162.837
 20
142.204
 30
0.0
 42
0.0182
  0
VERTEX
  5
1088
330
160
100
AcDbEntity
  8
LAYER_1
100
AcDbVertex
100
AcDb2dVertex
 10
162.7139999999999
 20
142.208
 30
0.0
 42
0.0404
  0
VERTEX
  5
1089
330
160
100
AcDbEntity
  8
LAYER_1
100
AcDbVertex
100
AcDb2dVertex
 10
162.4979999999999
 20
142.191
 30
0.0
 42
0.0859
  0
VERTEX
  5
108A
330
160
100
AcDbEntity
  8
LAYER_1
100
AcDbVertex
100
AcDb2dVertex
 10
162.3529999999999
 20
142.1359999999999
 30
0.0
 42
0.1614
  0
VERTEX
  5
108B
330
160
100
AcDbEntity
  8
LAYER_1
100
AcDbVertex
100
AcDb2dVertex
 10
162.225
 20
141.982
 30
0.0
 42
0.0811
  0
VERTEX
  5
108C
330
160
100
AcDbEntity
  8
LAYER_1
100
AcDbVertex
100
AcDb2dVertex
 10
162.185
 20
141.805
 30
0.0
 42
0.0219
  0
VERTEX
  5
108D
330
160
100
AcDbEntity
  8
LAYER_1
100
AcDbVertex
100
AcDb2dVertex
 10
162.181
 20
141.71
 30
0.0
 42
0.0544
  0
VERTEX
  5
108E
330
160
100
AcDbEntity
  8
LAYER_1
100
AcDbVertex
100
AcDb2dVertex
 10
162.202
 20
141.521
 30
0.0
 42
0.1285
  0
VERTEX
  5
108F
330
160
100
AcDbEntity
  8
LAYER_1
100
AcDbVertex
100
AcDb2dVertex
 10
162.3
 20
141.3379999999999
 30
0.0
 42
0.0998
  0
VERTEX
  5
1090
330
160
100
AcDbEntity
  8
LAYER_1
100
AcDbVertex
100
AcDb2dVertex
 10
162.412
 20
141.264
 30
0.0
 42
0.0411
  0
VERTEX
  5
1091
330
160
100
AcDbEntity
  8
LAYER_1
100
AcDbVertex
100
AcDb2dVertex
 10
162.491
 20
141.239
 30
0.0
 42
0.0326
  0
VERTEX
  5
1092
330
160
100
AcDbEntity
  8
LAYER_1
100
AcDbVertex
100
AcDb2dVertex
 10
162.591
 20
141.2229999999999
 30
0.0
 42
0.0299
  0
VERTEX
  5
1093
330
160
100
AcDbEntity
  8
LAYER_1
100
AcDbVertex
100
AcDb2dVertex
 10
162.795
 20
141.216
 30
0.0
  0
VERTEX
  5
1094
330
160
100
AcDbEntity
  8
LAYER_1
100
AcDbVertex
100
AcDb2dVertex
 10
162.795
 20
140.9869999999999
 30
0.0
 42
-0.035
  0
VERTEX
  5
1095
330
160
100
AcDbEntity
  8
LAYER_1
100
AcDbVertex
100
AcDb2dVertex
 10
162.525
 20
141.006
 30
0.0
 42
-0.0929
  0
VERTEX
  5
1096
330
160
100
AcDbEntity
  8
LAYER_1
100
AcDbVertex
100
AcDb2dVertex
 10
162.243
 20
141.1049999999999
 30
0.0
 42
-0.1994
  0
VERTEX
  5
1097
330
160
100
AcDbEntity
  8
LAYER_1
100
AcDbVertex
100
AcDb2dVertex
 10
162.0039999999999
 20
141.446
 30
0.0
 42
-0.0679
  0
VERTEX
  5
1098
330
160
100
AcDbEntity
  8
LAYER_1
100
AcDbVertex
100
AcDb2dVertex
 10
161.9729999999999
 20
141.71
 30
0.0
 42
-0.0429
  0
VERTEX
  5
1099
330
160
100
AcDbEntity
  8
LAYER_1
100
AcDbVertex
100
AcDb2dVertex
 10
161.992
 20
141.9299999999999
 30
0.0
 42
-0.1019
  0
VERTEX
  5
109A
330
160
100
AcDbEntity
  8
LAYER_1
100
AcDbVertex
100
AcDb2dVertex
 10
162.0989999999999
 20
142.195
 30
0.0
 42
-0.1618
  0
VERTEX
  5
109B
330
160
100
AcDbEntity
  8
LAYER_1
100
AcDbVertex
100
AcDb2dVertex
 10
162.366
 20
142.388
 30
0.0
 42
-0.063
  0
VERTEX
  5
109C
330
160
100
AcDbEntity
  8
LAYER_1
100
AcDbVertex
100
AcDb2dVertex
 10
162.579
 20
142.431
 30
0.0
 42
-0.0228
  0
VERTEX
  5
109D
330
160
100
AcDbEntity
  8
LAYER_1
100
AcDbVertex
100
AcDb2dVertex
 10
162.71
 20
142.437
 30
0.0
 42
-0.0429
  0
VERTEX
  5
109E
330
160
100
AcDbEntity
  8
LAYER_1
100
AcDbVertex
100
AcDb2dVertex
 10
162.9389999999999
 20
142.4169999999999
 30
0.0
 42
-0.0699
  0
VERTEX
  5
109F
330
160
100
AcDbEntity
  8
LAYER_1
100
AcDbVertex
100
AcDb2dVertex
 10
163.116
 20
142.358
 30
0.0
 42
-0.2051
  0
VERTEX
  5
10A0
330
160
100
AcDbEntity
  8
LAYER_1
100
AcDbVertex
100
AcDb2dVertex
 10
163.335
 20
142.0879999999999
 30
0.0
 42
-0.0159
  0
VERTEX
  5
10A1
330
160
100
AcDbEntity
  8
LAYER_1
100
AcDbVertex
100
AcDb2dVertex
 10
163.3809999999999
 20
142.179
 30
0.0
 42
-0.2081
  0
VERTEX
  5
10A2
330
160
100
AcDbEntity
  8
LAYER_1
100
AcDbVertex
100
AcDb2dVertex
 10
163.7019999999999
 20
142.4179999999999
 30
0.0
 42
-0.0738
  0
VERTEX
  5
10A3
330
160
100
AcDbEntity
  8
LAYER_1
100
AcDbVertex
100
AcDb2dVertex
 10
164.0159999999999
 20
142.455
 30
0.0
 42
-0.0408
  0
VERTEX
  5
10A4
330
160
100
AcDbEntity
  8
LAYER_1
100
AcDbVertex
100
AcDb2dVertex
 10
164.2599999999999
 20
142.435
 30
0.0
 42
-0.0663
  0
VERTEX
  5
10A5
330
160
100
AcDbEntity
  8
LAYER_1
100
AcDbVertex
100
AcDb2dVertex
 10
164.4779999999999
 20
142.366
 30
0.0
 42
-0.205
  0
VERTEX
  5
10A6
330
160
100
AcDbEntity
  8
LAYER_1
100
AcDbVertex
100
AcDb2dVertex
 10
164.7669999999999
 20
142.032
 30
0.0
 42
-0.0628
  0
VERTEX
  5
10A7
330
160
100
AcDbEntity
  8
LAYER_1
100
AcDbVertex
100
AcDb2dVertex
 10
164.8059999999999
 20
141.8229999999999
 30
0.0
 42
-0.0185
  0
VERTEX
  5
10A8
330
160
100
AcDbEntity
  8
LAYER_1
100
AcDbVertex
100
AcDb2dVertex
 10
164.81
 20
141.717
 30
0.0
 42
-0.0419
  0
VERTEX
  5
10A9
330
160
100
AcDbEntity
  8
LAYER_1
100
AcDbVertex
100
AcDb2dVertex
 10
164.7899999999999
 20
141.485
 30
0.0
 42
-0.0962
  0
VERTEX
  5
10AA
330
160
100
AcDbEntity
  8
LAYER_1
100
AcDbVertex
100
AcDb2dVertex
 10
164.689
 20
141.222
 30
0.0
 42
-0.164
  0
VERTEX
  5
10AB
330
160
100
AcDbEntity
  8
LAYER_1
100
AcDbVertex
100
AcDb2dVertex
 10
164.43
 20
141.026
 30
0.0
 42
-0.0643
  0
VERTEX
  5
10AC
330
160
100
AcDbEntity
  8
LAYER_1
100
AcDbVertex
100
AcDb2dVertex
 10
164.2079999999999
 20
140.9779999999999
 30
0.0
 42
-0.029
  0
VERTEX
  5
10AD
330
160
100
AcDbEntity
  8
LAYER_1
100
AcDbVertex
100
AcDb2dVertex
 10
163.9199999999999
 20
140.966
 30
0.0
  0
SEQEND
  5
10AE
330
160
100
AcDbEntity
  8
LAYER_1
  0
ENDBLK
  5
1A1
330
15E
100
AcDbEntity
  8
0
100
AcDbBlockEnd
  0
BLOCK
  5
1A3
330
1A2
100
AcDbEntity
  8
LAYER_1
100
AcDbBlockBegin
  2
AIGNBL01020003
 70
     0
 10
0.0
 20
0.0
 30
0.0
  3
AIGNBL01020003
  1

  0
INSERT
  5
1A4
330
1A2
100
AcDbEntity
  8
LAYER_1
100
AcDbBlockReference
  2
AIGNBL01030004
 10
0.0
 20
0.0
 30
0.0
  0
INSERT
  5
1A5
330
1A2
100
AcDbEntity
  8
LAYER_1
100
AcDbBlockReference
  2
AIGNBL01030005
 10
0.0
 20
0.0
 30
0.0
  0
INSERT
  5
1A6
330
1A2
100
AcDbEntity
  8
LAYER_1
100
AcDbBlockReference
  2
AIGNBL01030006
 10
0.0
 20
0.0
 30
0.0
  0
INSERT
  5
1A7
330
1A2
100
AcDbEntity
  8
LAYER_1
100
AcDbBlockReference
  2
AIGNBL01030007
 10
0.0
 20
0.0
 30
0.0
  0
INSERT
  5
1A8
330
1A2
100
AcDbEntity
  8
LAYER_1
100
AcDbBlockReference
  2
AIGNBL01030008
 10
0.0
 20
0.0
 30
0.0
  0
ENDBLK
  5
1A9
330
1A2
100
AcDbEntity
  8
0
100
AcDbBlockEnd
  0
BLOCK
  5
1AB
330
1AA
100
AcDbEntity
  8
LAYER_1
100
AcDbBlockBegin
  2
AIGNBL0102000B
 70
     0
 10
0.0
 20
0.0
 30
0.0
  3
AIGNBL0102000B
  1

  0
INSERT
  5
1AC
330
1AA
100
AcDbEntity
  8
LAYER_1
100
AcDbBlockReference
  2
AIGNBL0103000C
 10
0.0
 20
0.0
 30
0.0
  0
INSERT
  5
1AD
330
1AA
100
AcDbEntity
  8
LAYER_1
100
AcDbBlockReference
  2
AIGNBL0103000D
 10
0.0
 20
0.0
 30
0.0
  0
INSERT
  5
1AE
330
1AA
100
AcDbEntity
  8
LAYER_1
100
AcDbBlockReference
  2
AIGNBL0103000E
 10
0.0
 20
0.0
 30
0.0
  0
ENDBLK
  5
1AF
330
1AA
100
AcDbEntity
  8
0
100
AcDbBlockEnd
  0
BLOCK
  5
1B1
330
1B0
100
AcDbEntity
  8
LAYER_1
100
AcDbBlockBegin
  2
AIGNBL01020011
 70
     0
 10
0.0
 20
0.0
 30
0.0
  3
AIGNBL01020011
  1

  0
POLYLINE
  5
1B2
330
1B0
100
AcDbEntity
  8
LAYER_1
100
AcDb2dPolyline
 66
     1
 10
0.0
 20
0.0
 30
0.0
 70
     1
 40
0.35278
 41
0.35278
  0
VERTEX
  5
10AF
330
1B2
100
AcDbEntity
  8
LAYER_1
100
AcDbVertex
100
AcDb2dVertex
 10
99.9408
 20
25.7209
 30
0.0
 42
0.0484
  0
VERTEX
  5
10B0
330
1B2
100
AcDbEntity
  8
LAYER_1
100
AcDbVertex
100
AcDb2dVertex
 10
99.76590000000001
 20
25.6421
 30
0.0
 42
0.1836
  0
VERTEX
  5
10B1
330
1B2
100
AcDbEntity
  8
LAYER_1
100
AcDbVertex
100
AcDb2dVertex
 10
99.5804
 20
25.4014
 30
0.0
 42
0.0327
  0
VERTEX
  5
10B2
330
1B2
100
AcDbEntity
  8
LAYER_1
100
AcDbVertex
100
AcDb2dVertex
 10
99.55670000000001
 20
25.3049
 30
0.0
 42
0.025
  0
VERTEX
  5
10B3
330
1B2
100
AcDbEntity
  8
LAYER_1
100
AcDbVertex
100
AcDb2dVertex
 10
99.53990000000001
 20
25.1719
 30
0.0
 42
0.0232
  0
VERTEX
  5
10B4
330
1B2
100
AcDbEntity
  8
LAYER_1
100
AcDbVertex
100
AcDb2dVertex
 10
99.5315
 20
24.8638
 30
0.0
  0
VERTEX
  5
10B5
330
1B2
100
AcDbEntity
  8
LAYER_1
100
AcDbVertex
100
AcDb2dVertex
 10
100.773
 20
24.8638
 30
0.0
  0
VERTEX
  5
10B6
330
1B2
100
AcDbEntity
  8
LAYER_1
100
AcDbVertex
100
AcDb2dVertex
 10
100.773
 20
24.6557
 30
0.0
  0
VERTEX
  5
10B7
330
1B2
100
AcDbEntity
  8
LAYER_1
100
AcDbVertex
100
AcDb2dVertex
 10
99.3022
 20
24.6557
 30
0.0
 42
-0.0178
  0
VERTEX
  5
10B8
330
1B2
100
AcDbEntity
  8
LAYER_1
100
AcDbVertex
100
AcDb2dVertex
 10
99.3139
 20
25.1431
 30
0.0
 42
-0.0416
  0
VERTEX
  5
10B9
330
1B2
100
AcDbEntity
  8
LAYER_1
100
AcDbVertex
100
AcDb2dVertex
 10
99.3602
 20
25.44119999999999
 30
0.0
 42
-0.067
  0
VERTEX
  5
10BA
330
1B2
100
AcDbEntity
  8
LAYER_1
100
AcDbVertex
100
AcDb2dVertex
 10
99.43429999999999
 20
25.6223
 30
0.0
 42
-0.1252
  0
VERTEX
  5
10BB
330
1B2
100
AcDbEntity
  8
LAYER_1
100
AcDbVertex
100
AcDb2dVertex
 10
99.6164
 20
25.8012
 30
0.0
 42
-0.03
  0
VERTEX
  5
10BC
330
1B2
100
AcDbEntity
  8
LAYER_1
100
AcDbVertex
100
AcDb2dVertex
 10
99.7165
 20
25.85399999999999
 30
0.0
 42
-0.0229
  0
VERTEX
  5
10BD
330
1B2
100
AcDbEntity
  8
LAYER_1
100
AcDbVertex
100
AcDb2dVertex
 10
99.88790000000001
 20
25.9221
 30
0.0
  0
VERTEX
  5
10BE
330
1B2
100
AcDbEntity
  8
LAYER_1
100
AcDbVertex
100
AcDb2dVertex
 10
100.163
 20
26.021
 30
0.0
 42
0.0145
  0
VERTEX
  5
10BF
330
1B2
100
AcDbEntity
  8
LAYER_1
100
AcDbVertex
100
AcDb2dVertex
 10
100.279
 20
26.06609999999999
 30
0.0
 42
0.0775
  0
VERTEX
  5
10C0
330
1B2
100
AcDbEntity
  8
LAYER_1
100
AcDbVertex
100
AcDb2dVertex
 10
100.4099999999999
 20
26.1497
 30
0.0
 42
0.1412
  0
VERTEX
  5
10C1
330
1B2
100
AcDbEntity
  8
LAYER_1
100
AcDbVertex
100
AcDb2dVertex
 10
100.5199999999999
 20
26.3366
 30
0.0
 42
0.0327
  0
VERTEX
  5
10C2
330
1B2
100
AcDbEntity
  8
LAYER_1
100
AcDbVertex
100
AcDb2dVertex
 10
100.5419999999999
 20
26.4329
 30
0.0
 42
0.0425
  0
VERTEX
  5
10C3
330
1B2
100
AcDbEntity
  8
LAYER_1
100
AcDbVertex
100
AcDb2dVertex
 10
100.5579999999999
 20
26.65589999999999
 30
0.0
 42
0.0362
  0
VERTEX
  5
10C4
330
1B2
100
AcDbEntity
  8
LAYER_1
100
AcDbVertex
100
AcDb2dVertex
 10
100.5409999999999
 20
26.9007
 30
0.0
 42
0.0756
  0
VERTEX
  5
10C5
330
1B2
100
AcDbEntity
  8
LAYER_1
100
AcDbVertex
100
AcDb2dVertex
 10
100.487
 20
27.06459999999999
 30
0.0
 42
0.2111
  0
VERTEX
  5
10C6
330
1B2
100
AcDbEntity
  8
LAYER_1
100
AcDbVertex
100
AcDb2dVertex
 10
100.2709999999999
 20
27.23
 30
0.0
 42
0.0363
  0
VERTEX
  5
10C7
330
1B2
100
AcDbEntity
  8
LAYER_1
100
AcDbVertex
100
AcDb2dVertex
 10
100.184
 20
27.2478
 30
0.0
 42
0.0337
  0
VERTEX
  5
10C8
330
1B2
100
AcDbEntity
  8
LAYER_1
100
AcDbVertex
100
AcDb2dVertex
 10
100.0539999999999
 20
27.2557
 30
0.0
 42
0.0522
  0
VERTEX
  5
10C9
330
1B2
100
AcDbEntity
  8
LAYER_1
100
AcDbVertex
100
AcDb2dVertex
 10
99.86820000000001
 20
27.2365
 30
0.0
 42
0.1373
  0
VERTEX
  5
10CA
330
1B2
100
AcDbEntity
  8
LAYER_1
100
AcDbVertex
100
AcDb2dVertex
 10
99.67100000000002
 20
27.1299
 30
0.0
 42
0.0998
  0
VERTEX
  5
10CB
330
1B2
100
AcDbEntity
  8
LAYER_1
100
AcDbVertex
100
AcDb2dVertex
 10
99.59789999999999
 20
27.0113
 30
0.0
 42
0.0743
  0
VERTEX
  5
10CC
330
1B2
100
AcDbEntity
  8
LAYER_1
100
AcDbVertex
100
AcDb2dVertex
 10
99.5588
 20
26.8287
 30
0.0
 42
0.0296
  0
VERTEX
  5
10CD
330
1B2
100
AcDbEntity
  8
LAYER_1
100
AcDbVertex
100
AcDb2dVertex
 10
99.5527
 20
26.5643
 30
0.0
  0
VERTEX
  5
10CE
330
1B2
100
AcDbEntity
  8
LAYER_1
100
AcDbVertex
100
AcDb2dVertex
 10
99.32
 20
26.5643
 30
0.0
 42
-0.0082
  0
VERTEX
  5
10CF
330
1B2
100
AcDbEntity
  8
LAYER_1
100
AcDbVertex
100
AcDb2dVertex
 10
99.3266
 20
26.76719999999999
 30
0.0
 42
-0.0476
  0
VERTEX
  5
10D0
330
1B2
100
AcDbEntity
  8
LAYER_1
100
AcDbVertex
100
AcDb2dVertex
 10
99.3659
 20
27.0256
 30
0.0
 42
-0.1072
  0
VERTEX
  5
10D1
330
1B2
100
AcDbEntity
  8
LAYER_1
100
AcDbVertex
100
AcDb2dVertex
 10
99.4894
 20
27.2644
 30
0.0
 42
-0.1204
  0
VERTEX
  5
10D2
330
1B2
100
AcDbEntity
  8
LAYER_1
100
AcDbVertex
100
AcDb2dVertex
 10
99.6902
 20
27.40289999999999
 30
0.0
 42
-0.0652
  0
VERTEX
  5
10D3
330
1B2
100
AcDbEntity
  8
LAYER_1
100
AcDbVertex
100
AcDb2dVertex
 10
99.88880000000001
 20
27.45309999999999
 30
0.0
 42
-0.0337
  0
VERTEX
  5
10D4
330
1B2
100
AcDbEntity
  8
LAYER_1
100
AcDbVertex
100
AcDb2dVertex
 10
100.0609999999999
 20
27.4638
 30
0.0
 42
-0.0434
  0
VERTEX
  5
10D5
330
1B2
100
AcDbEntity
  8
LAYER_1
100
AcDbVertex
100
AcDb2dVertex
 10
100.28
 20
27.4449
 30
0.0
 42
-0.1053
  0
VERTEX
  5
10D6
330
1B2
100
AcDbEntity
  8
LAYER_1
100
AcDbVertex
100
AcDb2dVertex
 10
100.5439999999999
 20
27.336
 30
0.0
 42
-0.1658
  0
VERTEX
  5
10D7
330
1B2
100
AcDbEntity
  8
LAYER_1
100
AcDbVertex
100
AcDb2dVertex
 10
100.7349999999999
 20
27.0556
 30
0.0
 42
-0.0599
  0
VERTEX
  5
10D8
330
1B2
100
AcDbEntity
  8
LAYER_1
100
AcDbVertex
100
AcDb2dVertex
 10
100.7779999999999
 20
26.8252
 30
0.0
 42
-0.0205
  0
VERTEX
  5
10D9
330
1B2
100
AcDbEntity
  8
LAYER_1
100
AcDbVertex
100
AcDb2dVertex
 10
100.7839999999999
 20
26.6807
 30
0.0
 42
-0.034
  0
VERTEX
  5
10DA
330
1B2
100
AcDbEntity
  8
LAYER_1
100
AcDbVertex
100
AcDb2dVertex
 10
100.7649999999999
 20
26.3962
 30
0.0
 42
-0.0586
  0
VERTEX
  5
10DB
330
1B2
100
AcDbEntity
  8
LAYER_1
100
AcDbVertex
100
AcDb2dVertex
 10
100.7079999999999
 20
26.18959999999999
 30
0.0
 42
-0.1569
  0
VERTEX
  5
10DC
330
1B2
100
AcDbEntity
  8
LAYER_1
100
AcDbVertex
100
AcDb2dVertex
 10
100.4839999999999
 20
25.9315
 30
0.0
 42
-0.061
  0
VERTEX
  5
10DD
330
1B2
100
AcDbEntity
  8
LAYER_1
100
AcDbVertex
100
AcDb2dVertex
 10
100.2689999999999
 20
25.8339
 30
0.0
  0
SEQEND
  5
10DE
330
1B2
100
AcDbEntity
  8
LAYER_1
  0
ENDBLK
  5
1E3
330
1B0
100
AcDbEntity
  8
0
100
AcDbBlockEnd
  0
BLOCK
  5
1E5
330
1E4
100
AcDbEntity
  8
LAYER_1
100
AcDbBlockBegin
  2
AIGNBL01020012
 70
     0
 10
0.0
 20
0.0
 30
0.0
  3
AIGNBL01020012
  1

  0
POLYLINE
  5
1E6
330
1E4
100
AcDbEntity
  8
LAYER_1
100
AcDb2dPolyline
 66
     1
 10
0.0
 20
0.0
 30
0.0
 70
     1
 40
0.35278
 41
0.35278
  0
VERTEX
  5
10DF
330
1E6
100
AcDbEntity
  8
LAYER_1
100
AcDbVertex
100
AcDb2dVertex
 10
97.78530000000001
 20
26.7265
 30
0.0
 42
0.0181
  0
VERTEX
  5
10E0
330
1E6
100
AcDbEntity
  8
LAYER_1
100
AcDbVertex
100
AcDb2dVertex
 10
97.78910000000001
 20
26.62409999999999
 30
0.0
 42
0.0714
  0
VERTEX
  5
10E1
330
1E6
100
AcDbEntity
  8
LAYER_1
100
AcDbVertex
100
AcDb2dVertex
 10
97.82760000000001
 20
26.4478
 30
0.0
 42
0.2013
  0
VERTEX
  5
10E2
330
1E6
100
AcDbEntity
  8
LAYER_1
100
AcDbVertex
100
AcDb2dVertex
 10
98.01940000000001
 20
26.2555
 30
0.0
 42
0.0794
  0
VERTEX
  5
10E3
330
1E6
100
AcDbEntity
  8
LAYER_1
100
AcDbVertex
100
AcDb2dVertex
 10
98.1905
 20
26.2155
 30
0.0
 42
0.0231
  0
VERTEX
  5
10E4
330
1E6
100
AcDbEntity
  8
LAYER_1
100
AcDbVertex
100
AcDb2dVertex
 10
98.2792
 20
26.2115
 30
0.0
 42
0.0539
  0
VERTEX
  5
10E5
330
1E6
100
AcDbEntity
  8
LAYER_1
100
AcDbVertex
100
AcDb2dVertex
 10
98.4646
 20
26.2314
 30
0.0
 42
0.1326
  0
VERTEX
  5
10E6
330
1E6
100
AcDbEntity
  8
LAYER_1
100
AcDbVertex
100
AcDb2dVertex
 10
98.65860000000001
 20
26.33599999999999
 30
0.0
 42
0.1031
  0
VERTEX
  5
10E7
330
1E6
100
AcDbEntity
  8
LAYER_1
100
AcDbVertex
100
AcDb2dVertex
 10
98.7338
 20
26.4564
 30
0.0
 42
0.0773
  0
VERTEX
  5
10E8
330
1E6
100
AcDbEntity
  8
LAYER_1
100
AcDbVertex
100
AcDb2dVertex
 10
98.7695
 20
26.62959999999999
 30
0.0
 42
0.019
  0
VERTEX
  5
10E9
330
1E6
100
AcDbEntity
  8
LAYER_1
100
AcDbVertex
100
AcDb2dVertex
 10
98.77310000000001
 20
26.7372
 30
0.0
 42
0.0467
  0
VERTEX
  5
10EA
330
1E6
100
AcDbEntity
  8
LAYER_1
100
AcDbVertex
100
AcDb2dVertex
 10
98.75520000000001
 20
26.9295
 30
0.0
 42
0.1301
  0
VERTEX
  5
10EB
330
1E6
100
AcDbEntity
  8
LAYER_1
100
AcDbVertex
100
AcDb2dVertex
 10
98.65490000000001
 20
27.1299
 30
0.0
 42
0.1485
  0
VERTEX
  5
10EC
330
1E6
100
AcDbEntity
  8
LAYER_1
100
AcDbVertex
100
AcDb2dVertex
 10
98.4628
 20
27.2353
 30
0.0
 42
0.065
  0
VERTEX
  5
10ED
330
1E6
100
AcDbEntity
  8
LAYER_1
100
AcDbVertex
100
AcDb2dVertex
 10
98.2792
 20
27.2557
 30
0.0
 42
0.0514
  0
VERTEX
  5
10EE
330
1E6
100
AcDbEntity
  8
LAYER_1
100
AcDbVertex
100
AcDb2dVertex
 10
98.10310000000001
 20
27.2378
 30
0.0
 42
0.0911
  0
VERTEX
  5
10EF
330
1E6
100
AcDbEntity
  8
LAYER_1
100
AcDbVertex
100
AcDb2dVertex
 10
97.9531
 20
27.1743
 30
0.0
 42
0.1561
  0
VERTEX
  5
10F0
330
1E6
100
AcDbEntity
  8
LAYER_1
100
AcDbVertex
100
AcDb2dVertex
 10
97.82600000000002
 20
27.0079
 30
0.0
 42
0.0769
  0
VERTEX
  5
10F1
330
1E6
100
AcDbEntity
  8
LAYER_1
100
AcDbVertex
100
AcDb2dVertex
 10
97.7889
 20
26.8272
 30
0.0
 42
0.0188
  0
SEQEND
  5
10F2
330
1E6
100
AcDbEntity
  8
LAYER_1
  0
POLYLINE
  5
1FB
330
1E4
100
AcDbEntity
  8
LAYER_1
100
AcDb2dPolyline
 66
     1
 10
0.0
 20
0.0
 30
0.0
 70
     1
 40
0.35278
 41
0.35278
  0
VERTEX
  5
10F3
330
1FB
100
AcDbEntity
  8
LAYER_1
100
AcDbVertex
100
AcDb2dVertex
 10
97.75350000000001
 20
25.386
 30
0.0
 42
0.0156
  0
VERTEX
  5
10F4
330
1FB
100
AcDbEntity
  8
LAYER_1
100
AcDbVertex
100
AcDb2dVertex
 10
97.7569
 20
25.276
 30
0.0
 42
0.0667
  0
VERTEX
  5
10F5
330
1FB
100
AcDbEntity
  8
LAYER_1
100
AcDbVertex
100
AcDb2dVertex
 10
97.7935
 20
25.0919
 30
0.0
 42
0.2374
  0
VERTEX
  5
10F6
330
1FB
100
AcDbEntity
  8
LAYER_1
100
AcDbVertex
100
AcDb2dVertex
 10
98.0422
 20
24.86349999999999
 30
0.0
 42
0.0821
  0
VERTEX
  5
10F7
330
1FB
100
AcDbEntity
  8
LAYER_1
100
AcDbVertex
100
AcDb2dVertex
 10
98.2792
 20
24.8321
 30
0.0
 42
0.0531
  0
VERTEX
  5
10F8
330
1FB
100
AcDbEntity
  8
LAYER_1
100
AcDbVertex
100
AcDb2dVertex
 10
98.47740000000001
 20
24.853
 30
0.0
 42
0.1201
  0
VERTEX
  5
10F9
330
1FB
100
AcDbEntity
  8
LAYER_1
100
AcDbVertex
100
AcDb2dVertex
 10
98.6706
 20
24.95039999999999
 30
0.0
 42
0.1484
  0
VERTEX
  5
10FA
330
1FB
100
AcDbEntity
  8
LAYER_1
100
AcDbVertex
100
AcDb2dVertex
 10
98.77870000000001
 20
25.1381
 30
0.0
 42
0.0347
  0
VERTEX
  5
10FB
330
1FB
100
AcDbEntity
  8
LAYER_1
100
AcDbVertex
100
AcDb2dVertex
 10
98.7963
 20
25.2289
 30
0.0
 42
0.0334
  0
VERTEX
  5
10FC
330
1FB
100
AcDbEntity
  8
LAYER_1
100
AcDbVertex
100
AcDb2dVertex
 10
98.80490000000001
 20
25.3964
 30
0.0
 42
0.0408
  0
VERTEX
  5
10FD
330
1FB
100
AcDbEntity
  8
LAYER_1
100
AcDbVertex
100
AcDb2dVertex
 10
98.7856
 20
25.6357
 30
0.0
 42
0.0773
  0
VERTEX
  5
10FE
330
1FB
100
AcDbEntity
  8
LAYER_1
100
AcDbVertex
100
AcDb2dVertex
 10
98.7273
 20
25.80249999999999
 30
0.0
 42
0.2024
  0
VERTEX
  5
10FF
330
1FB
100
AcDbEntity
  8
LAYER_1
100
AcDbVertex
100
AcDb2dVertex
 10
98.50480000000001
 20
25.9719
 30
0.0
 42
0.0774
  0
VERTEX
  5
1100
330
1FB
100
AcDbEntity
  8
LAYER_1
100
AcDbVertex
100
AcDb2dVertex
 10
98.2792
 20
25.9996
 30
0.0
 42
0.0488
  0
VERTEX
  5
1101
330
1FB
100
AcDbEntity
  8
LAYER_1
100
AcDbVertex
100
AcDb2dVertex
 10
98.09280000000001
 20
25.9816
 30
0.0
 42
0.1301
  0
VERTEX
  5
1102
330
1FB
100
AcDbEntity
  8
LAYER_1
100
AcDbVertex
100
AcDb2dVertex
 10
97.8894
 20
25.8795
 30
0.0
 42
0.1
  0
VERTEX
  5
1103
330
1FB
100
AcDbEntity
  8
LAYER_1
100
AcDbVertex
100
AcDb2dVertex
 10
97.8095
 20
25.7621
 30
0.0
 42
0.0768
  0
VERTEX
  5
1104
330
1FB
100
AcDbEntity
  8
LAYER_1
100
AcDbVertex
100
AcDb2dVertex
 10
97.76390000000001
 20
25.5836
 30
0.0
 42
0.033
  0
SEQEND
  5
1105
330
1FB
100
AcDbEntity
  8
LAYER_1
  0
POLYLINE
  5
20F
330
1E4
100
AcDbEntity
  8
LAYER_1
100
AcDb2dPolyline
 66
     1
 10
0.0
 20
0.0
 30
0.0
 70
     1
 40
0.35278
 41
0.35278
  0
VERTEX
  5
1106
330
20F
100
AcDbEntity
  8
LAYER_1
100
AcDbVertex
100
AcDb2dVertex
 10
97.5595
 20
26.7372
 30
0.0
 42
-0.044
  0
VERTEX
  5
1107
330
20F
100
AcDbEntity
  8
LAYER_1
100
AcDbVertex
100
AcDb2dVertex
 10
97.5782
 20
26.9514
 30
0.0
 42
-0.1016
  0
VERTEX
  5
1108
330
20F
100
AcDbEntity
  8
LAYER_1
100
AcDbVertex
100
AcDb2dVertex
 10
97.68590000000001
 20
27.2173
 30
0.0
 42
-0.1565
  0
VERTEX
  5
1109
330
20F
100
AcDbEntity
  8
LAYER_1
100
AcDbVertex
100
AcDb2dVertex
 10
97.9495
 20
27.4128
 30
0.0
 42
-0.0641
  0
VERTEX
  5
110A
330
20F
100
AcDbEntity
  8
LAYER_1
100
AcDbVertex
100
AcDb2dVertex
 10
98.15319999999999
 20
27.4576
 30
0.0
 42
-0.0257
  0
VERTEX
  5
110B
330
20F
100
AcDbEntity
  8
LAYER_1
100
AcDbVertex
100
AcDb2dVertex
 10
98.2792
 20
27.4638
 30
0.0
 42
-0.0724
  0
VERTEX
  5
110C
330
20F
100
AcDbEntity
  8
LAYER_1
100
AcDbVertex
100
AcDb2dVertex
 10
98.59299999999999
 20
27.41839999999999
 30
0.0
 42
-0.2698
  0
VERTEX
  5
110D
330
20F
100
AcDbEntity
  8
LAYER_1
100
AcDbVertex
100
AcDb2dVertex
 10
98.975
 20
26.9768
 30
0.0
 42
-0.0567
  0
VERTEX
  5
110E
330
20F
100
AcDbEntity
  8
LAYER_1
100
AcDbVertex
100
AcDb2dVertex
 10
98.9989
 20
26.7372
 30
0.0
 42
-0.0438
  0
VERTEX
  5
110F
330
20F
100
AcDbEntity
  8
LAYER_1
100
AcDbVertex
100
AcDb2dVertex
 10
98.9807
 20
26.5293
 30
0.0
 42
-0.1044
  0
VERTEX
  5
1110
330
20F
100
AcDbEntity
  8
LAYER_1
100
AcDbVertex
100
AcDb2dVertex
 10
98.8762
 20
26.2757
 30
0.0
 42
-0.165
  0
VERTEX
  5
1111
330
20F
100
AcDbEntity
  8
LAYER_1
100
AcDbVertex
100
AcDb2dVertex
 10
98.62490000000001
 20
26.1019
 30
0.0
 42
-0.2762
  0
VERTEX
  5
1112
330
20F
100
AcDbEntity
  8
LAYER_1
100
AcDbVertex
100
AcDb2dVertex
 10
98.99880000000001
 20
25.7174
 30
0.0
 42
-0.0739
  0
VERTEX
  5
1113
330
20F
100
AcDbEntity
  8
LAYER_1
100
AcDbVertex
100
AcDb2dVertex
 10
99.0342
 20
25.4002
 30
0.0
 42
-0.0396
  0
VERTEX
  5
1114
330
20F
100
AcDbEntity
  8
LAYER_1
100
AcDbVertex
100
AcDb2dVertex
 10
99.01530000000001
 20
25.1604
 30
0.0
 42
-0.0977
  0
VERTEX
  5
1115
330
20F
100
AcDbEntity
  8
LAYER_1
100
AcDbVertex
100
AcDb2dVertex
 10
98.91190000000001
 20
24.8889
 30
0.0
 42
-0.1707
  0
VERTEX
  5
1116
330
20F
100
AcDbEntity
  8
LAYER_1
100
AcDbVertex
100
AcDb2dVertex
 10
98.6233
 20
24.6767
 30
0.0
 42
-0.0649
  0
VERTEX
  5
1117
330
20F
100
AcDbEntity
  8
LAYER_1
100
AcDbVertex
100
AcDb2dVertex
 10
98.39109999999999
 20
24.6316
 30
0.0
 42
-0.0194
  0
VERTEX
  5
1118
330
20F
100
AcDbEntity
  8
LAYER_1
100
AcDbVertex
100
AcDb2dVertex
 10
98.2792
 20
24.6274
 30
0.0
 42
-0.0443
  0
VERTEX
  5
1119
330
20F
100
AcDbEntity
  8
LAYER_1
100
AcDbVertex
100
AcDb2dVertex
 10
98.05329999999999
 20
24.6473
 30
0.0
 42
-0.0994
  0
VERTEX
  5
111A
330
20F
100
AcDbEntity
  8
LAYER_1
100
AcDbVertex
100
AcDb2dVertex
 10
97.7814
 20
24.7568
 30
0.0
 42
-0.1589
  0
VERTEX
  5
111B
330
20F
100
AcDbEntity
  8
LAYER_1
100
AcDbVertex
100
AcDb2dVertex
 10
97.57649999999999
 20
25.03199999999999
 30
0.0
 42
-0.0627
  0
VERTEX
  5
111C
330
20F
100
AcDbEntity
  8
LAYER_1
100
AcDbVertex
100
AcDb2dVertex
 10
97.5312
 20
25.2383
 30
0.0
 42
-0.0265
  0
VERTEX
  5
111D
330
20F
100
AcDbEntity
  8
LAYER_1
100
AcDbVertex
100
AcDb2dVertex
 10
97.5242
 20
25.3822
 30
0.0
 42
-0.0399
  0
VERTEX
  5
111E
330
20F
100
AcDbEntity
  8
LAYER_1
100
AcDbVertex
100
AcDb2dVertex
 10
97.54319999999999
 20
25.617
 30
0.0
 42
-0.0928
  0
VERTEX
  5
111F
330
20F
100
AcDbEntity
  8
LAYER_1
100
AcDbVertex
100
AcDb2dVertex
 10
97.64969999999999
 20
25.90749999999999
 30
0.0
 42
-0.0574
  0
VERTEX
  5
1120
330
20F
100
AcDbEntity
  8
LAYER_1
100
AcDbVertex
100
AcDb2dVertex
 10
97.72539999999999
 20
25.9996
 30
0.0
 42
-0.1531
  0
VERTEX
  5
1121
330
20F
100
AcDbEntity
  8
LAYER_1
100
AcDbVertex
100
AcDb2dVertex
 10
97.9335
 20
26.1019
 30
0.0
 42
-0.1015
  0
VERTEX
  5
1122
330
20F
100
AcDbEntity
  8
LAYER_1
100
AcDbVertex
100
AcDb2dVertex
 10
97.7265
 20
26.2272
 30
0.0
 42
-0.1222
  0
VERTEX
  5
1123
330
20F
100
AcDbEntity
  8
LAYER_1
100
AcDbVertex
100
AcDb2dVertex
 10
97.6022
 20
26.43349999999999
 30
0.0
 42
-0.065
  0
VERTEX
  5
1124
330
20F
100
AcDbEntity
  8
LAYER_1
100
AcDbVertex
100
AcDb2dVertex
 10
97.56289999999999
 20
26.6419
 30
0.0
 42
-0.0182
  0
SEQEND
  5
1125
330
20F
100
AcDbEntity
  8
LAYER_1
  0
ENDBLK
  5
230
330
1E4
100
AcDbEntity
  8
0
100
AcDbBlockEnd
  0
BLOCK
  5
232
330
231
100
AcDbEntity
  8
LAYER_1
100
AcDbBlockBegin
  2
AIGNBL01020013
 70
     0
 10
0.0
 20
0.0
 30
0.0
  3
AIGNBL01020013
  1

  0
POLYLINE
  5
233
330
231
100
AcDbEntity
  8
LAYER_1
100
AcDb2dPolyline
 66
     1
 10
0.0
 20
0.0
 30
0.0
 70
     1
 40
0.35278
 41
0.35278
  0
VERTEX
  5
1126
330
233
100
AcDbEntity
  8
LAYER_1
100
AcDbVertex
100
AcDb2dVertex
 10
95.92959999999999
 20
25.5376
 30
0.0
  0
VERTEX
  5
1127
330
233
100
AcDbEntity
  8
LAYER_1
100
AcDbVertex
100
AcDb2dVertex
 10
96.8045
 20
25.5376
 30
0.0
  0
VERTEX
  5
1128
330
233
100
AcDbEntity
  8
LAYER_1
100
AcDbVertex
100
AcDb2dVertex
 10
96.8045
 20
27.2202
 30
0.0
  0
SEQEND
  5
1129
330
233
100
AcDbEntity
  8
LAYER_1
  0
POLYLINE
  5
238
330
231
100
AcDbEntity
  8
LAYER_1
100
AcDb2dPolyline
 66
     1
 10
0.0
 20
0.0
 30
0.0
 70
     1
 40
0.35278
 41
0.35278
  0
VERTEX
  5
112A
330
238
100
AcDbEntity
  8
LAYER_1
100
AcDbVertex
100
AcDb2dVertex
 10
97.0303
 20
27.4355
 30
0.0
  0
VERTEX
  5
112B
330
238
100
AcDbEntity
  8
LAYER_1
100
AcDbVertex
100
AcDb2dVertex
 10
97.0303
 20
25.5376
 30
0.0
  0
VERTEX
  5
112C
330
238
100
AcDbEntity
  8
LAYER_1
100
AcDbVertex
100
AcDb2dVertex
 10
97.31250000000001
 20
25.5376
 30
0.0
  0
VERTEX
  5
112D
330
238
100
AcDbEntity
  8
LAYER_1
100
AcDbVertex
100
AcDb2dVertex
 10
97.31250000000001
 20
25.3364
 30
0.0
  0
VERTEX
  5
112E
330
238
100
AcDbEntity
  8
LAYER_1
100
AcDbVertex
100
AcDb2dVertex
 10
97.0303
 20
25.3364
 30
0.0
  0
VERTEX
  5
112F
330
238
100
AcDbEntity
  8
LAYER_1
100
AcDbVertex
100
AcDb2dVertex
 10
97.0303
 20
24.6557
 30
0.0
  0
VERTEX
  5
1130
330
238
100
AcDbEntity
  8
LAYER_1
100
AcDbVertex
100
AcDb2dVertex
 10
96.8045
 20
24.6557
 30
0.0
  0
VERTEX
  5
1131
330
238
100
AcDbEntity
  8
LAYER_1
100
AcDbVertex
100
AcDb2dVertex
 10
96.8045
 20
25.3364
 30
0.0
  0
VERTEX
  5
1132
330
238
100
AcDbEntity
  8
LAYER_1
100
AcDbVertex
100
AcDb2dVertex
 10
95.70399999999999
 20
25.3364
 30
0.0
  0
VERTEX
  5
1133
330
238
100
AcDbEntity
  8
LAYER_1
100
AcDbVertex
100
AcDb2dVertex
 10
95.70399999999999
 20
25.5517
 30
0.0
  0
VERTEX
  5
1134
330
238
100
AcDbEntity
  8
LAYER_1
100
AcDbVertex
100
AcDb2dVertex
 10
96.69170000000001
 20
27.4355
 30
0.0
  0
SEQEND
  5
1135
330
238
100
AcDbEntity
  8
LAYER_1
  0
ENDBLK
  5
245
330
231
100
AcDbEntity
  8
0
100
AcDbBlockEnd
  0
BLOCK
  5
247
330
246
100
AcDbEntity
  8
LAYER_2
100
AcDbBlockBegin
  2
AIGNBL02020003
 70
     0
 10
0.0
 20
0.0
 30
0.0
  3
AIGNBL02020003
  1

  0
POLYLINE
  5
248
330
246
100
AcDbEntity
  8
LAYER_2
100
AcDb2dPolyline
 66
     1
 10
0.0
 20
0.0
 30
0.0
 70
     1
 40
0.35278
 41
0.35278
  0
VERTEX
  5
1136
330
248
100
AcDbEntity
  8
LAYER_2
100
AcDbVertex
100
AcDb2dVertex
 10
-26.5612
 20
267.837
 30
0.0
 42
0.0739
  0
VERTEX
  5
1137
330
248
100
AcDbEntity
  8
LAYER_2
100
AcDbVertex
100
AcDb2dVertex
 10
-27.2557
 20
269.028
 30
0.0
  0
VERTEX
  5
1138
330
248
100
AcDbEntity
  8
LAYER_2
100
AcDbVertex
100
AcDb2dVertex
 10
-26.6935
 20
269.359
 30
0.0
 42
-0.0356
  0
VERTEX
  5
1139
330
248
100
AcDbEntity
  8
LAYER_2
100
AcDbVertex
100
AcDb2dVertex
 10
-26.27
 20
268.8079999999999
 30
0.0
 42
-0.0553
  0
VERTEX
  5
113A
330
248
100
AcDbEntity
  8
LAYER_2
100
AcDbVertex
100
AcDb2dVertex
 10
-25.9658
 20
268.2009999999999
 30
0.0
  0
SEQEND
  5
113B
330
248
100
AcDbEntity
  8
LAYER_2
  0
POLYLINE
  5
24F
330
246
100
AcDbEntity
  8
LAYER_2
100
AcDb2dPolyline
 66
     1
 10
0.0
 20
0.0
 30
0.0
 70
     1
 40
0.35278
 41
0.35278
  0
VERTEX
  5
113C
330
24F
100
AcDbEntity
  8
LAYER_2
100
AcDbVertex
100
AcDb2dVertex
 10
-28.0164
 20
268.995
 30
0.0
 42
-0.0767
  0
VERTEX
  5
113D
330
24F
100
AcDbEntity
  8
LAYER_2
100
AcDbVertex
100
AcDb2dVertex
 10
-27.2888
 20
267.837
 30
0.0
  0
VERTEX
  5
113E
330
24F
100
AcDbEntity
  8
LAYER_2
100
AcDbVertex
100
AcDb2dVertex
 10
-27.8841
 20
267.473
 30
0.0
 42
0.0739
  0
VERTEX
  5
113F
330
24F
100
AcDbEntity
  8
LAYER_2
100
AcDbVertex
100
AcDb2dVertex
 10
-28.5786
 20
268.664
 30
0.0
  0
SEQEND
  5
1140
330
24F
100
AcDbEntity
  8
LAYER_2
  0
POLYLINE
  5
255
330
246
100
AcDbEntity
  8
LAYER_2
100
AcDb2dPolyline
 66
     1
 10
0.0
 20
0.0
 30
0.0
 70
     1
 40
0.35278
 41
0.35278
  0
VERTEX
  5
1141
330
255
100
AcDbEntity
  8
LAYER_2
100
AcDbVertex
100
AcDb2dVertex
 10
-24.3122
 20
265.257
 30
0.0
  0
VERTEX
  5
1142
330
255
100
AcDbEntity
  8
LAYER_2
100
AcDbVertex
100
AcDb2dVertex
 10
-24.8414
 20
264.629
 30
0.0
 42
0.0619
  0
VERTEX
  5
1143
330
255
100
AcDbEntity
  8
LAYER_2
100
AcDbVertex
100
AcDb2dVertex
 10
-26.42889999999999
 20
265.687
 30
0.0
 42
-0.053
  0
VERTEX
  5
1144
330
255
100
AcDbEntity
  8
LAYER_2
100
AcDbVertex
100
AcDb2dVertex
 10
-27.1348
 20
265.118
 30
0.0
 42
-0.0347
  0
VERTEX
  5
1145
330
255
100
AcDbEntity
  8
LAYER_2
100
AcDbVertex
100
AcDb2dVertex
 10
-27.885
 20
264.6949999999999
 30
0.0
 42
-0.022
  0
VERTEX
  5
1146
330
255
100
AcDbEntity
  8
LAYER_2
100
AcDbVertex
100
AcDb2dVertex
 10
-28.5786
 20
264.3979999999999
 30
0.0
  0
VERTEX
  5
1147
330
255
100
AcDbEntity
  8
LAYER_2
100
AcDbVertex
100
AcDb2dVertex
 10
-29.0086
 20
264.9929999999999
 30
0.0
 42
0.0211
  0
VERTEX
  5
1148
330
255
100
AcDbEntity
  8
LAYER_2
100
AcDbVertex
100
AcDb2dVertex
 10
-28.016
 20
265.439
 30
0.0
 42
0.0331
  0
VERTEX
  5
1149
330
255
100
AcDbEntity
  8
LAYER_2
100
AcDbVertex
100
AcDb2dVertex
 10
-27.2821
 20
265.8779999999999
 30
0.0
 42
0.0199
  0
VERTEX
  5
114A
330
255
100
AcDbEntity
  8
LAYER_2
100
AcDbVertex
100
AcDb2dVertex
 10
-27.0573
 20
266.0509999999999
 30
0.0
 42
0.0189
  0
VERTEX
  5
114B
330
255
100
AcDbEntity
  8
LAYER_2
100
AcDbVertex
100
AcDb2dVertex
 10
-28.3384
 20
266.6589999999999
 30
0.0
 42
0.0044
  0
VERTEX
  5
114C
330
255
100
AcDbEntity
  8
LAYER_2
100
AcDbVertex
100
AcDb2dVertex
 10
-28.7771
 20
266.845
 30
0.0
  0
VERTEX
  5
114D
330
255
100
AcDbEntity
  8
LAYER_2
100
AcDbVertex
100
AcDb2dVertex
 10
-28.3471
 20
267.374
 30
0.0
 42
-0.0118
  0
VERTEX
  5
114E
330
255
100
AcDbEntity
  8
LAYER_2
100
AcDbVertex
100
AcDb2dVertex
 10
-27.5177
 20
267.0409999999999
 30
0.0
 42
-0.0088
  0
VERTEX
  5
114F
330
255
100
AcDbEntity
  8
LAYER_2
100
AcDbVertex
100
AcDb2dVertex
 10
-26.5612
 20
266.6129999999999
 30
0.0
 42
0.0382
  0
VERTEX
  5
1150
330
255
100
AcDbEntity
  8
LAYER_2
100
AcDbVertex
100
AcDb2dVertex
 10
-26.1352
 20
267.199
 30
0.0
 42
0.0322
  0
VERTEX
  5
1151
330
255
100
AcDbEntity
  8
LAYER_2
100
AcDbVertex
100
AcDb2dVertex
 10
-25.68519999999999
 20
268.0309999999999
 30
0.0
 42
0.0277
  0
VERTEX
  5
1152
330
255
100
AcDbEntity
  8
LAYER_2
100
AcDbVertex
100
AcDb2dVertex
 10
-25.2052
 20
269.226
 30
0.0
  0
VERTEX
  5
1153
330
255
100
AcDbEntity
  8
LAYER_2
100
AcDbVertex
100
AcDb2dVertex
 10
-24.4776
 20
268.929
 30
0.0
 42
-0.0342
  0
VERTEX
  5
1154
330
255
100
AcDbEntity
  8
LAYER_2
100
AcDbVertex
100
AcDb2dVertex
 10
-24.4212
 20
268.9109999999999
 30
0.0
 42
-0.0797
  0
VERTEX
  5
1155
330
255
100
AcDbEntity
  8
LAYER_2
100
AcDbVertex
100
AcDb2dVertex
 10
-24.3829
 20
268.8879999999999
 30
0.0
 42
-0.4360000000000001
  0
VERTEX
  5
1156
330
255
100
AcDbEntity
  8
LAYER_2
100
AcDbVertex
100
AcDb2dVertex
 10
-24.38169999999999
 20
268.819
 30
0.0
 42
-0.0625
  0
VERTEX
  5
1157
330
255
100
AcDbEntity
  8
LAYER_2
100
AcDbVertex
100
AcDb2dVertex
 10
-24.419
 20
268.784
 30
0.0
 42
-0.0363
  0
VERTEX
  5
1158
330
255
100
AcDbEntity
  8
LAYER_2
100
AcDbVertex
100
AcDb2dVertex
 10
-24.4912
 20
268.739
 30
0.0
 42
-0.0169
  0
VERTEX
  5
1159
330
255
100
AcDbEntity
  8
LAYER_2
100
AcDbVertex
100
AcDb2dVertex
 10
-24.57679999999999
 20
268.697
 30
0.0
 42
-0.0206
  0
VERTEX
  5
115A
330
255
100
AcDbEntity
  8
LAYER_2
100
AcDbVertex
100
AcDb2dVertex
 10
-25.0309
 20
267.675
 30
0.0
 42
-0.0297
  0
VERTEX
  5
115B
330
255
100
AcDbEntity
  8
LAYER_2
100
AcDbVertex
100
AcDb2dVertex
 10
-25.5313
 20
266.8079999999999
 30
0.0
 42
-0.0312
  0
VERTEX
  5
115C
330
255
100
AcDbEntity
  8
LAYER_2
100
AcDbVertex
100
AcDb2dVertex
 10
-25.9328
 20
266.283
 30
0.0
 42
-0.0505
  0
SEQEND
  5
115D
330
255
100
AcDbEntity
  8
LAYER_2
  0
POLYLINE
  5
273
330
246
100
AcDbEntity
  8
LAYER_2
100
AcDb2dPolyline
 66
     1
 10
0.0
 20
0.0
 30
0.0
 70
     1
 40
0.35278
 41
0.35278
  0
VERTEX
  5
115E
330
273
100
AcDbEntity
  8
LAYER_2
100
AcDbVertex
100
AcDb2dVertex
 10
-23.8822
 20
269.656
 30
0.0
  0
VERTEX
  5
115F
330
273
100
AcDbEntity
  8
LAYER_2
100
AcDbVertex
100
AcDb2dVertex
 10
-29.3062
 20
269.656
 30
0.0
  0
VERTEX
  5
1160
330
273
100
AcDbEntity
  8
LAYER_2
100
AcDbVertex
100
AcDb2dVertex
 10
-29.3062
 20
264.199
 30
0.0
  0
VERTEX
  5
1161
330
273
100
AcDbEntity
  8
LAYER_2
100
AcDbVertex
100
AcDb2dVertex
 10
-23.8822
 20
264.199
 30
0.0
  0
SEQEND
  5
1162
330
273
100
AcDbEntity
  8
LAYER_2
  0
POLYLINE
  5
279
330
246
100
AcDbEntity
  8
LAYER_2
100
AcDb2dPolyline
 66
     1
 10
0.0
 20
0.0
 30
0.0
 70
     1
 40
0.35278
 41
0.35278
  0
VERTEX
  5
1163
330
279
100
AcDbEntity
  8
LAYER_2
100
AcDbVertex
100
AcDb2dVertex
 10
-23.8822
 20
263.24
 30
0.0
  0
VERTEX
  5
1164
330
279
100
AcDbEntity
  8
LAYER_2
100
AcDbVertex
100
AcDb2dVertex
 10
-23.8822
 20
263.5709999999999
 30
0.0
  0
VERTEX
  5
1165
330
279
100
AcDbEntity
  8
LAYER_2
100
AcDbVertex
100
AcDb2dVertex
 10
-29.3062
 20
263.5709999999999
 30
0.0
  0
VERTEX
  5
1166
330
279
100
AcDbEntity
  8
LAYER_2
100
AcDbVertex
100
AcDb2dVertex
 10
-29.3062
 20
263.174
 30
0.0
  0
VERTEX
  5
1167
330
279
100
AcDbEntity
  8
LAYER_2
100
AcDbVertex
100
AcDb2dVertex
 10
-29.9677
 20
263.174
 30
0.0
  0
VERTEX
  5
1168
330
279
100
AcDbEntity
  8
LAYER_2
100
AcDbVertex
100
AcDb2dVertex
 10
-29.9677
 20
270.285
 30
0.0
  0
VERTEX
  5
1169
330
279
100
AcDbEntity
  8
LAYER_2
100
AcDbVertex
100
AcDb2dVertex
 10
-23.2208
 20
270.285
 30
0.0
  0
VERTEX
  5
116A
330
279
100
AcDbEntity
  8
LAYER_2
100
AcDbVertex
100
AcDb2dVertex
 10
-23.2208
 20
263.24
 30
0.0
  0
SEQEND
  5
116B
330
279
100
AcDbEntity
  8
LAYER_2
  0
ENDBLK
  5
283
330
246
100
AcDbEntity
  8
0
100
AcDbBlockEnd
  0
BLOCK
  5
285
330
284
100
AcDbEntity
  8
LAYER_2
100
AcDbBlockBegin
  2
AIGNBL02020004
 70
     0
 10
0.0
 20
0.0
 30
0.0
  3
AIGNBL02020004
  1

  0
POLYLINE
  5
286
330
284
100
AcDbEntity
  8
LAYER_2
100
AcDb2dPolyline
 66
     1
 10
0.0
 20
0.0
 30
0.0
 70
     1
 40
0.35278
 41
0.35278
  0
VERTEX
  5
116C
330
286
100
AcDbEntity
  8
LAYER_2
100
AcDbVertex
100
AcDb2dVertex
 10
-34.7302
 20
268.3
 30
0.0
 42
0.0252
  0
VERTEX
  5
116D
330
286
100
AcDbEntity
  8
LAYER_2
100
AcDbVertex
100
AcDb2dVertex
 10
-33.9256
 20
268.7799999999999
 30
0.0
 42
0.035
  0
VERTEX
  5
116E
330
286
100
AcDbEntity
  8
LAYER_2
100
AcDbVertex
100
AcDb2dVertex
 10
-33.2682
 20
269.295
 30
0.0
 42
0.0441
  0
VERTEX
  5
116F
330
286
100
AcDbEntity
  8
LAYER_2
100
AcDbVertex
100
AcDb2dVertex
 10
-32.8059
 20
269.7999999999999
 30
0.0
 42
0.0375
  0
VERTEX
  5
1170
330
286
100
AcDbEntity
  8
LAYER_2
100
AcDbVertex
100
AcDb2dVertex
 10
-32.5805
 20
270.1519999999999
 30
0.0
  0
VERTEX
  5
1171
330
286
100
AcDbEntity
  8
LAYER_2
100
AcDbVertex
100
AcDb2dVertex
 10
-31.919
 20
269.656
 30
0.0
 42
-0.0686
  0
VERTEX
  5
1172
330
286
100
AcDbEntity
  8
LAYER_2
100
AcDbVertex
100
AcDb2dVertex
 10
-31.8991
 20
269.639
 30
0.0
 42
-0.3587
  0
VERTEX
  5
1173
330
286
100
AcDbEntity
  8
LAYER_2
100
AcDbVertex
100
AcDb2dVertex
 10
-31.8992
 20
269.601
 30
0.0
 42
-0.0917
  0
VERTEX
  5
1174
330
286
100
AcDbEntity
  8
LAYER_2
100
AcDbVertex
100
AcDb2dVertex
 10
-31.9259
 20
269.5799999999999
 30
0.0
 42
-0.0462
  0
VERTEX
  5
1175
330
286
100
AcDbEntity
  8
LAYER_2
100
AcDbVertex
100
AcDb2dVertex
 10
-31.9832
 20
269.554
 30
0.0
 42
-0.0251
  0
VERTEX
  5
1176
330
286
100
AcDbEntity
  8
LAYER_2
100
AcDbVertex
100
AcDb2dVertex
 10
-32.0844
 20
269.524
 30
0.0
 42
-0.0475
  0
VERTEX
  5
1177
330
286
100
AcDbEntity
  8
LAYER_2
100
AcDbVertex
100
AcDb2dVertex
 10
-32.4079
 20
269.0759999999999
 30
0.0
 42
-0.0428
  0
VERTEX
  5
1178
330
286
100
AcDbEntity
  8
LAYER_2
100
AcDbVertex
100
AcDb2dVertex
 10
-32.9544
 20
268.544
 30
0.0
 42
-0.0329
  0
VERTEX
  5
1179
330
286
100
AcDbEntity
  8
LAYER_2
100
AcDbVertex
100
AcDb2dVertex
 10
-33.7185
 20
267.987
 30
0.0
 42
-0.0155
  0
VERTEX
  5
117A
330
286
100
AcDbEntity
  8
LAYER_2
100
AcDbVertex
100
AcDb2dVertex
 10
-34.3003
 20
267.639
 30
0.0
  0
SEQEND
  5
117B
330
286
100
AcDbEntity
  8
LAYER_2
  0
POLYLINE
  5
297
330
284
100
AcDbEntity
  8
LAYER_2
100
AcDb2dPolyline
 66
     1
 10
0.0
 20
0.0
 30
0.0
 70
     1
 40
0.35278
 41
0.35278
  0
VERTEX
  5
117C
330
297
100
AcDbEntity
  8
LAYER_2
100
AcDbVertex
100
AcDb2dVertex
 10
-34.7633
 20
266.25
 30
0.0
 42
0.0354
  0
VERTEX
  5
117D
330
297
100
AcDbEntity
  8
LAYER_2
100
AcDbVertex
100
AcDb2dVertex
 10
-33.6913
 20
266.813
 30
0.0
 42
0.0496
  0
VERTEX
  5
117E
330
297
100
AcDbEntity
  8
LAYER_2
100
AcDbVertex
100
AcDb2dVertex
 10
-32.9072
 20
267.429
 30
0.0
 42
0.0802
  0
VERTEX
  5
117F
330
297
100
AcDbEntity
  8
LAYER_2
100
AcDbVertex
100
AcDb2dVertex
 10
-32.3159
 20
268.234
 30
0.0
  0
VERTEX
  5
1180
330
297
100
AcDbEntity
  8
LAYER_2
100
AcDbVertex
100
AcDb2dVertex
 10
-31.6544
 20
267.7049999999999
 30
0.0
 42
-0.0686
  0
VERTEX
  5
1181
330
297
100
AcDbEntity
  8
LAYER_2
100
AcDbVertex
100
AcDb2dVertex
 10
-31.6345
 20
267.687
 30
0.0
 42
-0.3587
  0
VERTEX
  5
1182
330
297
100
AcDbEntity
  8
LAYER_2
100
AcDbVertex
100
AcDb2dVertex
 10
-31.6346
 20
267.6499999999999
 30
0.0
 42
-0.0917
  0
VERTEX
  5
1183
330
297
100
AcDbEntity
  8
LAYER_2
100
AcDbVertex
100
AcDb2dVertex
 10
-31.6613
 20
267.6279999999999
 30
0.0
 42
-0.0462
  0
VERTEX
  5
1184
330
297
100
AcDbEntity
  8
LAYER_2
100
AcDbVertex
100
AcDb2dVertex
 10
-31.7186
 20
267.603
 30
0.0
 42
-0.0251
  0
VERTEX
  5
1185
330
297
100
AcDbEntity
  8
LAYER_2
100
AcDbVertex
100
AcDb2dVertex
 10
-31.8198
 20
267.5729999999999
 30
0.0
 42
-0.1048
  0
VERTEX
  5
1186
330
297
100
AcDbEntity
  8
LAYER_2
100
AcDbVertex
100
AcDb2dVertex
 10
-33.7395
 20
265.8259999999999
 30
0.0
 42
-0.0212
  0
VERTEX
  5
1187
330
297
100
AcDbEntity
  8
LAYER_2
100
AcDbVertex
100
AcDb2dVertex
 10
-34.3003
 20
265.5219999999999
 30
0.0
  0
SEQEND
  5
1188
330
297
100
AcDbEntity
  8
LAYER_2
  0
POLYLINE
  5
2A5
330
284
100
AcDbEntity
  8
LAYER_2
100
AcDb2dPolyline
 66
     1
 10
0.0
 20
0.0
 30
0.0
 70
     1
 40
0.35278
 41
0.35278
  0
VERTEX
  5
1189
330
2A5
100
AcDbEntity
  8
LAYER_2
100
AcDbVertex
100
AcDb2dVertex
 10
-31.2575
 20
265.919
 30
0.0
 42
-0.0493
  0
VERTEX
  5
118A
330
2A5
100
AcDbEntity
  8
LAYER_2
100
AcDbVertex
100
AcDb2dVertex
 10
-31.2224
 20
265.901
 30
0.0
 42
-0.143
  0
VERTEX
  5
118B
330
2A5
100
AcDbEntity
  8
LAYER_2
100
AcDbVertex
100
AcDb2dVertex
 10
-31.2042
 20
265.8799999999999
 30
0.0
 42
-0.1862
  0
VERTEX
  5
118C
330
2A5
100
AcDbEntity
  8
LAYER_2
100
AcDbVertex
100
AcDb2dVertex
 10
-31.2041
 20
265.862
 30
0.0
 42
-0.1188
  0
VERTEX
  5
118D
330
2A5
100
AcDbEntity
  8
LAYER_2
100
AcDbVertex
100
AcDb2dVertex
 10
-31.2189
 20
265.842
 30
0.0
 42
-0.0616
  0
VERTEX
  5
118E
330
2A5
100
AcDbEntity
  8
LAYER_2
100
AcDbVertex
100
AcDb2dVertex
 10
-31.25669999999999
 20
265.817
 30
0.0
 42
-0.0356
  0
VERTEX
  5
118F
330
2A5
100
AcDbEntity
  8
LAYER_2
100
AcDbVertex
100
AcDb2dVertex
 10
-31.3397
 20
265.781
 30
0.0
 42
-0.0134
  0
VERTEX
  5
1190
330
2A5
100
AcDbEntity
  8
LAYER_2
100
AcDbVertex
100
AcDb2dVertex
 10
-31.4229
 20
265.754
 30
0.0
 42
-0.1092
  0
VERTEX
  5
1191
330
2A5
100
AcDbEntity
  8
LAYER_2
100
AcDbVertex
100
AcDb2dVertex
 10
-33.3225
 20
263.949
 30
0.0
 42
-0.0465
  0
VERTEX
  5
1192
330
2A5
100
AcDbEntity
  8
LAYER_2
100
AcDbVertex
100
AcDb2dVertex
 10
-34.5649
 20
263.3389999999999
 30
0.0
  0
VERTEX
  5
1193
330
2A5
100
AcDbEntity
  8
LAYER_2
100
AcDbVertex
100
AcDb2dVertex
 10
-34.9617
 20
264.067
 30
0.0
 42
0.0494
  0
VERTEX
  5
1194
330
2A5
100
AcDbEntity
  8
LAYER_2
100
AcDbVertex
100
AcDb2dVertex
 10
-33.5941
 20
264.74
 30
0.0
 42
0.0735
  0
VERTEX
  5
1195
330
2A5
100
AcDbEntity
  8
LAYER_2
100
AcDbVertex
100
AcDb2dVertex
 10
-32.3811
 20
265.792
 30
0.0
 42
0.0425
  0
VERTEX
  5
1196
330
2A5
100
AcDbEntity
  8
LAYER_2
100
AcDbVertex
100
AcDb2dVertex
 10
-31.919
 20
266.4479999999999
 30
0.0
  0
SEQEND
  5
1197
330
2A5
100
AcDbEntity
  8
LAYER_2
  0
POLYLINE
  5
2B5
330
284
100
AcDbEntity
  8
LAYER_2
100
AcDb2dPolyline
 66
     1
 10
0.0
 20
0.0
 30
0.0
 70
     1
 40
0.35278
 41
0.35278
  0
VERTEX
  5
1198
330
2B5
100
AcDbEntity
  8
LAYER_2
100
AcDbVertex
100
AcDb2dVertex
 10
-36.1854
 20
269.425
 30
0.0
  0
VERTEX
  5
1199
330
2B5
100
AcDbEntity
  8
LAYER_2
100
AcDbVertex
100
AcDb2dVertex
 10
-37.0784
 20
269.425
 30
0.0
  0
VERTEX
  5
119A
330
2B5
100
AcDbEntity
  8
LAYER_2
100
AcDbVertex
100
AcDb2dVertex
 10
-37.0784
 20
267.606
 30
0.0
  0
VERTEX
  5
119B
330
2B5
100
AcDbEntity
  8
LAYER_2
100
AcDbVertex
100
AcDb2dVertex
 10
-36.1854
 20
267.606
 30
0.0
  0
SEQEND
  5
119C
330
2B5
100
AcDbEntity
  8
LAYER_2
  0
POLYLINE
  5
2BB
330
284
100
AcDbEntity
  8
LAYER_2
100
AcDb2dPolyline
 66
     1
 10
0.0
 20
0.0
 30
0.0
 70
     1
 40
0.35278
 41
0.35278
  0
VERTEX
  5
119D
330
2BB
100
AcDbEntity
  8
LAYER_2
100
AcDbVertex
100
AcDb2dVertex
 10
-37.73989999999999
 20
266.977
 30
0.0
  0
VERTEX
  5
119E
330
2BB
100
AcDbEntity
  8
LAYER_2
100
AcDbVertex
100
AcDb2dVertex
 10
-38.69899999999999
 20
266.977
 30
0.0
  0
VERTEX
  5
119F
330
2BB
100
AcDbEntity
  8
LAYER_2
100
AcDbVertex
100
AcDb2dVertex
 10
-38.69899999999999
 20
267.606
 30
0.0
  0
VERTEX
  5
11A0
330
2BB
100
AcDbEntity
  8
LAYER_2
100
AcDbVertex
100
AcDb2dVertex
 10
-37.73989999999999
 20
267.606
 30
0.0
  0
VERTEX
  5
11A1
330
2BB
100
AcDbEntity
  8
LAYER_2
100
AcDbVertex
100
AcDb2dVertex
 10
-37.73989999999999
 20
269.425
 30
0.0
  0
VERTEX
  5
11A2
330
2BB
100
AcDbEntity
  8
LAYER_2
100
AcDbVertex
100
AcDb2dVertex
 10
-38.4013
 20
269.425
 30
0.0
  0
VERTEX
  5
11A3
330
2BB
100
AcDbEntity
  8
LAYER_2
100
AcDbVertex
100
AcDb2dVertex
 10
-38.4013
 20
270.053
 30
0.0
  0
VERTEX
  5
11A4
330
2BB
100
AcDbEntity
  8
LAYER_2
100
AcDbVertex
100
AcDb2dVertex
 10
-34.8956
 20
270.053
 30
0.0
  0
VERTEX
  5
11A5
330
2BB
100
AcDbEntity
  8
LAYER_2
100
AcDbVertex
100
AcDb2dVertex
 10
-34.8956
 20
269.425
 30
0.0
  0
VERTEX
  5
11A6
330
2BB
100
AcDbEntity
  8
LAYER_2
100
AcDbVertex
100
AcDb2dVertex
 10
-35.524
 20
269.425
 30
0.0
  0
VERTEX
  5
11A7
330
2BB
100
AcDbEntity
  8
LAYER_2
100
AcDbVertex
100
AcDb2dVertex
 10
-35.524
 20
267.606
 30
0.0
  0
VERTEX
  5
11A8
330
2BB
100
AcDbEntity
  8
LAYER_2
100
AcDbVertex
100
AcDb2dVertex
 10
-34.5649
 20
267.606
 30
0.0
  0
VERTEX
  5
11A9
330
2BB
100
AcDbEntity
  8
LAYER_2
100
AcDbVertex
100
AcDb2dVertex
 10
-34.5649
 20
266.977
 30
0.0
  0
VERTEX
  5
11AA
330
2BB
100
AcDbEntity
  8
LAYER_2
100
AcDbVertex
100
AcDb2dVertex
 10
-35.524
 20
266.977
 30
0.0
  0
VERTEX
  5
11AB
330
2BB
100
AcDbEntity
  8
LAYER_2
100
AcDbVertex
100
AcDb2dVertex
 10
-35.524
 20
263.24
 30
0.0
  0
VERTEX
  5
11AC
330
2BB
100
AcDbEntity
  8
LAYER_2
100
AcDbVertex
100
AcDb2dVertex
 10
-36.1854
 20
263.24
 30
0.0
  0
VERTEX
  5
11AD
330
2BB
100
AcDbEntity
  8
LAYER_2
100
AcDbVertex
100
AcDb2dVertex
 10
-36.1854
 20
266.977
 30
0.0
  0
VERTEX
  5
11AE
330
2BB
100
AcDbEntity
  8
LAYER_2
100
AcDbVertex
100
AcDb2dVertex
 10
-37.0784
 20
266.977
 30
0.0
  0
VERTEX
  5
11AF
330
2BB
100
AcDbEntity
  8
LAYER_2
100
AcDbVertex
100
AcDb2dVertex
 10
-37.0784
 20
266.415
 30
0.0
 42
-0.0354
  0
VERTEX
  5
11B0
330
2BB
100
AcDbEntity
  8
LAYER_2
100
AcDbVertex
100
AcDb2dVertex
 10
-37.1666
 20
265.168
 30
0.0
 42
-0.0485
  0
VERTEX
  5
11B1
330
2BB
100
AcDbEntity
  8
LAYER_2
100
AcDbVertex
100
AcDb2dVertex
 10
-37.4228
 20
264.16
 30
0.0
 42
-0.0767
  0
VERTEX
  5
11B2
330
2BB
100
AcDbEntity
  8
LAYER_2
100
AcDbVertex
100
AcDb2dVertex
 10
-37.93829999999999
 20
263.24
 30
0.0
  0
VERTEX
  5
11B3
330
2BB
100
AcDbEntity
  8
LAYER_2
100
AcDbVertex
100
AcDb2dVertex
 10
-38.56669999999999
 20
263.736
 30
0.0
 42
0.0745
  0
VERTEX
  5
11B4
330
2BB
100
AcDbEntity
  8
LAYER_2
100
AcDbVertex
100
AcDb2dVertex
 10
-38.1764
 20
264.2649999999999
 30
0.0
 42
0.0528
  0
VERTEX
  5
11B5
330
2BB
100
AcDbEntity
  8
LAYER_2
100
AcDbVertex
100
AcDb2dVertex
 10
-37.94019999999999
 20
264.8399999999999
 30
0.0
 42
0.0416
  0
VERTEX
  5
11B6
330
2BB
100
AcDbEntity
  8
LAYER_2
100
AcDbVertex
100
AcDb2dVertex
 10
-37.7948
 20
265.528
 30
0.0
 42
0.035
  0
VERTEX
  5
11B7
330
2BB
100
AcDbEntity
  8
LAYER_2
100
AcDbVertex
100
AcDb2dVertex
 10
-37.73989999999999
 20
266.415
 30
0.0
  0
SEQEND
  5
11B8
330
2BB
100
AcDbEntity
  8
LAYER_2
  0
ENDBLK
  5
2D8
330
284
100
AcDbEntity
  8
0
100
AcDbBlockEnd
  0
BLOCK
  5
2DA
330
2D9
100
AcDbEntity
  8
LAYER_2
100
AcDbBlockBegin
  2
AIGNBL02020005
 70
     0
 10
0.0
 20
0.0
 30
0.0
  3
AIGNBL02020005
  1

  0
POLYLINE
  5
2DB
330
2D9
100
AcDbEntity
  8
LAYER_2
100
AcDb2dPolyline
 66
     1
 10
0.0
 20
0.0
 30
0.0
 70
     1
 40
0.35278
 41
0.35278
  0
VERTEX
  5
11B9
330
2DB
100
AcDbEntity
  8
LAYER_2
100
AcDbVertex
100
AcDb2dVertex
 10
-40.28649999999999
 20
265.324
 30
0.0
 42
-0.0099
  0
VERTEX
  5
11BA
330
2DB
100
AcDbEntity
  8
LAYER_2
100
AcDbVertex
100
AcDb2dVertex
 10
-41.04239999999999
 20
265.867
 30
0.0
 42
-0.0221
  0
VERTEX
  5
11BB
330
2DB
100
AcDbEntity
  8
LAYER_2
100
AcDbVertex
100
AcDb2dVertex
 10
-41.70869999999999
 20
266.415
 30
0.0
  0
VERTEX
  5
11BC
330
2DB
100
AcDbEntity
  8
LAYER_2
100
AcDbVertex
100
AcDb2dVertex
 10
-41.70869999999999
 20
263.207
 30
0.0
  0
VERTEX
  5
11BD
330
2DB
100
AcDbEntity
  8
LAYER_2
100
AcDbVertex
100
AcDb2dVertex
 10
-42.3701
 20
263.207
 30
0.0
  0
VERTEX
  5
11BE
330
2DB
100
AcDbEntity
  8
LAYER_2
100
AcDbVertex
100
AcDb2dVertex
 10
-42.3701
 20
267.077
 30
0.0
 42
-0.0363
  0
VERTEX
  5
11BF
330
2DB
100
AcDbEntity
  8
LAYER_2
100
AcDbVertex
100
AcDb2dVertex
 10
-43.49459999999999
 20
268.73
 30
0.0
  0
VERTEX
  5
11C0
330
2DB
100
AcDbEntity
  8
LAYER_2
100
AcDbVertex
100
AcDb2dVertex
 10
-42.9654
 20
269.127
 30
0.0
 42
0.0297
  0
VERTEX
  5
11C1
330
2DB
100
AcDbEntity
  8
LAYER_2
100
AcDbVertex
100
AcDb2dVertex
 10
-42.3701
 20
268.2009999999999
 30
0.0
  0
VERTEX
  5
11C2
330
2DB
100
AcDbEntity
  8
LAYER_2
100
AcDbVertex
100
AcDb2dVertex
 10
-42.3701
 20
270.483
 30
0.0
  0
VERTEX
  5
11C3
330
2DB
100
AcDbEntity
  8
LAYER_2
100
AcDbVertex
100
AcDb2dVertex
 10
-41.7417
 20
270.483
 30
0.0
 42
-0.0305
  0
VERTEX
  5
11C4
330
2DB
100
AcDbEntity
  8
LAYER_2
100
AcDbVertex
100
AcDb2dVertex
 10
-41.6771
 20
270.4709999999999
 30
0.0
 42
-0.0665
  0
VERTEX
  5
11C5
330
2DB
100
AcDbEntity
  8
LAYER_2
100
AcDbVertex
100
AcDb2dVertex
 10
-41.6302
 20
270.4529999999999
 30
0.0
 42
-0.4159
  0
VERTEX
  5
11C6
330
2DB
100
AcDbEntity
  8
LAYER_2
100
AcDbVertex
100
AcDb2dVertex
 10
-41.6091
 20
270.3809999999999
 30
0.0
 42
-0.0654
  0
VERTEX
  5
11C7
330
2DB
100
AcDbEntity
  8
LAYER_2
100
AcDbVertex
100
AcDb2dVertex
 10
-41.6351
 20
270.346
 30
0.0
 42
-0.0492
  0
VERTEX
  5
11C8
330
2DB
100
AcDbEntity
  8
LAYER_2
100
AcDbVertex
100
AcDb2dVertex
 10
-41.70869999999999
 20
270.285
 30
0.0
  0
VERTEX
  5
11C9
330
2DB
100
AcDbEntity
  8
LAYER_2
100
AcDbVertex
100
AcDb2dVertex
 10
-41.70869999999999
 20
267.4399999999999
 30
0.0
 42
0.0299
  0
VERTEX
  5
11CA
330
2DB
100
AcDbEntity
  8
LAYER_2
100
AcDbVertex
100
AcDb2dVertex
 10
-41.67399999999999
 20
267.3799999999999
 30
0.0
 42
0.0287
  0
VERTEX
  5
11CB
330
2DB
100
AcDbEntity
  8
LAYER_2
100
AcDbVertex
100
AcDb2dVertex
 10
-41.6079
 20
267.2909999999999
 30
0.0
 42
0.022
  0
VERTEX
  5
11CC
330
2DB
100
AcDbEntity
  8
LAYER_2
100
AcDbVertex
100
AcDb2dVertex
 10
-41.5112
 20
267.185
 30
0.0
 42
0.0182
  0
VERTEX
  5
11CD
330
2DB
100
AcDbEntity
  8
LAYER_2
100
AcDbVertex
100
AcDb2dVertex
 10
-41.366
 20
267.049
 30
0.0
 42
0.0132
  0
VERTEX
  5
11CE
330
2DB
100
AcDbEntity
  8
LAYER_2
100
AcDbVertex
100
AcDb2dVertex
 10
-41.1861
 20
266.901
 30
0.0
 42
0.0112
  0
VERTEX
  5
11CF
330
2DB
100
AcDbEntity
  8
LAYER_2
100
AcDbVertex
100
AcDb2dVertex
 10
-40.9377
 20
266.7159999999999
 30
0.0
 42
0.009
  0
VERTEX
  5
11D0
330
2DB
100
AcDbEntity
  8
LAYER_2
100
AcDbVertex
100
AcDb2dVertex
 10
-40.62409999999999
 20
266.5009999999999
 30
0.0
 42
0.0136
  0
VERTEX
  5
11D1
330
2DB
100
AcDbEntity
  8
LAYER_2
100
AcDbVertex
100
AcDb2dVertex
 10
-39.79039999999999
 20
265.985
 30
0.0
  0
SEQEND
  5
11D2
330
2DB
100
AcDbEntity
  8
LAYER_2
  0
POLYLINE
  5
2F6
330
2D9
100
AcDbEntity
  8
LAYER_2
100
AcDb2dPolyline
 66
     1
 10
0.0
 20
0.0
 30
0.0
 70
     1
 40
0.35278
 41
0.35278
  0
VERTEX
  5
11D3
330
2F6
100
AcDbEntity
  8
LAYER_2
100
AcDbVertex
100
AcDb2dVertex
 10
-44.32139999999999
 20
268.3329999999999
 30
0.0
  0
VERTEX
  5
11D4
330
2F6
100
AcDbEntity
  8
LAYER_2
100
AcDbVertex
100
AcDb2dVertex
 10
-45.5782
 20
268.3329999999999
 30
0.0
  0
VERTEX
  5
11D5
330
2F6
100
AcDbEntity
  8
LAYER_2
100
AcDbVertex
100
AcDb2dVertex
 10
-45.84279999999999
 20
267.606
 30
0.0
 42
-0.0226
  0
VERTEX
  5
11D6
330
2F6
100
AcDbEntity
  8
LAYER_2
100
AcDbVertex
100
AcDb2dVertex
 10
-45.46339999999999
 20
267.348
 30
0.0
 42
-0.0191
  0
VERTEX
  5
11D7
330
2F6
100
AcDbEntity
  8
LAYER_2
100
AcDbVertex
100
AcDb2dVertex
 10
-44.75139999999999
 20
266.779
 30
0.0
 42
0.0515
  0
SEQEND
  5
11D8
330
2F6
100
AcDbEntity
  8
LAYER_2
  0
POLYLINE
  5
2FD
330
2D9
100
AcDbEntity
  8
LAYER_2
100
AcDb2dPolyline
 66
     1
 10
0.0
 20
0.0
 30
0.0
 70
     1
 40
0.35278
 41
0.35278
  0
VERTEX
  5
11D9
330
2FD
100
AcDbEntity
  8
LAYER_2
100
AcDbVertex
100
AcDb2dVertex
 10
-46.93419999999999
 20
263.9349999999999
 30
0.0
 42
0.0659
  0
VERTEX
  5
11DA
330
2FD
100
AcDbEntity
  8
LAYER_2
100
AcDbVertex
100
AcDb2dVertex
 10
-46.0299
 20
264.694
 30
0.0
 42
0.046
  0
VERTEX
  5
11DB
330
2FD
100
AcDbEntity
  8
LAYER_2
100
AcDbVertex
100
AcDb2dVertex
 10
-45.32169999999999
 20
265.608
 30
0.0
 42
0.0174
  0
VERTEX
  5
11DC
330
2FD
100
AcDbEntity
  8
LAYER_2
100
AcDbVertex
100
AcDb2dVertex
 10
-45.016
 20
266.117
 30
0.0
 42
0.0128
  0
VERTEX
  5
11DD
330
2FD
100
AcDbEntity
  8
LAYER_2
100
AcDbVertex
100
AcDb2dVertex
 10
-45.5679
 20
266.589
 30
0.0
 42
0.0275
  0
VERTEX
  5
11DE
330
2FD
100
AcDbEntity
  8
LAYER_2
100
AcDbVertex
100
AcDb2dVertex
 10
-46.10739999999999
 20
266.977
 30
0.0
 42
-0.0797
  0
VERTEX
  5
11DF
330
2FD
100
AcDbEntity
  8
LAYER_2
100
AcDbVertex
100
AcDb2dVertex
 10
-46.7358
 20
265.952
 30
0.0
  0
VERTEX
  5
11E0
330
2FD
100
AcDbEntity
  8
LAYER_2
100
AcDbVertex
100
AcDb2dVertex
 10
-47.33109999999999
 20
266.382
 30
0.0
 42
0.0585
  0
VERTEX
  5
11E1
330
2FD
100
AcDbEntity
  8
LAYER_2
100
AcDbVertex
100
AcDb2dVertex
 10
-46.64489999999999
 20
267.476
 30
0.0
 42
0.0428
  0
VERTEX
  5
11E2
330
2FD
100
AcDbEntity
  8
LAYER_2
100
AcDbVertex
100
AcDb2dVertex
 10
-46.2079
 20
268.622
 30
0.0
 42
0.0368
  0
VERTEX
  5
11E3
330
2FD
100
AcDbEntity
  8
LAYER_2
100
AcDbVertex
100
AcDb2dVertex
 10
-45.9089
 20
270.0199999999999
 30
0.0
  0
VERTEX
  5
11E4
330
2FD
100
AcDbEntity
  8
LAYER_2
100
AcDbVertex
100
AcDb2dVertex
 10
-45.2144
 20
269.822
 30
0.0
 42
-0.0392
  0
VERTEX
  5
11E5
330
2FD
100
AcDbEntity
  8
LAYER_2
100
AcDbVertex
100
AcDb2dVertex
 10
-45.1775
 20
269.787
 30
0.0
 42
-0.0763
  0
VERTEX
  5
11E6
330
2FD
100
AcDbEntity
  8
LAYER_2
100
AcDbVertex
100
AcDb2dVertex
 10
-45.15279999999999
 20
269.75
 30
0.0
 42
-0.3281
  0
VERTEX
  5
11E7
330
2FD
100
AcDbEntity
  8
LAYER_2
100
AcDbVertex
100
AcDb2dVertex
 10
-45.17459999999999
 20
269.6549999999999
 30
0.0
 42
-0.0582
  0
VERTEX
  5
11E8
330
2FD
100
AcDbEntity
  8
LAYER_2
100
AcDbVertex
100
AcDb2dVertex
 10
-45.2153
 20
269.624
 30
0.0
 42
-0.0385
  0
VERTEX
  5
11E9
330
2FD
100
AcDbEntity
  8
LAYER_2
100
AcDbVertex
100
AcDb2dVertex
 10
-45.28059999999999
 20
269.5899999999999
 30
0.0
  0
VERTEX
  5
11EA
330
2FD
100
AcDbEntity
  8
LAYER_2
100
AcDbVertex
100
AcDb2dVertex
 10
-45.41279999999999
 20
268.962
 30
0.0
  0
VERTEX
  5
11EB
330
2FD
100
AcDbEntity
  8
LAYER_2
100
AcDbVertex
100
AcDb2dVertex
 10
-44.1561
 20
268.962
 30
0.0
  0
VERTEX
  5
11EC
330
2FD
100
AcDbEntity
  8
LAYER_2
100
AcDbVertex
100
AcDb2dVertex
 10
-44.02379999999999
 20
269.0939999999999
 30
0.0
  0
VERTEX
  5
11ED
330
2FD
100
AcDbEntity
  8
LAYER_2
100
AcDbVertex
100
AcDb2dVertex
 10
-43.5608
 20
268.697
 30
0.0
 42
-0.126
  0
VERTEX
  5
11EE
330
2FD
100
AcDbEntity
  8
LAYER_2
100
AcDbVertex
100
AcDb2dVertex
 10
-43.5249
 20
268.637
 30
0.0
 42
-0.2071
  0
VERTEX
  5
11EF
330
2FD
100
AcDbEntity
  8
LAYER_2
100
AcDbVertex
100
AcDb2dVertex
 10
-43.5401
 20
268.5729999999999
 30
0.0
 42
-0.0662
  0
VERTEX
  5
11F0
330
2FD
100
AcDbEntity
  8
LAYER_2
100
AcDbVertex
100
AcDb2dVertex
 10
-43.5724
 20
268.537
 30
0.0
 42
-0.0436
  0
VERTEX
  5
11F1
330
2FD
100
AcDbEntity
  8
LAYER_2
100
AcDbVertex
100
AcDb2dVertex
 10
-43.62689999999999
 20
268.499
 30
0.0
 42
-0.0424
  0
VERTEX
  5
11F2
330
2FD
100
AcDbEntity
  8
LAYER_2
100
AcDbVertex
100
AcDb2dVertex
 10
-44.0235
 20
266.767
 30
0.0
 42
-0.0669
  0
VERTEX
  5
11F3
330
2FD
100
AcDbEntity
  8
LAYER_2
100
AcDbVertex
100
AcDb2dVertex
 10
-44.906
 20
264.9509999999999
 30
0.0
 42
-0.0916
  0
VERTEX
  5
11F4
330
2FD
100
AcDbEntity
  8
LAYER_2
100
AcDbVertex
100
AcDb2dVertex
 10
-46.5043
 20
263.3389999999999
 30
0.0
  0
SEQEND
  5
11F5
330
2FD
100
AcDbEntity
  8
LAYER_2
  0
ENDBLK
  5
31B
330
2D9
100
AcDbEntity
  8
0
100
AcDbBlockEnd
  0
BLOCK
  5
31D
330
31C
100
AcDbEntity
  8
LAYER_2
100
AcDbBlockBegin
  2
AIGNBL02020006
 70
     0
 10
0.0
 20
0.0
 30
0.0
  3
AIGNBL02020006
  1

  0
POLYLINE
  5
31E
330
31C
100
AcDbEntity
  8
LAYER_2
100
AcDb2dPolyline
 66
     1
 10
0.0
 20
0.0
 30
0.0
 70
     1
 40
0.35278
 41
0.35278
  0
VERTEX
  5
11F6
330
31E
100
AcDbEntity
  8
LAYER_2
100
AcDbVertex
100
AcDb2dVertex
 10
-49.51389999999999
 20
266.0179999999999
 30
0.0
  0
VERTEX
  5
11F7
330
31E
100
AcDbEntity
  8
LAYER_2
100
AcDbVertex
100
AcDb2dVertex
 10
-49.51389999999999
 20
268.929
 30
0.0
  0
VERTEX
  5
11F8
330
31E
100
AcDbEntity
  8
LAYER_2
100
AcDbVertex
100
AcDb2dVertex
 10
-51.0022
 20
266.0179999999999
 30
0.0
  0
SEQEND
  5
11F9
330
31E
100
AcDbEntity
  8
LAYER_2
  0
POLYLINE
  5
323
330
31C
100
AcDbEntity
  8
LAYER_2
100
AcDb2dPolyline
 66
     1
 10
0.0
 20
0.0
 30
0.0
 70
     1
 40
0.35278
 41
0.35278
  0
VERTEX
  5
11FA
330
323
100
AcDbEntity
  8
LAYER_2
100
AcDbVertex
100
AcDb2dVertex
 10
-49.51389999999999
 20
263.8679999999999
 30
0.0
  0
VERTEX
  5
11FB
330
323
100
AcDbEntity
  8
LAYER_2
100
AcDbVertex
100
AcDb2dVertex
 10
-49.51389999999999
 20
264.629
 30
0.0
  0
VERTEX
  5
11FC
330
323
100
AcDbEntity
  8
LAYER_2
100
AcDbVertex
100
AcDb2dVertex
 10
-49.51389999999999
 20
265.3899999999999
 30
0.0
  0
VERTEX
  5
11FD
330
323
100
AcDbEntity
  8
LAYER_2
100
AcDbVertex
100
AcDb2dVertex
 10
-51.72979999999999
 20
265.3899999999999
 30
0.0
  0
VERTEX
  5
11FE
330
323
100
AcDbEntity
  8
LAYER_2
100
AcDbVertex
100
AcDb2dVertex
 10
-51.72979999999999
 20
266.0179999999999
 30
0.0
  0
VERTEX
  5
11FF
330
323
100
AcDbEntity
  8
LAYER_2
100
AcDbVertex
100
AcDb2dVertex
 10
-49.51389999999999
 20
270.3179999999999
 30
0.0
  0
VERTEX
  5
1200
330
323
100
AcDbEntity
  8
LAYER_2
100
AcDbVertex
100
AcDb2dVertex
 10
-48.7532
 20
270.3179999999999
 30
0.0
  0
VERTEX
  5
1201
330
323
100
AcDbEntity
  8
LAYER_2
100
AcDbVertex
100
AcDb2dVertex
 10
-48.7532
 20
266.0179999999999
 30
0.0
  0
VERTEX
  5
1202
330
323
100
AcDbEntity
  8
LAYER_2
100
AcDbVertex
100
AcDb2dVertex
 10
-48.0587
 20
266.0179999999999
 30
0.0
  0
VERTEX
  5
1203
330
323
100
AcDbEntity
  8
LAYER_2
100
AcDbVertex
100
AcDb2dVertex
 10
-48.0587
 20
265.3899999999999
 30
0.0
  0
VERTEX
  5
1204
330
323
100
AcDbEntity
  8
LAYER_2
100
AcDbVertex
100
AcDb2dVertex
 10
-48.7532
 20
265.3899999999999
 30
0.0
  0
VERTEX
  5
1205
330
323
100
AcDbEntity
  8
LAYER_2
100
AcDbVertex
100
AcDb2dVertex
 10
-48.7532
 20
263.8679999999999
 30
0.0
  0
SEQEND
  5
1206
330
323
100
AcDbEntity
  8
LAYER_2
  0
ENDBLK
  5
331
330
31C
100
AcDbEntity
  8
0
100
AcDbBlockEnd
  0
BLOCK
  5
333
330
332
100
AcDbEntity
  8
LAYER_2
100
AcDbBlockBegin
  2
AIGNBL02020007
 70
     0
 10
0.0
 20
0.0
 30
0.0
  3
AIGNBL02020007
  1

  0
POLYLINE
  5
334
330
332
100
AcDbEntity
  8
LAYER_2
100
AcDb2dPolyline
 66
     1
 10
0.0
 20
0.0
 30
0.0
 70
     1
 40
0.35278
 41
0.35278
  0
VERTEX
  5
1207
330
334
100
AcDbEntity
  8
LAYER_2
100
AcDbVertex
100
AcDb2dVertex
 10
-55.23559999999999
 20
268.697
 30
0.0
  0
VERTEX
  5
1208
330
334
100
AcDbEntity
  8
LAYER_2
100
AcDbVertex
100
AcDb2dVertex
 10
-55.23559999999999
 20
263.8679999999999
 30
0.0
  0
VERTEX
  5
1209
330
334
100
AcDbEntity
  8
LAYER_2
100
AcDbVertex
100
AcDb2dVertex
 10
-55.897
 20
263.8679999999999
 30
0.0
  0
VERTEX
  5
120A
330
334
100
AcDbEntity
  8
LAYER_2
100
AcDbVertex
100
AcDb2dVertex
 10
-55.897
 20
270.3179999999999
 30
0.0
  0
VERTEX
  5
120B
330
334
100
AcDbEntity
  8
LAYER_2
100
AcDbVertex
100
AcDb2dVertex
 10
-54.8387
 20
270.3179999999999
 30
0.0
  0
VERTEX
  5
120C
330
334
100
AcDbEntity
  8
LAYER_2
100
AcDbVertex
100
AcDb2dVertex
 10
-54.14419999999999
 20
266.117
 30
0.0
  0
VERTEX
  5
120D
330
334
100
AcDbEntity
  8
LAYER_2
100
AcDbVertex
100
AcDb2dVertex
 10
-54.078
 20
266.117
 30
0.0
  0
VERTEX
  5
120E
330
334
100
AcDbEntity
  8
LAYER_2
100
AcDbVertex
100
AcDb2dVertex
 10
-53.3835
 20
270.3179999999999
 30
0.0
  0
VERTEX
  5
120F
330
334
100
AcDbEntity
  8
LAYER_2
100
AcDbVertex
100
AcDb2dVertex
 10
-52.3251
 20
270.3179999999999
 30
0.0
  0
VERTEX
  5
1210
330
334
100
AcDbEntity
  8
LAYER_2
100
AcDbVertex
100
AcDb2dVertex
 10
-52.3251
 20
263.8679999999999
 30
0.0
  0
VERTEX
  5
1211
330
334
100
AcDbEntity
  8
LAYER_2
100
AcDbVertex
100
AcDb2dVertex
 10
-52.9866
 20
263.8679999999999
 30
0.0
  0
VERTEX
  5
1212
330
334
100
AcDbEntity
  8
LAYER_2
100
AcDbVertex
100
AcDb2dVertex
 10
-52.9866
 20
268.697
 30
0.0
  0
VERTEX
  5
1213
330
334
100
AcDbEntity
  8
LAYER_2
100
AcDbVertex
100
AcDb2dVertex
 10
-53.0527
 20
268.697
 30
0.0
  0
VERTEX
  5
1214
330
334
100
AcDbEntity
  8
LAYER_2
100
AcDbVertex
100
AcDb2dVertex
 10
-53.8465
 20
263.8679999999999
 30
0.0
  0
VERTEX
  5
1215
330
334
100
AcDbEntity
  8
LAYER_2
100
AcDbVertex
100
AcDb2dVertex
 10
-54.3757
 20
263.8679999999999
 30
0.0
  0
VERTEX
  5
1216
330
334
100
AcDbEntity
  8
LAYER_2
100
AcDbVertex
100
AcDb2dVertex
 10
-55.1694
 20
268.697
 30
0.0
  0
SEQEND
  5
1217
330
334
100
AcDbEntity
  8
LAYER_2
  0
ENDBLK
  5
346
330
332
100
AcDbEntity
  8
0
100
AcDbBlockEnd
  0
BLOCK
  5
348
330
347
100
AcDbEntity
  8
LAYER_2
100
AcDbBlockBegin
  2
AIGNBL02020008
 70
     0
 10
0.0
 20
0.0
 30
0.0
  3
AIGNBL02020008
  1

  0
POLYLINE
  5
349
330
347
100
AcDbEntity
  8
LAYER_2
100
AcDb2dPolyline
 66
     1
 10
0.0
 20
0.0
 30
0.0
 70
     1
 40
0.35278
 41
0.35278
  0
VERTEX
  5
1218
330
349
100
AcDbEntity
  8
LAYER_2
100
AcDbVertex
100
AcDb2dVertex
 10
-57.6499
 20
267.7709999999999
 30
0.0
 42
0.1257
  0
VERTEX
  5
1219
330
349
100
AcDbEntity
  8
LAYER_2
100
AcDbVertex
100
AcDb2dVertex
 10
-57.4474
 20
268.114
 30
0.0
 42
0.052
  0
VERTEX
  5
121A
330
349
100
AcDbEntity
  8
LAYER_2
100
AcDbVertex
100
AcDb2dVertex
 10
-57.3954
 20
268.3679999999999
 30
0.0
 42
0.0271
  0
VERTEX
  5
121B
330
349
100
AcDbEntity
  8
LAYER_2
100
AcDbVertex
100
AcDb2dVertex
 10
-57.3853
 20
268.5649999999999
 30
0.0
 42
0.0648
  0
VERTEX
  5
121C
330
349
100
AcDbEntity
  8
LAYER_2
100
AcDbVertex
100
AcDb2dVertex
 10
-57.4326
 20
268.929
 30
0.0
 42
0.1264
  0
VERTEX
  5
121D
330
349
100
AcDbEntity
  8
LAYER_2
100
AcDbVertex
100
AcDb2dVertex
 10
-57.68299999999999
 20
269.359
 30
0.0
 42
0.1627
  0
VERTEX
  5
121E
330
349
100
AcDbEntity
  8
LAYER_2
100
AcDbVertex
100
AcDb2dVertex
 10
-58.3093
 20
269.669
 30
0.0
 42
0.0414
  0
VERTEX
  5
121F
330
349
100
AcDbEntity
  8
LAYER_2
100
AcDbVertex
100
AcDb2dVertex
 10
-58.5759
 20
269.689
 30
0.0
  0
VERTEX
  5
1220
330
349
100
AcDbEntity
  8
LAYER_2
100
AcDbVertex
100
AcDb2dVertex
 10
-59.3036
 20
269.689
 30
0.0
  0
VERTEX
  5
1221
330
349
100
AcDbEntity
  8
LAYER_2
100
AcDbVertex
100
AcDb2dVertex
 10
-59.3036
 20
267.473
 30
0.0
  0
VERTEX
  5
1222
330
349
100
AcDbEntity
  8
LAYER_2
100
AcDbVertex
100
AcDb2dVertex
 10
-58.3444
 20
267.473
 30
0.0
 42
0.2023
  0
SEQEND
  5
1223
330
349
100
AcDbEntity
  8
LAYER_2
  0
POLYLINE
  5
356
330
347
100
AcDbEntity
  8
LAYER_2
100
AcDb2dPolyline
 66
     1
 10
0.0
 20
0.0
 30
0.0
 70
     1
 40
0.35278
 41
0.35278
  0
VERTEX
  5
1224
330
356
100
AcDbEntity
  8
LAYER_2
100
AcDbVertex
100
AcDb2dVertex
 10
-57.0546
 20
269.789
 30
0.0
 42
-0.119
  0
VERTEX
  5
1225
330
356
100
AcDbEntity
  8
LAYER_2
100
AcDbVertex
100
AcDb2dVertex
 10
-56.7255
 20
269.2479999999999
 30
0.0
 42
-0.0651
  0
VERTEX
  5
1226
330
356
100
AcDbEntity
  8
LAYER_2
100
AcDbVertex
100
AcDb2dVertex
 10
-56.63219999999999
 20
268.7689999999999
 30
0.0
 42
-0.0191
  0
VERTEX
  5
1227
330
356
100
AcDbEntity
  8
LAYER_2
100
AcDbVertex
100
AcDb2dVertex
 10
-56.6246
 20
268.5649999999999
 30
0.0
 42
-0.0725
  0
VERTEX
  5
1228
330
356
100
AcDbEntity
  8
LAYER_2
100
AcDbVertex
100
AcDb2dVertex
 10
-56.71289999999999
 20
267.9599999999999
 30
0.0
 42
-0.1096
  0
VERTEX
  5
1229
330
356
100
AcDbEntity
  8
LAYER_2
100
AcDbVertex
100
AcDb2dVertex
 10
-57.0546
 20
267.374
 30
0.0
 42
-0.0528
  0
VERTEX
  5
122A
330
356
100
AcDbEntity
  8
LAYER_2
100
AcDbVertex
100
AcDb2dVertex
 10
-57.3801
 20
267.0819999999999
 30
0.0
 42
-0.0669
  0
VERTEX
  5
122B
330
356
100
AcDbEntity
  8
LAYER_2
100
AcDbVertex
100
AcDb2dVertex
 10
-57.6499
 20
266.944
 30
0.0
  0
VERTEX
  5
122C
330
356
100
AcDbEntity
  8
LAYER_2
100
AcDbVertex
100
AcDb2dVertex
 10
-56.45929999999999
 20
263.8679999999999
 30
0.0
  0
VERTEX
  5
122D
330
356
100
AcDbEntity
  8
LAYER_2
100
AcDbVertex
100
AcDb2dVertex
 10
-57.253
 20
263.8679999999999
 30
0.0
  0
VERTEX
  5
122E
330
356
100
AcDbEntity
  8
LAYER_2
100
AcDbVertex
100
AcDb2dVertex
 10
-58.37749999999999
 20
266.845
 30
0.0
  0
VERTEX
  5
122F
330
356
100
AcDbEntity
  8
LAYER_2
100
AcDbVertex
100
AcDb2dVertex
 10
-59.3036
 20
266.845
 30
0.0
  0
VERTEX
  5
1230
330
356
100
AcDbEntity
  8
LAYER_2
100
AcDbVertex
100
AcDb2dVertex
 10
-59.3036
 20
263.8679999999999
 30
0.0
  0
VERTEX
  5
1231
330
356
100
AcDbEntity
  8
LAYER_2
100
AcDbVertex
100
AcDb2dVertex
 10
-60.0642
 20
263.8679999999999
 30
0.0
  0
VERTEX
  5
1232
330
356
100
AcDbEntity
  8
LAYER_2
100
AcDbVertex
100
AcDb2dVertex
 10
-60.0642
 20
270.3179999999999
 30
0.0
  0
VERTEX
  5
1233
330
356
100
AcDbEntity
  8
LAYER_2
100
AcDbVertex
100
AcDb2dVertex
 10
-58.4106
 20
270.3179999999999
 30
0.0
 42
-0.0708
  0
VERTEX
  5
1234
330
356
100
AcDbEntity
  8
LAYER_2
100
AcDbVertex
100
AcDb2dVertex
 10
-57.77689999999999
 20
270.227
 30
0.0
 42
-0.1223
  0
SEQEND
  5
1235
330
356
100
AcDbEntity
  8
LAYER_2
  0
ENDBLK
  5
369
330
347
100
AcDbEntity
  8
0
100
AcDbBlockEnd
  0
BLOCK
  5
36B
330
36A
100
AcDbEntity
  8
LAYER_2
100
AcDbBlockBegin
  2
AIGNBL02020009
 70
     0
 10
0.0
 20
0.0
 30
0.0
  3
AIGNBL02020009
  1

  0
POLYLINE
  5
36C
330
36A
100
AcDbEntity
  8
LAYER_2
100
AcDb2dPolyline
 66
     1
 10
0.0
 20
0.0
 30
0.0
 70
     1
 40
0.35278
 41
0.35278
  0
VERTEX
  5
1236
330
36C
100
AcDbEntity
  8
LAYER_2
100
AcDbVertex
100
AcDb2dVertex
 10
-60.7257
 20
267.11
 30
0.0
  0
VERTEX
  5
1237
330
36C
100
AcDbEntity
  8
LAYER_2
100
AcDbVertex
100
AcDb2dVertex
 10
-60.7257
 20
266.5799999999999
 30
0.0
  0
VERTEX
  5
1238
330
36C
100
AcDbEntity
  8
LAYER_2
100
AcDbVertex
100
AcDb2dVertex
 10
-64.49600000000001
 20
266.5799999999999
 30
0.0
  0
VERTEX
  5
1239
330
36C
100
AcDbEntity
  8
LAYER_2
100
AcDbVertex
100
AcDb2dVertex
 10
-64.49600000000001
 20
267.11
 30
0.0
  0
SEQEND
  5
123A
330
36C
100
AcDbEntity
  8
LAYER_2
  0
ENDBLK
  5
372
330
36A
100
AcDbEntity
  8
0
100
AcDbBlockEnd
  0
BLOCK
  5
374
330
373
100
AcDbEntity
  8
LAYER_2
100
AcDbBlockBegin
  2
AIGNBL0202000A
 70
     0
 10
0.0
 20
0.0
 30
0.0
  3
AIGNBL0202000A
  1

  0
POLYLINE
  5
375
330
373
100
AcDbEntity
  8
LAYER_2
100
AcDb2dPolyline
 66
     1
 10
0.0
 20
0.0
 30
0.0
 70
     1
 40
0.35278
 41
0.35278
  0
VERTEX
  5
123B
330
375
100
AcDbEntity
  8
LAYER_2
100
AcDbVertex
100
AcDb2dVertex
 10
-66.41429999999999
 20
267.242
 30
0.0
  0
VERTEX
  5
123C
330
375
100
AcDbEntity
  8
LAYER_2
100
AcDbVertex
100
AcDb2dVertex
 10
-64.926
 20
263.8679999999999
 30
0.0
  0
VERTEX
  5
123D
330
375
100
AcDbEntity
  8
LAYER_2
100
AcDbVertex
100
AcDb2dVertex
 10
-65.6867
 20
263.8679999999999
 30
0.0
  0
VERTEX
  5
123E
330
375
100
AcDbEntity
  8
LAYER_2
100
AcDbVertex
100
AcDb2dVertex
 10
-66.8442
 20
266.514
 30
0.0
  0
VERTEX
  5
123F
330
375
100
AcDbEntity
  8
LAYER_2
100
AcDbVertex
100
AcDb2dVertex
 10
-68.00180000000001
 20
263.8679999999999
 30
0.0
  0
VERTEX
  5
1240
330
375
100
AcDbEntity
  8
LAYER_2
100
AcDbVertex
100
AcDb2dVertex
 10
-68.7625
 20
263.8679999999999
 30
0.0
  0
VERTEX
  5
1241
330
375
100
AcDbEntity
  8
LAYER_2
100
AcDbVertex
100
AcDb2dVertex
 10
-67.27419999999999
 20
267.242
 30
0.0
  0
VERTEX
  5
1242
330
375
100
AcDbEntity
  8
LAYER_2
100
AcDbVertex
100
AcDb2dVertex
 10
-68.59709999999999
 20
270.3179999999999
 30
0.0
  0
VERTEX
  5
1243
330
375
100
AcDbEntity
  8
LAYER_2
100
AcDbVertex
100
AcDb2dVertex
 10
-67.8364
 20
270.3179999999999
 30
0.0
  0
VERTEX
  5
1244
330
375
100
AcDbEntity
  8
LAYER_2
100
AcDbVertex
100
AcDb2dVertex
 10
-66.8442
 20
267.9359999999999
 30
0.0
  0
VERTEX
  5
1245
330
375
100
AcDbEntity
  8
LAYER_2
100
AcDbVertex
100
AcDb2dVertex
 10
-65.852
 20
270.3179999999999
 30
0.0
  0
VERTEX
  5
1246
330
375
100
AcDbEntity
  8
LAYER_2
100
AcDbVertex
100
AcDb2dVertex
 10
-65.09139999999999
 20
270.3179999999999
 30
0.0
  0
SEQEND
  5
1247
330
375
100
AcDbEntity
  8
LAYER_2
  0
ENDBLK
  5
383
330
373
100
AcDbEntity
  8
0
100
AcDbBlockEnd
  0
BLOCK
  5
385
330
384
100
AcDbEntity
  8
LAYER_2
100
AcDbBlockBegin
  2
AIGNBL0202000B
 70
     0
 10
0.0
 20
0.0
 30
0.0
  3
AIGNBL0202000B
  1

  0
POLYLINE
  5
386
330
384
100
AcDbEntity
  8
LAYER_2
100
AcDb2dPolyline
 66
     1
 10
0.0
 20
0.0
 30
0.0
 70
     1
 40
0.35278
 41
0.35278
  0
VERTEX
  5
1248
330
386
100
AcDbEntity
  8
LAYER_2
100
AcDbVertex
100
AcDb2dVertex
 10
-71.63979999999999
 20
264.497
 30
0.0
 42
0.1708
  0
VERTEX
  5
1249
330
386
100
AcDbEntity
  8
LAYER_2
100
AcDbVertex
100
AcDb2dVertex
 10
-70.74460000000001
 20
264.814
 30
0.0
 42
0.0295
  0
VERTEX
  5
124A
330
386
100
AcDbEntity
  8
LAYER_2
100
AcDbVertex
100
AcDb2dVertex
 10
-70.58150000000001
 20
264.9599999999999
 30
0.0
 42
0.0796
  0
VERTEX
  5
124B
330
386
100
AcDbEntity
  8
LAYER_2
100
AcDbVertex
100
AcDb2dVertex
 10
-70.3943
 20
265.219
 30
0.0
 42
0.0446
  0
VERTEX
  5
124C
330
386
100
AcDbEntity
  8
LAYER_2
100
AcDbVertex
100
AcDb2dVertex
 10
-70.2744
 20
265.504
 30
0.0
 42
0.0347
  0
VERTEX
  5
124D
330
386
100
AcDbEntity
  8
LAYER_2
100
AcDbVertex
100
AcDb2dVertex
 10
-70.17699999999999
 20
265.8909999999999
 30
0.0
 42
0.0268
  0
VERTEX
  5
124E
330
386
100
AcDbEntity
  8
LAYER_2
100
AcDbVertex
100
AcDb2dVertex
 10
-70.1109
 20
266.3999999999999
 30
0.0
 42
0.0213
  0
VERTEX
  5
124F
330
386
100
AcDbEntity
  8
LAYER_2
100
AcDbVertex
100
AcDb2dVertex
 10
-70.0854
 20
267.077
 30
0.0
 42
0.0265
  0
VERTEX
  5
1250
330
386
100
AcDbEntity
  8
LAYER_2
100
AcDbVertex
100
AcDb2dVertex
 10
-70.13200000000001
 20
267.959
 30
0.0
 42
0.0272
  0
VERTEX
  5
1251
330
386
100
AcDbEntity
  8
LAYER_2
100
AcDbVertex
100
AcDb2dVertex
 10
-70.2136
 20
268.432
 30
0.0
 42
0.0362
  0
VERTEX
  5
1252
330
386
100
AcDbEntity
  8
LAYER_2
100
AcDbVertex
100
AcDb2dVertex
 10
-70.32989999999999
 20
268.805
 30
0.0
 42
0.0662
  0
VERTEX
  5
1253
330
386
100
AcDbEntity
  8
LAYER_2
100
AcDbVertex
100
AcDb2dVertex
 10
-70.5351
 20
269.17
 30
0.0
 42
0.029
  0
VERTEX
  5
1254
330
386
100
AcDbEntity
  8
LAYER_2
100
AcDbVertex
100
AcDb2dVertex
 10
-70.6146
 20
269.259
 30
0.0
 42
0.11
  0
VERTEX
  5
1255
330
386
100
AcDbEntity
  8
LAYER_2
100
AcDbVertex
100
AcDb2dVertex
 10
-71.1752
 20
269.6159999999999
 30
0.0
 42
0.0835
  0
VERTEX
  5
1256
330
386
100
AcDbEntity
  8
LAYER_2
100
AcDbVertex
100
AcDb2dVertex
 10
-71.63979999999999
 20
269.689
 30
0.0
  0
VERTEX
  5
1257
330
386
100
AcDbEntity
  8
LAYER_2
100
AcDbVertex
100
AcDb2dVertex
 10
-72.0036
 20
269.689
 30
0.0
  0
VERTEX
  5
1258
330
386
100
AcDbEntity
  8
LAYER_2
100
AcDbVertex
100
AcDb2dVertex
 10
-72.0036
 20
264.497
 30
0.0
  0
SEQEND
  5
1259
330
386
100
AcDbEntity
  8
LAYER_2
  0
POLYLINE
  5
399
330
384
100
AcDbEntity
  8
LAYER_2
100
AcDb2dPolyline
 66
     1
 10
0.0
 20
0.0
 30
0.0
 70
     1
 40
0.35278
 41
0.35278
  0
VERTEX
  5
125A
330
399
100
AcDbEntity
  8
LAYER_2
100
AcDbVertex
100
AcDb2dVertex
 10
-70.0193
 20
269.7219999999999
 30
0.0
 42
-0.0811
  0
VERTEX
  5
125B
330
399
100
AcDbEntity
  8
LAYER_2
100
AcDbVertex
100
AcDb2dVertex
 10
-69.6601
 20
269.2219999999999
 30
0.0
 42
-0.0532
  0
VERTEX
  5
125C
330
399
100
AcDbEntity
  8
LAYER_2
100
AcDbVertex
100
AcDb2dVertex
 10
-69.4428
 20
268.66
 30
0.0
 42
-0.041
  0
VERTEX
  5
125D
330
399
100
AcDbEntity
  8
LAYER_2
100
AcDbVertex
100
AcDb2dVertex
 10
-69.3061
 20
267.949
 30
0.0
 42
-0.0308
  0
VERTEX
  5
125E
330
399
100
AcDbEntity
  8
LAYER_2
100
AcDbVertex
100
AcDb2dVertex
 10
-69.2586
 20
267.077
 30
0.0
 42
-0.0272
  0
VERTEX
  5
125F
330
399
100
AcDbEntity
  8
LAYER_2
100
AcDbVertex
100
AcDb2dVertex
 10
-69.30759999999999
 20
266.174
 30
0.0
 42
-0.04
  0
VERTEX
  5
1260
330
399
100
AcDbEntity
  8
LAYER_2
100
AcDbVertex
100
AcDb2dVertex
 10
-69.4546
 20
265.4349999999999
 30
0.0
 42
-0.0504
  0
VERTEX
  5
1261
330
399
100
AcDbEntity
  8
LAYER_2
100
AcDbVertex
100
AcDb2dVertex
 10
-69.6657
 20
264.919
 30
0.0
 42
-0.0678
  0
VERTEX
  5
1262
330
399
100
AcDbEntity
  8
LAYER_2
100
AcDbVertex
100
AcDb2dVertex
 10
-69.9531
 20
264.5299999999999
 30
0.0
 42
-0.1684
  0
VERTEX
  5
1263
330
399
100
AcDbEntity
  8
LAYER_2
100
AcDbVertex
100
AcDb2dVertex
 10
-71.2831
 20
263.89
 30
0.0
 42
-0.0312
  0
VERTEX
  5
1264
330
399
100
AcDbEntity
  8
LAYER_2
100
AcDbVertex
100
AcDb2dVertex
 10
-71.63979999999999
 20
263.8679999999999
 30
0.0
  0
VERTEX
  5
1265
330
399
100
AcDbEntity
  8
LAYER_2
100
AcDbVertex
100
AcDb2dVertex
 10
-72.76430000000001
 20
263.8679999999999
 30
0.0
  0
VERTEX
  5
1266
330
399
100
AcDbEntity
  8
LAYER_2
100
AcDbVertex
100
AcDb2dVertex
 10
-72.76430000000001
 20
270.3179999999999
 30
0.0
  0
VERTEX
  5
1267
330
399
100
AcDbEntity
  8
LAYER_2
100
AcDbVertex
100
AcDb2dVertex
 10
-71.63979999999999
 20
270.3179999999999
 30
0.0
 42
-0.0601
  0
VERTEX
  5
1268
330
399
100
AcDbEntity
  8
LAYER_2
100
AcDbVertex
100
AcDb2dVertex
 10
-70.9179
 20
270.23
 30
0.0
 42
-0.1292
  0
SEQEND
  5
1269
330
399
100
AcDbEntity
  8
LAYER_2
  0
ENDBLK
  5
3AA
330
384
100
AcDbEntity
  8
0
100
AcDbBlockEnd
  0
BLOCK
  5
3AC
330
3AB
100
AcDbEntity
  8
LAYER_1
100
AcDbBlockBegin
  2
AIGNBL01010002
 70
     0
 10
0.0
 20
0.0
 30
0.0
  3
AIGNBL01010002
  1

  0
INSERT
  5
3AD
330
3AB
100
AcDbEntity
  8
LAYER_1
100
AcDbBlockReference
  2
AIGNBL01020003
 10
0.0
 20
0.0
 30
0.0
  0
POLYLINE
  5
3AE
330
3AB
100
AcDbEntity
  8
LAYER_1
100
AcDb2dPolyline
 66
     1
 10
0.0
 20
0.0
 30
0.0
 40
0.105834
 41
0.105834
  0
VERTEX
  5
126A
330
3AE
100
AcDbEntity
  8
LAYER_1
100
AcDbVertex
100
AcDb2dVertex
 10
175.6199999999999
 20
69.488
 30
0.0
  0
VERTEX
  5
126B
330
3AE
100
AcDbEntity
  8
LAYER_1
100
AcDbVertex
100
AcDb2dVertex
 10
175.1629999999999
 20
71.19199999999999
 30
0.0
  0
VERTEX
  5
126C
330
3AE
100
AcDbEntity
  8
LAYER_1
100
AcDbVertex
100
AcDb2dVertex
 10
174.7069999999999
 20
69.488
 30
0.0
  0
SEQEND
  5
126D
330
3AE
100
AcDbEntity
  8
LAYER_1
  0
POLYLINE
  5
3B3
330
3AB
100
AcDbEntity
  8
LAYER_1
100
AcDb2dPolyline
 66
     1
 10
0.0
 20
0.0
 30
0.0
 40
0.105834
 41
0.105834
  0
VERTEX
  5
126E
330
3B3
100
AcDbEntity
  8
LAYER_1
100
AcDbVertex
100
AcDb2dVertex
 10
174.7069999999999
 20
39.7852
 30
0.0
  0
VERTEX
  5
126F
330
3B3
100
AcDbEntity
  8
LAYER_1
100
AcDbVertex
100
AcDb2dVertex
 10
175.1629999999999
 20
38.0813
 30
0.0
  0
VERTEX
  5
1270
330
3B3
100
AcDbEntity
  8
LAYER_1
100
AcDbVertex
100
AcDb2dVertex
 10
175.6199999999999
 20
39.7852
 30
0.0
  0
SEQEND
  5
1271
330
3B3
100
AcDbEntity
  8
LAYER_1
  0
POLYLINE
  5
3B8
330
3AB
100
AcDbEntity
  8
LAYER_1
100
AcDb2dPolyline
 66
     1
 10
0.0
 20
0.0
 30
0.0
 40
0.105834
 41
0.105834
  0
VERTEX
  5
1272
330
3B8
100
AcDbEntity
  8
LAYER_1
100
AcDbVertex
100
AcDb2dVertex
 10
175.1629999999999
 20
38.0813
 30
0.0
  0
VERTEX
  5
1273
330
3B8
100
AcDbEntity
  8
LAYER_1
100
AcDbVertex
100
AcDb2dVertex
 10
175.1629999999999
 20
71.19199999999999
 30
0.0
  0
SEQEND
  5
1274
330
3B8
100
AcDbEntity
  8
LAYER_1
  0
POLYLINE
  5
3BC
330
3AB
100
AcDbEntity
  8
LAYER_1
100
AcDb2dPolyline
 66
     1
 10
0.0
 20
0.0
 30
0.0
 40
0.105834
 41
0.105834
  0
VERTEX
  5
1275
330
3BC
100
AcDbEntity
  8
LAYER_1
100
AcDbVertex
100
AcDb2dVertex
 10
158.651
 20
71.19199999999999
 30
0.0
  0
VERTEX
  5
1276
330
3BC
100
AcDbEntity
  8
LAYER_1
100
AcDbVertex
100
AcDb2dVertex
 10
176.927
 20
71.19199999999999
 30
0.0
  0
SEQEND
  5
1277
330
3BC
100
AcDbEntity
  8
LAYER_1
  0
POLYLINE
  5
3C0
330
3AB
100
AcDbEntity
  8
LAYER_1
100
AcDb2dPolyline
 66
     1
 10
0.0
 20
0.0
 30
0.0
 40
0.105834
 41
0.105834
  0
VERTEX
  5
1278
330
3C0
100
AcDbEntity
  8
LAYER_1
100
AcDbVertex
100
AcDb2dVertex
 10
158.677
 20
38.0813
 30
0.0
  0
VERTEX
  5
1279
330
3C0
100
AcDbEntity
  8
LAYER_1
100
AcDbVertex
100
AcDb2dVertex
 10
176.927
 20
38.0813
 30
0.0
  0
SEQEND
  5
127A
330
3C0
100
AcDbEntity
  8
LAYER_1
  0
ENDBLK
  5
3C4
330
3AB
100
AcDbEntity
  8
0
100
AcDbBlockEnd
  0
BLOCK
  5
3C6
330
3C5
100
AcDbEntity
  8
LAYER_1
100
AcDbBlockBegin
  2
AIGNBL01010009
 70
     0
 10
0.0
 20
0.0
 30
0.0
  3
AIGNBL01010009
  1

  0
POLYLINE
  5
3C7
330
3C5
100
AcDbEntity
  8
LAYER_1
100
AcDb2dPolyline
 66
     1
 10
0.0
 20
0.0
 30
0.0
 40
0.105834
 41
0.105834
  0
VERTEX
  5
127B
330
3C7
100
AcDbEntity
  8
LAYER_1
100
AcDbVertex
100
AcDb2dVertex
 10
165.03
 20
101.0569999999999
 30
0.0
  0
VERTEX
  5
127C
330
3C7
100
AcDbEntity
  8
LAYER_1
100
AcDbVertex
100
AcDb2dVertex
 10
165.487
 20
99.3527
 30
0.0
  0
VERTEX
  5
127D
330
3C7
100
AcDbEntity
  8
LAYER_1
100
AcDbVertex
100
AcDb2dVertex
 10
165.9429999999999
 20
101.0569999999999
 30
0.0
  0
SEQEND
  5
127E
330
3C7
100
AcDbEntity
  8
LAYER_1
  0
ENDBLK
  5
3CC
330
3C5
100
AcDbEntity
  8
0
100
AcDbBlockEnd
  0
BLOCK
  5
3CE
330
3CD
100
AcDbEntity
  8
LAYER_1
100
AcDbBlockBegin
  2
AIGNBL0101000A
 70
     0
 10
0.0
 20
0.0
 30
0.0
  3
AIGNBL0101000A
  1

  0
INSERT
  5
3CF
330
3CD
100
AcDbEntity
  8
LAYER_1
100
AcDbBlockReference
  2
AIGNBL0102000B
 10
0.0
 20
0.0
 30
0.0
  0
POLYLINE
  5
3D0
330
3CD
100
AcDbEntity
  8
LAYER_1
100
AcDb2dPolyline
 66
     1
 10
0.0
 20
0.0
 30
0.0
 40
0.105834
 41
0.105834
  0
VERTEX
  5
127F
330
3D0
100
AcDbEntity
  8
LAYER_1
100
AcDbVertex
100
AcDb2dVertex
 10
165.9429999999999
 20
185.65
 30
0.0
  0
VERTEX
  5
1280
330
3D0
100
AcDbEntity
  8
LAYER_1
100
AcDbVertex
100
AcDb2dVertex
 10
165.487
 20
187.3529999999999
 30
0.0
  0
VERTEX
  5
1281
330
3D0
100
AcDbEntity
  8
LAYER_1
100
AcDbVertex
100
AcDb2dVertex
 10
165.03
 20
185.65
 30
0.0
  0
SEQEND
  5
1282
330
3D0
100
AcDbEntity
  8
LAYER_1
  0
POLYLINE
  5
3D5
330
3CD
100
AcDbEntity
  8
LAYER_1
100
AcDb2dPolyline
 66
     1
 10
0.0
 20
0.0
 30
0.0
 40
0.105834
 41
0.105834
  0
VERTEX
  5
1283
330
3D5
100
AcDbEntity
  8
LAYER_1
100
AcDbVertex
100
AcDb2dVertex
 10
165.03
 20
101.0569999999999
 30
0.0
  0
VERTEX
  5
1284
330
3D5
100
AcDbEntity
  8
LAYER_1
100
AcDbVertex
100
AcDb2dVertex
 10
165.487
 20
99.3527
 30
0.0
  0
VERTEX
  5
1285
330
3D5
100
AcDbEntity
  8
LAYER_1
100
AcDbVertex
100
AcDb2dVertex
 10
165.9429999999999
 20
101.0569999999999
 30
0.0
  0
SEQEND
  5
1286
330
3D5
100
AcDbEntity
  8
LAYER_1
  0
POLYLINE
  5
3DA
330
3CD
100
AcDbEntity
  8
LAYER_1
100
AcDb2dPolyline
 66
     1
 10
0.0
 20
0.0
 30
0.0
 40
0.105834
 41
0.105834
  0
VERTEX
  5
1287
330
3DA
100
AcDbEntity
  8
LAYER_1
100
AcDbVertex
100
AcDb2dVertex
 10
165.487
 20
99.3527
 30
0.0
  0
VERTEX
  5
1288
330
3DA
100
AcDbEntity
  8
LAYER_1
100
AcDbVertex
100
AcDb2dVertex
 10
165.487
 20
187.3529999999999
 30
0.0
  0
SEQEND
  5
1289
330
3DA
100
AcDbEntity
  8
LAYER_1
  0
POLYLINE
  5
3DE
330
3CD
100
AcDbEntity
  8
LAYER_1
100
AcDb2dPolyline
 66
     1
 10
0.0
 20
0.0
 30
0.0
 40
0.105834
 41
0.105834
  0
VERTEX
  5
128A
330
3DE
100
AcDbEntity
  8
LAYER_1
100
AcDbVertex
100
AcDb2dVertex
 10
152.455
 20
187.3529999999999
 30
0.0
  0
VERTEX
  5
128B
330
3DE
100
AcDbEntity
  8
LAYER_1
100
AcDbVertex
100
AcDb2dVertex
 10
167.2509999999999
 20
187.3529999999999
 30
0.0
  0
SEQEND
  5
128C
330
3DE
100
AcDbEntity
  8
LAYER_1
  0
ENDBLK
  5
3E2
330
3CD
100
AcDbEntity
  8
0
100
AcDbBlockEnd
  0
BLOCK
  5
3E4
330
3E3
100
AcDbEntity
  8
LAYER_1
100
AcDbBlockBegin
  2
AIGNBL0101000F
 70
     0
 10
0.0
 20
0.0
 30
0.0
  3
AIGNBL0101000F
  1

  0
POLYLINE
  5
3E5
330
3E3
100
AcDbEntity
  8
LAYER_1
100
AcDb2dPolyline
 66
     1
 10
0.0
 20
0.0
 30
0.0
 40
0.105834
 41
0.105834
  0
VERTEX
  5
128D
330
3E5
100
AcDbEntity
  8
LAYER_1
100
AcDbVertex
100
AcDb2dVertex
 10
158.982
 20
99.3527
 30
0.0
  0
VERTEX
  5
128E
330
3E5
100
AcDbEntity
  8
LAYER_1
100
AcDbVertex
100
AcDb2dVertex
 10
167.337
 20
99.3527
 30
0.0
  0
SEQEND
  5
128F
330
3E5
100
AcDbEntity
  8
LAYER_1
  0
ENDBLK
  5
3E9
330
3E3
100
AcDbEntity
  8
0
100
AcDbBlockEnd
  0
BLOCK
  5
3EB
330
3EA
100
AcDbEntity
  8
LAYER_1
100
AcDbBlockBegin
  2
AIGNBL01010010
 70
     0
 10
0.0
 20
0.0
 30
0.0
  3
AIGNBL01010010
  1

  0
INSERT
  5
3EC
330
3EA
100
AcDbEntity
  8
LAYER_1
100
AcDbBlockReference
  2
AIGNBL01020011
 10
0.0
 20
0.0
 30
0.0
  0
INSERT
  5
3ED
330
3EA
100
AcDbEntity
  8
LAYER_1
100
AcDbBlockReference
  2
AIGNBL01020012
 10
0.0
 20
0.0
 30
0.0
  0
INSERT
  5
3EE
330
3EA
100
AcDbEntity
  8
LAYER_1
100
AcDbBlockReference
  2
AIGNBL01020013
 10
0.0
 20
0.0
 30
0.0
  0
ENDBLK
  5
3EF
330
3EA
100
AcDbEntity
  8
0
100
AcDbBlockEnd
  0
BLOCK
  5
3F1
330
3F0
100
AcDbEntity
  8
LAYER_1
100
AcDbBlockBegin
  2
AIGNBL01010014
 70
     0
 10
0.0
 20
0.0
 30
0.0
  3
AIGNBL01010014
  1

  0
POLYLINE
  5
3F2
330
3F0
100
AcDbEntity
  8
LAYER_1
100
AcDb2dPolyline
 66
     1
 10
0.0
 20
0.0
 30
0.0
 40
0.17639
 41
0.17639
  0
VERTEX
  5
1290
330
3F2
100
AcDbEntity
  8
LAYER_1
100
AcDbVertex
100
AcDb2dVertex
 10
206.3229999999999
 20
142.3539999999999
 30
0.0
  0
VERTEX
  5
1291
330
3F2
100
AcDbEntity
  8
LAYER_1
100
AcDbVertex
100
AcDb2dVertex
 10
206.3229999999999
 20
142.3529999999999
 30
0.0
 42
0.3927
  0
VERTEX
  5
1292
330
3F2
100
AcDbEntity
  8
LAYER_1
100
AcDbVertex
100
AcDb2dVertex
 10
203.8229999999999
 20
139.8529999999999
 30
0.0
  0
SEQEND
  5
1293
330
3F2
100
AcDbEntity
  8
LAYER_1
  0
POLYLINE
  5
3F7
330
3F0
100
AcDbEntity
  8
LAYER_1
100
AcDb2dPolyline
 66
     1
 10
0.0
 20
0.0
 30
0.0
 40
0.17639
 41
0.17639
  0
VERTEX
  5
1294
330
3F7
100
AcDbEntity
  8
LAYER_1
100
AcDbVertex
100
AcDb2dVertex
 10
224.6599999999999
 20
139.8529999999999
 30
0.0
  0
VERTEX
  5
1295
330
3F7
100
AcDbEntity
  8
LAYER_1
100
AcDbVertex
100
AcDb2dVertex
 10
224.6599999999999
 20
139.8529999999999
 30
0.0
 42
0.4142000000000001
  0
VERTEX
  5
1296
330
3F7
100
AcDbEntity
  8
LAYER_1
100
AcDbVertex
100
AcDb2dVertex
 10
222.16
 20
142.3529999999999
 30
0.0
  0
SEQEND
  5
1297
330
3F7
100
AcDbEntity
  8
LAYER_1
  0
POLYLINE
  5
3FC
330
3F0
100
AcDbEntity
  8
LAYER_1
100
AcDb2dPolyline
 66
     1
 10
0.0
 20
0.0
 30
0.0
 40
0.17639
 41
0.17639
  0
VERTEX
  5
1298
330
3FC
100
AcDbEntity
  8
LAYER_1
100
AcDbVertex
100
AcDb2dVertex
 10
203.8209999999999
 20
118.8529999999999
 30
0.0
  0
VERTEX
  5
1299
330
3FC
100
AcDbEntity
  8
LAYER_1
100
AcDbVertex
100
AcDb2dVertex
 10
203.8229999999999
 20
118.8529999999999
 30
0.0
 42
0.3925
  0
VERTEX
  5
129A
330
3FC
100
AcDbEntity
  8
LAYER_1
100
AcDbVertex
100
AcDb2dVertex
 10
206.3229999999999
 20
116.3529999999999
 30
0.0
  0
SEQEND
  5
129B
330
3FC
100
AcDbEntity
  8
LAYER_1
  0
POLYLINE
  5
401
330
3F0
100
AcDbEntity
  8
LAYER_1
100
AcDb2dPolyline
 66
     1
 10
0.0
 20
0.0
 30
0.0
 40
0.17639
 41
0.17639
  0
VERTEX
  5
129C
330
401
100
AcDbEntity
  8
LAYER_1
100
AcDbVertex
100
AcDb2dVertex
 10
222.16
 20
116.3529999999999
 30
0.0
  0
VERTEX
  5
129D
330
401
100
AcDbEntity
  8
LAYER_1
100
AcDbVertex
100
AcDb2dVertex
 10
222.16
 20
116.3529999999999
 30
0.0
 42
0.3927
  0
VERTEX
  5
129E
330
401
100
AcDbEntity
  8
LAYER_1
100
AcDbVertex
100
AcDb2dVertex
 10
224.6599999999999
 20
118.8529999999999
 30
0.0
  0
SEQEND
  5
129F
330
401
100
AcDbEntity
  8
LAYER_1
  0
POLYLINE
  5
406
330
3F0
100
AcDbEntity
  8
LAYER_1
100
AcDb2dPolyline
 66
     1
 10
0.0
 20
0.0
 30
0.0
 40
0.17639
 41
0.17639
  0
VERTEX
  5
12A0
330
406
100
AcDbEntity
  8
LAYER_1
100
AcDbVertex
100
AcDb2dVertex
 10
39.7034
 20
225.855
 30
0.0
  0
VERTEX
  5
12A1
330
406
100
AcDbEntity
  8
LAYER_1
100
AcDbVertex
100
AcDb2dVertex
 10
39.7034
 20
225.857
 30
0.0
 42
0.3928
  0
VERTEX
  5
12A2
330
406
100
AcDbEntity
  8
LAYER_1
100
AcDbVertex
100
AcDb2dVertex
 10
38.8911
 20
225.0449999999999
 30
0.0
 42
0.3927
  0
VERTEX
  5
12A3
330
406
100
AcDbEntity
  8
LAYER_1
100
AcDbVertex
100
AcDb2dVertex
 10
39.7034
 20
224.2319999999999
 30
0.0
  0
SEQEND
  5
12A4
330
406
100
AcDbEntity
  8
LAYER_1
  0
POLYLINE
  5
40C
330
3F0
100
AcDbEntity
  8
LAYER_1
100
AcDb2dPolyline
 66
     1
 10
0.0
 20
0.0
 30
0.0
 40
0.17639
 41
0.17639
  0
VERTEX
  5
12A5
330
40C
100
AcDbEntity
  8
LAYER_1
100
AcDbVertex
100
AcDb2dVertex
 10
40.5787
 20
224.2319999999999
 30
0.0
  0
VERTEX
  5
12A6
330
40C
100
AcDbEntity
  8
LAYER_1
100
AcDbVertex
100
AcDb2dVertex
 10
40.5787
 20
224.2319999999999
 30
0.0
 42
0.3927
  0
VERTEX
  5
12A7
330
40C
100
AcDbEntity
  8
LAYER_1
100
AcDbVertex
100
AcDb2dVertex
 10
41.3912
 20
225.0449999999999
 30
0.0
 42
0.3927
  0
VERTEX
  5
12A8
330
40C
100
AcDbEntity
  8
LAYER_1
100
AcDbVertex
100
AcDb2dVertex
 10
40.5787
 20
225.857
 30
0.0
  0
SEQEND
  5
12A9
330
40C
100
AcDbEntity
  8
LAYER_1
  0
POLYLINE
  5
412
330
3F0
100
AcDbEntity
  8
LAYER_1
100
AcDb2dPolyline
 66
     1
 10
0.0
 20
0.0
 30
0.0
 40
0.17639
 41
0.17639
  0
VERTEX
  5
12AA
330
412
100
AcDbEntity
  8
LAYER_1
100
AcDbVertex
100
AcDb2dVertex
 10
39.7034
 20
240.1429999999999
 30
0.0
  0
VERTEX
  5
12AB
330
412
100
AcDbEntity
  8
LAYER_1
100
AcDbVertex
100
AcDb2dVertex
 10
39.7034
 20
240.145
 30
0.0
 42
0.3928
  0
VERTEX
  5
12AC
330
412
100
AcDbEntity
  8
LAYER_1
100
AcDbVertex
100
AcDb2dVertex
 10
38.8911
 20
239.332
 30
0.0
 42
0.3927
  0
VERTEX
  5
12AD
330
412
100
AcDbEntity
  8
LAYER_1
100
AcDbVertex
100
AcDb2dVertex
 10
39.7034
 20
238.52
 30
0.0
  0
SEQEND
  5
12AE
330
412
100
AcDbEntity
  8
LAYER_1
  0
POLYLINE
  5
418
330
3F0
100
AcDbEntity
  8
LAYER_1
100
AcDb2dPolyline
 66
     1
 10
0.0
 20
0.0
 30
0.0
 40
0.17639
 41
0.17639
  0
VERTEX
  5
12AF
330
418
100
AcDbEntity
  8
LAYER_1
100
AcDbVertex
100
AcDb2dVertex
 10
40.5787
 20
238.519
 30
0.0
  0
VERTEX
  5
12B0
330
418
100
AcDbEntity
  8
LAYER_1
100
AcDbVertex
100
AcDb2dVertex
 10
40.5787
 20
238.52
 30
0.0
 42
0.3927
  0
VERTEX
  5
12B1
330
418
100
AcDbEntity
  8
LAYER_1
100
AcDbVertex
100
AcDb2dVertex
 10
41.3912
 20
239.332
 30
0.0
 42
0.3927
  0
VERTEX
  5
12B2
330
418
100
AcDbEntity
  8
LAYER_1
100
AcDbVertex
100
AcDb2dVertex
 10
40.5787
 20
240.145
 30
0.0
  0
SEQEND
  5
12B3
330
418
100
AcDbEntity
  8
LAYER_1
  0
POLYLINE
  5
41E
330
3F0
100
AcDbEntity
  8
LAYER_1
100
AcDb2dPolyline
 66
     1
 10
0.0
 20
0.0
 30
0.0
 40
0.17639
 41
0.17639
  0
VERTEX
  5
12B4
330
41E
100
AcDbEntity
  8
LAYER_1
100
AcDbVertex
100
AcDb2dVertex
 10
44.9035
 20
248.2069999999999
 30
0.0
 42
0.3927
  0
VERTEX
  5
12B5
330
41E
100
AcDbEntity
  8
LAYER_1
100
AcDbVertex
100
AcDb2dVertex
 10
44.4036
 20
247.7069999999999
 30
0.0
  0
SEQEND
  5
12B6
330
41E
100
AcDbEntity
  8
LAYER_1
  0
POLYLINE
  5
422
330
3F0
100
AcDbEntity
  8
LAYER_1
100
AcDb2dPolyline
 66
     1
 10
0.0
 20
0.0
 30
0.0
 40
0.17639
 41
0.17639
  0
VERTEX
  5
12B7
330
422
100
AcDbEntity
  8
LAYER_1
100
AcDbVertex
100
AcDb2dVertex
 10
156.8549999999999
 20
224.2319999999999
 30
0.0
  0
VERTEX
  5
12B8
330
422
100
AcDbEntity
  8
LAYER_1
100
AcDbVertex
100
AcDb2dVertex
 10
156.8559999999999
 20
224.2319999999999
 30
0.0
 42
0.3928
  0
VERTEX
  5
12B9
330
422
100
AcDbEntity
  8
LAYER_1
100
AcDbVertex
100
AcDb2dVertex
 10
157.668
 20
225.0449999999999
 30
0.0
 42
0.3928
  0
VERTEX
  5
12BA
330
422
100
AcDbEntity
  8
LAYER_1
100
AcDbVertex
100
AcDb2dVertex
 10
156.8559999999999
 20
225.857
 30
0.0
  0
SEQEND
  5
12BB
330
422
100
AcDbEntity
  8
LAYER_1
  0
POLYLINE
  5
428
330
3F0
100
AcDbEntity
  8
LAYER_1
100
AcDb2dPolyline
 66
     1
 10
0.0
 20
0.0
 30
0.0
 40
0.17639
 41
0.17639
  0
VERTEX
  5
12BC
330
428
100
AcDbEntity
  8
LAYER_1
100
AcDbVertex
100
AcDb2dVertex
 10
155.9789999999999
 20
225.855
 30
0.0
  0
VERTEX
  5
12BD
330
428
100
AcDbEntity
  8
LAYER_1
100
AcDbVertex
100
AcDb2dVertex
 10
155.9789999999999
 20
225.857
 30
0.0
 42
0.3926
  0
VERTEX
  5
12BE
330
428
100
AcDbEntity
  8
LAYER_1
100
AcDbVertex
100
AcDb2dVertex
 10
155.166
 20
225.0449999999999
 30
0.0
 42
0.393
  0
VERTEX
  5
12BF
330
428
100
AcDbEntity
  8
LAYER_1
100
AcDbVertex
100
AcDb2dVertex
 10
155.9789999999999
 20
224.2319999999999
 30
0.0
  0
SEQEND
  5
12C0
330
428
100
AcDbEntity
  8
LAYER_1
  0
POLYLINE
  5
42E
330
3F0
100
AcDbEntity
  8
LAYER_1
100
AcDb2dPolyline
 66
     1
 10
0.0
 20
0.0
 30
0.0
 40
0.17639
 41
0.17639
  0
VERTEX
  5
12C1
330
42E
100
AcDbEntity
  8
LAYER_1
100
AcDbVertex
100
AcDb2dVertex
 10
156.8549999999999
 20
238.519
 30
0.0
  0
VERTEX
  5
12C2
330
42E
100
AcDbEntity
  8
LAYER_1
100
AcDbVertex
100
AcDb2dVertex
 10
156.8559999999999
 20
238.52
 30
0.0
 42
0.3928
  0
VERTEX
  5
12C3
330
42E
100
AcDbEntity
  8
LAYER_1
100
AcDbVertex
100
AcDb2dVertex
 10
157.668
 20
239.332
 30
0.0
 42
0.3928
  0
VERTEX
  5
12C4
330
42E
100
AcDbEntity
  8
LAYER_1
100
AcDbVertex
100
AcDb2dVertex
 10
156.8559999999999
 20
240.145
 30
0.0
  0
SEQEND
  5
12C5
330
42E
100
AcDbEntity
  8
LAYER_1
  0
POLYLINE
  5
434
330
3F0
100
AcDbEntity
  8
LAYER_1
100
AcDb2dPolyline
 66
     1
 10
0.0
 20
0.0
 30
0.0
 40
0.17639
 41
0.17639
  0
VERTEX
  5
12C6
330
434
100
AcDbEntity
  8
LAYER_1
100
AcDbVertex
100
AcDb2dVertex
 10
155.9789999999999
 20
240.1429999999999
 30
0.0
  0
VERTEX
  5
12C7
330
434
100
AcDbEntity
  8
LAYER_1
100
AcDbVertex
100
AcDb2dVertex
 10
155.9789999999999
 20
240.145
 30
0.0
 42
0.3926
  0
VERTEX
  5
12C8
330
434
100
AcDbEntity
  8
LAYER_1
100
AcDbVertex
100
AcDb2dVertex
 10
155.166
 20
239.332
 30
0.0
 42
0.393
  0
VERTEX
  5
12C9
330
434
100
AcDbEntity
  8
LAYER_1
100
AcDbVertex
100
AcDb2dVertex
 10
155.9789999999999
 20
238.52
 30
0.0
  0
SEQEND
  5
12CA
330
434
100
AcDbEntity
  8
LAYER_1
  0
POLYLINE
  5
43A
330
3F0
100
AcDbEntity
  8
LAYER_1
100
AcDb2dPolyline
 66
     1
 10
0.0
 20
0.0
 30
0.0
 40
0.17639
 41
0.17639
  0
VERTEX
  5
12CB
330
43A
100
AcDbEntity
  8
LAYER_1
100
AcDbVertex
100
AcDb2dVertex
 10
152.1539999999999
 20
247.7069999999999
 30
0.0
  0
VERTEX
  5
12CC
330
43A
100
AcDbEntity
  8
LAYER_1
100
AcDbVertex
100
AcDb2dVertex
 10
152.153
 20
247.7069999999999
 30
0.0
 42
0.3922
  0
VERTEX
  5
12CD
330
43A
100
AcDbEntity
  8
LAYER_1
100
AcDbVertex
100
AcDb2dVertex
 10
151.6539999999999
 20
248.2069999999999
 30
0.0
  0
SEQEND
  5
12CE
330
43A
100
AcDbEntity
  8
LAYER_1
  0
POLYLINE
  5
43F
330
3F0
100
AcDbEntity
  8
LAYER_1
100
AcDb2dPolyline
 66
     1
 10
0.0
 20
0.0
 30
0.0
 40
0.17639
 41
0.17639
  0
VERTEX
  5
12CF
330
43F
100
AcDbEntity
  8
LAYER_1
100
AcDbVertex
100
AcDb2dVertex
 10
44.4036
 20
99.3527
 30
0.0
  0
VERTEX
  5
12D0
330
43F
100
AcDbEntity
  8
LAYER_1
100
AcDbVertex
100
AcDb2dVertex
 10
44.4036
 20
99.35299999999999
 30
0.0
 42
0.3924
  0
VERTEX
  5
12D1
330
43F
100
AcDbEntity
  8
LAYER_1
100
AcDbVertex
100
AcDb2dVertex
 10
44.9038
 20
99.8529
 30
0.0
  0
SEQEND
  5
12D2
330
43F
100
AcDbEntity
  8
LAYER_1
  0
POLYLINE
  5
444
330
3F0
100
AcDbEntity
  8
LAYER_1
100
AcDb2dPolyline
 66
     1
 10
0.0
 20
0.0
 30
0.0
 40
0.17639
 41
0.17639
  0
VERTEX
  5
12D3
330
444
100
AcDbEntity
  8
LAYER_1
100
AcDbVertex
100
AcDb2dVertex
 10
51.6289
 20
172.629
 30
0.0
 42
0.3927
  0
VERTEX
  5
12D4
330
444
100
AcDbEntity
  8
LAYER_1
100
AcDbVertex
100
AcDb2dVertex
 10
52.0288
 20
172.229
 30
0.0
 42
0.3926
  0
VERTEX
  5
12D5
330
444
100
AcDbEntity
  8
LAYER_1
100
AcDbVertex
100
AcDb2dVertex
 10
52.42899999999999
 20
172.629
 30
0.0
  0
SEQEND
  5
12D6
330
444
100
AcDbEntity
  8
LAYER_1
  0
POLYLINE
  5
449
330
3F0
100
AcDbEntity
  8
LAYER_1
100
AcDb2dPolyline
 66
     1
 10
0.0
 20
0.0
 30
0.0
 40
0.17639
 41
0.17639
  0
VERTEX
  5
12D7
330
449
100
AcDbEntity
  8
LAYER_1
100
AcDbVertex
100
AcDb2dVertex
 10
52.42869999999999
 20
172.8279999999999
 30
0.0
  0
VERTEX
  5
12D8
330
449
100
AcDbEntity
  8
LAYER_1
100
AcDbVertex
100
AcDb2dVertex
 10
52.42899999999999
 20
172.8279999999999
 30
0.0
 42
0.3929
  0
VERTEX
  5
12D9
330
449
100
AcDbEntity
  8
LAYER_1
100
AcDbVertex
100
AcDb2dVertex
 10
52.0288
 20
173.2279999999999
 30
0.0
 42
0.3928
  0
VERTEX
  5
12DA
330
449
100
AcDbEntity
  8
LAYER_1
100
AcDbVertex
100
AcDb2dVertex
 10
51.6289
 20
172.8279999999999
 30
0.0
  0
SEQEND
  5
12DB
330
449
100
AcDbEntity
  8
LAYER_1
  0
POLYLINE
  5
44F
330
3F0
100
AcDbEntity
  8
LAYER_1
100
AcDb2dPolyline
 66
     1
 10
0.0
 20
0.0
 30
0.0
 40
0.17639
 41
0.17639
  0
VERTEX
  5
12DC
330
44F
100
AcDbEntity
  8
LAYER_1
100
AcDbVertex
100
AcDb2dVertex
 10
52.42869999999999
 20
118.2279999999999
 30
0.0
  0
VERTEX
  5
12DD
330
44F
100
AcDbEntity
  8
LAYER_1
100
AcDbVertex
100
AcDb2dVertex
 10
52.42899999999999
 20
118.2279999999999
 30
0.0
 42
0.3927
  0
VERTEX
  5
12DE
330
44F
100
AcDbEntity
  8
LAYER_1
100
AcDbVertex
100
AcDb2dVertex
 10
52.0288
 20
118.6279999999999
 30
0.0
 42
0.393
  0
VERTEX
  5
12DF
330
44F
100
AcDbEntity
  8
LAYER_1
100
AcDbVertex
100
AcDb2dVertex
 10
51.6289
 20
118.2279999999999
 30
0.0
 42
0.3927
  0
VERTEX
  5
12E0
330
44F
100
AcDbEntity
  8
LAYER_1
100
AcDbVertex
100
AcDb2dVertex
 10
52.0288
 20
117.8279999999999
 30
0.0
 42
0.3926
  0
VERTEX
  5
12E1
330
44F
100
AcDbEntity
  8
LAYER_1
100
AcDbVertex
100
AcDb2dVertex
 10
52.42899999999999
 20
118.2279999999999
 30
0.0
  0
SEQEND
  5
12E2
330
44F
100
AcDbEntity
  8
LAYER_1
  0
POLYLINE
  5
457
330
3F0
100
AcDbEntity
  8
LAYER_1
100
AcDb2dPolyline
 66
     1
 10
0.0
 20
0.0
 30
0.0
 40
0.17639
 41
0.17639
  0
VERTEX
  5
12E3
330
457
100
AcDbEntity
  8
LAYER_1
100
AcDbVertex
100
AcDb2dVertex
 10
151.6539999999999
 20
99.8529
 30
0.0
 42
0.3927
  0
VERTEX
  5
12E4
330
457
100
AcDbEntity
  8
LAYER_1
100
AcDbVertex
100
AcDb2dVertex
 10
152.1539999999999
 20
99.35299999999999
 30
0.0
  0
SEQEND
  5
12E5
330
457
100
AcDbEntity
  8
LAYER_1
  0
POLYLINE
  5
45B
330
3F0
100
AcDbEntity
  8
LAYER_1
100
AcDb2dPolyline
 66
     1
 10
0.0
 20
0.0
 30
0.0
 40
0.17639
 41
0.17639
  0
VERTEX
  5
12E6
330
45B
100
AcDbEntity
  8
LAYER_1
100
AcDbVertex
100
AcDb2dVertex
 10
144.13
 20
172.629
 30
0.0
  0
VERTEX
  5
12E7
330
45B
100
AcDbEntity
  8
LAYER_1
100
AcDbVertex
100
AcDb2dVertex
 10
144.1289999999999
 20
172.629
 30
0.0
 42
0.3925
  0
VERTEX
  5
12E8
330
45B
100
AcDbEntity
  8
LAYER_1
100
AcDbVertex
100
AcDb2dVertex
 10
144.5289999999999
 20
172.229
 30
0.0
 42
0.3926
  0
VERTEX
  5
12E9
330
45B
100
AcDbEntity
  8
LAYER_1
100
AcDbVertex
100
AcDb2dVertex
 10
144.9289999999999
 20
172.629
 30
0.0
  0
SEQEND
  5
12EA
330
45B
100
AcDbEntity
  8
LAYER_1
  0
POLYLINE
  5
461
330
3F0
100
AcDbEntity
  8
LAYER_1
100
AcDb2dPolyline
 66
     1
 10
0.0
 20
0.0
 30
0.0
 40
0.17639
 41
0.17639
  0
VERTEX
  5
12EB
330
461
100
AcDbEntity
  8
LAYER_1
100
AcDbVertex
100
AcDb2dVertex
 10
144.93
 20
172.8279999999999
 30
0.0
  0
VERTEX
  5
12EC
330
461
100
AcDbEntity
  8
LAYER_1
100
AcDbVertex
100
AcDb2dVertex
 10
144.9289999999999
 20
172.8279999999999
 30
0.0
 42
0.393
  0
VERTEX
  5
12ED
330
461
100
AcDbEntity
  8
LAYER_1
100
AcDbVertex
100
AcDb2dVertex
 10
144.5289999999999
 20
173.2279999999999
 30
0.0
 42
0.393
  0
VERTEX
  5
12EE
330
461
100
AcDbEntity
  8
LAYER_1
100
AcDbVertex
100
AcDb2dVertex
 10
144.1289999999999
 20
172.8279999999999
 30
0.0
  0
SEQEND
  5
12EF
330
461
100
AcDbEntity
  8
LAYER_1
  0
POLYLINE
  5
467
330
3F0
100
AcDbEntity
  8
LAYER_1
100
AcDb2dPolyline
 66
     1
 10
0.0
 20
0.0
 30
0.0
 40
0.17639
 41
0.17639
  0
VERTEX
  5
12F0
330
467
100
AcDbEntity
  8
LAYER_1
100
AcDbVertex
100
AcDb2dVertex
 10
144.93
 20
118.2279999999999
 30
0.0
  0
VERTEX
  5
12F1
330
467
100
AcDbEntity
  8
LAYER_1
100
AcDbVertex
100
AcDb2dVertex
 10
144.9289999999999
 20
118.2279999999999
 30
0.0
 42
0.3928
  0
VERTEX
  5
12F2
330
467
100
AcDbEntity
  8
LAYER_1
100
AcDbVertex
100
AcDb2dVertex
 10
144.5289999999999
 20
118.6279999999999
 30
0.0
 42
0.3932
  0
VERTEX
  5
12F3
330
467
100
AcDbEntity
  8
LAYER_1
100
AcDbVertex
100
AcDb2dVertex
 10
144.1289999999999
 20
118.2279999999999
 30
0.0
 42
0.3925
  0
VERTEX
  5
12F4
330
467
100
AcDbEntity
  8
LAYER_1
100
AcDbVertex
100
AcDb2dVertex
 10
144.5289999999999
 20
117.8279999999999
 30
0.0
 42
0.3926
  0
VERTEX
  5
12F5
330
467
100
AcDbEntity
  8
LAYER_1
100
AcDbVertex
100
AcDb2dVertex
 10
144.9289999999999
 20
118.2279999999999
 30
0.0
  0
SEQEND
  5
12F6
330
467
100
AcDbEntity
  8
LAYER_1
  0
POLYLINE
  5
46F
330
3F0
100
AcDbEntity
  8
LAYER_1
100
AcDb2dPolyline
 66
     1
 10
0.0
 20
0.0
 30
0.0
 40
0.17639
 41
0.17639
  0
VERTEX
  5
12F7
330
46F
100
AcDbEntity
  8
LAYER_1
100
AcDbVertex
100
AcDb2dVertex
 10
39.7034
 20
62.6191
 30
0.0
 42
0.3929
  0
VERTEX
  5
12F8
330
46F
100
AcDbEntity
  8
LAYER_1
100
AcDbVertex
100
AcDb2dVertex
 10
38.8911
 20
61.8064
 30
0.0
 42
0.3926
  0
VERTEX
  5
12F9
330
46F
100
AcDbEntity
  8
LAYER_1
100
AcDbVertex
100
AcDb2dVertex
 10
39.7034
 20
60.9937
 30
0.0
  0
SEQEND
  5
12FA
330
46F
100
AcDbEntity
  8
LAYER_1
  0
ENDBLK
  5
474
330
3F0
100
AcDbEntity
  8
0
100
AcDbBlockEnd
  0
BLOCK
  5
476
330
475
100
AcDbEntity
  8
LAYER_1
100
AcDbBlockBegin
  2
AIGNBL01010015
 70
     0
 10
0.0
 20
0.0
 30
0.0
  3
AIGNBL01010015
  1

  0
POLYLINE
  5
477
330
475
100
AcDbEntity
  8
LAYER_1
100
AcDb2dPolyline
 66
     1
 10
0.0
 20
0.0
 30
0.0
 70
     1
 40
0.35278
 41
0.35278
  0
VERTEX
  5
12FB
330
477
100
AcDbEntity
  8
LAYER_1
100
AcDbVertex
100
AcDb2dVertex
 10
40.5787
 20
60.9055
 30
0.0
 42
0.3927
  0
VERTEX
  5
12FC
330
477
100
AcDbEntity
  8
LAYER_1
100
AcDbVertex
100
AcDb2dVertex
 10
41.4794
 20
61.8064
 30
0.0
 42
0.3927
  0
VERTEX
  5
12FD
330
477
100
AcDbEntity
  8
LAYER_1
100
AcDbVertex
100
AcDb2dVertex
 10
40.5787
 20
62.7073
 30
0.0
  0
VERTEX
  5
12FE
330
477
100
AcDbEntity
  8
LAYER_1
100
AcDbVertex
100
AcDb2dVertex
 10
40.5787
 20
62.5309
 30
0.0
 42
-0.3928
  0
VERTEX
  5
12FF
330
477
100
AcDbEntity
  8
LAYER_1
100
AcDbVertex
100
AcDb2dVertex
 10
41.303
 20
61.8064
 30
0.0
 42
-0.3927
  0
VERTEX
  5
1300
330
477
100
AcDbEntity
  8
LAYER_1
100
AcDbVertex
100
AcDb2dVertex
 10
40.5787
 20
61.0819
 30
0.0
  0
SEQEND
  5
1301
330
477
100
AcDbEntity
  8
LAYER_1
  0
POLYLINE
  5
47F
330
475
100
AcDbEntity
  8
LAYER_1
100
AcDb2dPolyline
 66
     1
 10
0.0
 20
0.0
 30
0.0
 70
     1
 40
0.35278
 41
0.35278
  0
VERTEX
  5
1302
330
47F
100
AcDbEntity
  8
LAYER_1
100
AcDbVertex
100
AcDb2dVertex
 10
39.7034
 20
48.41969999999999
 30
0.0
 42
0.3927
  0
VERTEX
  5
1303
330
47F
100
AcDbEntity
  8
LAYER_1
100
AcDbVertex
100
AcDb2dVertex
 10
38.8029
 20
47.51879999999999
 30
0.0
 42
0.3927
  0
VERTEX
  5
1304
330
47F
100
AcDbEntity
  8
LAYER_1
100
AcDbVertex
100
AcDb2dVertex
 10
39.7034
 20
46.61789999999999
 30
0.0
  0
VERTEX
  5
1305
330
47F
100
AcDbEntity
  8
LAYER_1
100
AcDbVertex
100
AcDb2dVertex
 10
39.7034
 20
46.79429999999999
 30
0.0
 42
-0.3928
  0
VERTEX
  5
1306
330
47F
100
AcDbEntity
  8
LAYER_1
100
AcDbVertex
100
AcDb2dVertex
 10
38.9793
 20
47.51879999999999
 30
0.0
 42
-0.3926
  0
VERTEX
  5
1307
330
47F
100
AcDbEntity
  8
LAYER_1
100
AcDbVertex
100
AcDb2dVertex
 10
39.7034
 20
48.2434
 30
0.0
  0
SEQEND
  5
1308
330
47F
100
AcDbEntity
  8
LAYER_1
  0
POLYLINE
  5
487
330
475
100
AcDbEntity
  8
LAYER_1
100
AcDb2dPolyline
 66
     1
 10
0.0
 20
0.0
 30
0.0
 70
     1
 40
0.35278
 41
0.35278
  0
VERTEX
  5
1309
330
487
100
AcDbEntity
  8
LAYER_1
100
AcDbVertex
100
AcDb2dVertex
 10
40.5787
 20
46.61789999999999
 30
0.0
 42
0.3927
  0
VERTEX
  5
130A
330
487
100
AcDbEntity
  8
LAYER_1
100
AcDbVertex
100
AcDb2dVertex
 10
41.4794
 20
47.51879999999999
 30
0.0
 42
0.3927
  0
VERTEX
  5
130B
330
487
100
AcDbEntity
  8
LAYER_1
100
AcDbVertex
100
AcDb2dVertex
 10
40.5787
 20
48.41969999999999
 30
0.0
  0
VERTEX
  5
130C
330
487
100
AcDbEntity
  8
LAYER_1
100
AcDbVertex
100
AcDb2dVertex
 10
40.5787
 20
48.2434
 30
0.0
 42
-0.3928
  0
VERTEX
  5
130D
330
487
100
AcDbEntity
  8
LAYER_1
100
AcDbVertex
100
AcDb2dVertex
 10
41.303
 20
47.51879999999999
 30
0.0
 42
-0.3927
  0
VERTEX
  5
130E
330
487
100
AcDbEntity
  8
LAYER_1
100
AcDbVertex
100
AcDb2dVertex
 10
40.5787
 20
46.79429999999999
 30
0.0
  0
SEQEND
  5
130F
330
487
100
AcDbEntity
  8
LAYER_1
  0
POLYLINE
  5
48F
330
475
100
AcDbEntity
  8
LAYER_1
100
AcDb2dPolyline
 66
     1
 10
0.0
 20
0.0
 30
0.0
 70
     1
 40
0.35278
 41
0.35278
  0
VERTEX
  5
1310
330
48F
100
AcDbEntity
  8
LAYER_1
100
AcDbVertex
100
AcDb2dVertex
 10
156.8549999999999
 20
60.9055
 30
0.0
  0
VERTEX
  5
1311
330
48F
100
AcDbEntity
  8
LAYER_1
100
AcDbVertex
100
AcDb2dVertex
 10
156.8559999999999
 20
60.9055
 30
0.0
 42
0.3927
  0
VERTEX
  5
1312
330
48F
100
AcDbEntity
  8
LAYER_1
100
AcDbVertex
100
AcDb2dVertex
 10
157.756
 20
61.8064
 30
0.0
 42
0.3925
  0
VERTEX
  5
1313
330
48F
100
AcDbEntity
  8
LAYER_1
100
AcDbVertex
100
AcDb2dVertex
 10
156.8559999999999
 20
62.7073
 30
0.0
  0
VERTEX
  5
1314
330
48F
100
AcDbEntity
  8
LAYER_1
100
AcDbVertex
100
AcDb2dVertex
 10
156.8559999999999
 20
62.5309
 30
0.0
 42
-0.3928
  0
VERTEX
  5
1315
330
48F
100
AcDbEntity
  8
LAYER_1
100
AcDbVertex
100
AcDb2dVertex
 10
157.58
 20
61.8064
 30
0.0
 42
-0.3923
  0
VERTEX
  5
1316
330
48F
100
AcDbEntity
  8
LAYER_1
100
AcDbVertex
100
AcDb2dVertex
 10
156.8559999999999
 20
61.0819
 30
0.0
  0
SEQEND
  5
1317
330
48F
100
AcDbEntity
  8
LAYER_1
  0
POLYLINE
  5
498
330
475
100
AcDbEntity
  8
LAYER_1
100
AcDb2dPolyline
 66
     1
 10
0.0
 20
0.0
 30
0.0
 70
     1
 40
0.35278
 41
0.35278
  0
VERTEX
  5
1318
330
498
100
AcDbEntity
  8
LAYER_1
100
AcDbVertex
100
AcDb2dVertex
 10
155.9789999999999
 20
62.5309
 30
0.0
  0
VERTEX
  5
1319
330
498
100
AcDbEntity
  8
LAYER_1
100
AcDbVertex
100
AcDb2dVertex
 10
155.9789999999999
 20
62.5309
 30
0.0
  0
VERTEX
  5
131A
330
498
100
AcDbEntity
  8
LAYER_1
100
AcDbVertex
100
AcDb2dVertex
 10
155.9789999999999
 20
62.7073
 30
0.0
 42
0.3925
  0
VERTEX
  5
131B
330
498
100
AcDbEntity
  8
LAYER_1
100
AcDbVertex
100
AcDb2dVertex
 10
155.078
 20
61.8064
 30
0.0
 42
0.3927
  0
VERTEX
  5
131C
330
498
100
AcDbEntity
  8
LAYER_1
100
AcDbVertex
100
AcDb2dVertex
 10
155.9789999999999
 20
60.9055
 30
0.0
  0
VERTEX
  5
131D
330
498
100
AcDbEntity
  8
LAYER_1
100
AcDbVertex
100
AcDb2dVertex
 10
155.9789999999999
 20
61.0819
 30
0.0
 42
-0.3926
  0
VERTEX
  5
131E
330
498
100
AcDbEntity
  8
LAYER_1
100
AcDbVertex
100
AcDb2dVertex
 10
155.255
 20
61.8064
 30
0.0
 42
-0.3925
  0
VERTEX
  5
131F
330
498
100
AcDbEntity
  8
LAYER_1
100
AcDbVertex
100
AcDb2dVertex
 10
155.9789999999999
 20
62.5309
 30
0.0
  0
VERTEX
  5
1320
330
498
100
AcDbEntity
  8
LAYER_1
100
AcDbVertex
100
AcDb2dVertex
 10
155.9789999999999
 20
62.7073
 30
0.0
  0
SEQEND
  5
1321
330
498
100
AcDbEntity
  8
LAYER_1
  0
POLYLINE
  5
4A3
330
475
100
AcDbEntity
  8
LAYER_1
100
AcDb2dPolyline
 66
     1
 10
0.0
 20
0.0
 30
0.0
 70
     1
 40
0.35278
 41
0.35278
  0
VERTEX
  5
1322
330
4A3
100
AcDbEntity
  8
LAYER_1
100
AcDbVertex
100
AcDb2dVertex
 10
156.8549999999999
 20
46.61789999999999
 30
0.0
  0
VERTEX
  5
1323
330
4A3
100
AcDbEntity
  8
LAYER_1
100
AcDbVertex
100
AcDb2dVertex
 10
156.8559999999999
 20
46.61789999999999
 30
0.0
 42
0.3927
  0
VERTEX
  5
1324
330
4A3
100
AcDbEntity
  8
LAYER_1
100
AcDbVertex
100
AcDb2dVertex
 10
157.756
 20
47.51879999999999
 30
0.0
 42
0.3925
  0
VERTEX
  5
1325
330
4A3
100
AcDbEntity
  8
LAYER_1
100
AcDbVertex
100
AcDb2dVertex
 10
156.8559999999999
 20
48.41969999999999
 30
0.0
  0
VERTEX
  5
1326
330
4A3
100
AcDbEntity
  8
LAYER_1
100
AcDbVertex
100
AcDb2dVertex
 10
156.8559999999999
 20
48.2434
 30
0.0
 42
-0.3928
  0
VERTEX
  5
1327
330
4A3
100
AcDbEntity
  8
LAYER_1
100
AcDbVertex
100
AcDb2dVertex
 10
157.58
 20
47.51879999999999
 30
0.0
 42
-0.3923
  0
VERTEX
  5
1328
330
4A3
100
AcDbEntity
  8
LAYER_1
100
AcDbVertex
100
AcDb2dVertex
 10
156.8559999999999
 20
46.79429999999999
 30
0.0
  0
SEQEND
  5
1329
330
4A3
100
AcDbEntity
  8
LAYER_1
  0
POLYLINE
  5
4AC
330
475
100
AcDbEntity
  8
LAYER_1
100
AcDb2dPolyline
 66
     1
 10
0.0
 20
0.0
 30
0.0
 70
     1
 40
0.35278
 41
0.35278
  0
VERTEX
  5
132A
330
4AC
100
AcDbEntity
  8
LAYER_1
100
AcDbVertex
100
AcDb2dVertex
 10
155.9789999999999
 20
48.2434
 30
0.0
  0
VERTEX
  5
132B
330
4AC
100
AcDbEntity
  8
LAYER_1
100
AcDbVertex
100
AcDb2dVertex
 10
155.9789999999999
 20
48.2434
 30
0.0
  0
VERTEX
  5
132C
330
4AC
100
AcDbEntity
  8
LAYER_1
100
AcDbVertex
100
AcDb2dVertex
 10
155.9789999999999
 20
48.41969999999999
 30
0.0
 42
0.3925
  0
VERTEX
  5
132D
330
4AC
100
AcDbEntity
  8
LAYER_1
100
AcDbVertex
100
AcDb2dVertex
 10
155.078
 20
47.51879999999999
 30
0.0
 42
0.3927
  0
VERTEX
  5
132E
330
4AC
100
AcDbEntity
  8
LAYER_1
100
AcDbVertex
100
AcDb2dVertex
 10
155.9789999999999
 20
46.61789999999999
 30
0.0
  0
VERTEX
  5
132F
330
4AC
100
AcDbEntity
  8
LAYER_1
100
AcDbVertex
100
AcDb2dVertex
 10
155.9789999999999
 20
46.79429999999999
 30
0.0
 42
-0.3926
  0
VERTEX
  5
1330
330
4AC
100
AcDbEntity
  8
LAYER_1
100
AcDbVertex
100
AcDb2dVertex
 10
155.255
 20
47.51879999999999
 30
0.0
 42
-0.3925
  0
VERTEX
  5
1331
330
4AC
100
AcDbEntity
  8
LAYER_1
100
AcDbVertex
100
AcDb2dVertex
 10
155.9789999999999
 20
48.2434
 30
0.0
  0
VERTEX
  5
1332
330
4AC
100
AcDbEntity
  8
LAYER_1
100
AcDbVertex
100
AcDb2dVertex
 10
155.9789999999999
 20
48.41969999999999
 30
0.0
  0
SEQEND
  5
1333
330
4AC
100
AcDbEntity
  8
LAYER_1
  0
POLYLINE
  5
4B7
330
475
100
AcDbEntity
  8
LAYER_1
100
AcDb2dPolyline
 66
     1
 10
0.0
 20
0.0
 30
0.0
 70
     1
 40
0.35278
 41
0.35278
  0
VERTEX
  5
1334
330
4B7
100
AcDbEntity
  8
LAYER_1
100
AcDbVertex
100
AcDb2dVertex
 10
218.4109999999999
 20
187.2649999999999
 30
0.0
  0
VERTEX
  5
1335
330
4B7
100
AcDbEntity
  8
LAYER_1
100
AcDbVertex
100
AcDb2dVertex
 10
231.4109999999999
 20
187.2649999999999
 30
0.0
  0
VERTEX
  5
1336
330
4B7
100
AcDbEntity
  8
LAYER_1
100
AcDbVertex
100
AcDb2dVertex
 10
231.4109999999999
 20
187.442
 30
0.0
  0
VERTEX
  5
1337
330
4B7
100
AcDbEntity
  8
LAYER_1
100
AcDbVertex
100
AcDb2dVertex
 10
218.4109999999999
 20
187.442
 30
0.0
  0
SEQEND
  5
1338
330
4B7
100
AcDbEntity
  8
LAYER_1
  0
POLYLINE
  5
4BD
330
475
100
AcDbEntity
  8
LAYER_1
100
AcDb2dPolyline
 66
     1
 10
0.0
 20
0.0
 30
0.0
 70
     1
 40
0.35278
 41
0.35278
  0
VERTEX
  5
1339
330
4BD
100
AcDbEntity
  8
LAYER_1
100
AcDbVertex
100
AcDb2dVertex
 10
231.884
 20
105.9779999999999
 30
0.0
  0
VERTEX
  5
133A
330
4BD
100
AcDbEntity
  8
LAYER_1
100
AcDbVertex
100
AcDb2dVertex
 10
231.884
 20
99.3527
 30
0.0
  0
VERTEX
  5
133B
330
4BD
100
AcDbEntity
  8
LAYER_1
100
AcDbVertex
100
AcDb2dVertex
 10
232.06
 20
99.3527
 30
0.0
  0
VERTEX
  5
133C
330
4BD
100
AcDbEntity
  8
LAYER_1
100
AcDbVertex
100
AcDb2dVertex
 10
232.06
 20
105.9779999999999
 30
0.0
  0
SEQEND
  5
133D
330
4BD
100
AcDbEntity
  8
LAYER_1
  0
POLYLINE
  5
4C3
330
475
100
AcDbEntity
  8
LAYER_1
100
AcDb2dPolyline
 66
     1
 10
0.0
 20
0.0
 30
0.0
 70
     1
 40
0.35278
 41
0.35278
  0
VERTEX
  5
133E
330
4C3
100
AcDbEntity
  8
LAYER_1
100
AcDbVertex
100
AcDb2dVertex
 10
231.384
 20
99.8529
 30
0.0
  0
VERTEX
  5
133F
330
4C3
100
AcDbEntity
  8
LAYER_1
100
AcDbVertex
100
AcDb2dVertex
 10
231.384
 20
99.3527
 30
0.0
  0
VERTEX
  5
1340
330
4C3
100
AcDbEntity
  8
LAYER_1
100
AcDbVertex
100
AcDb2dVertex
 10
231.5599999999999
 20
99.3527
 30
0.0
  0
VERTEX
  5
1341
330
4C3
100
AcDbEntity
  8
LAYER_1
100
AcDbVertex
100
AcDb2dVertex
 10
231.5599999999999
 20
99.8529
 30
0.0
  0
SEQEND
  5
1342
330
4C3
100
AcDbEntity
  8
LAYER_1
  0
POLYLINE
  5
4C9
330
475
100
AcDbEntity
  8
LAYER_1
100
AcDb2dPolyline
 66
     1
 10
0.0
 20
0.0
 30
0.0
 70
     1
 40
0.35278
 41
0.35278
  0
VERTEX
  5
1343
330
4C9
100
AcDbEntity
  8
LAYER_1
100
AcDbVertex
100
AcDb2dVertex
 10
231.499
 20
107.728
 30
0.0
  0
VERTEX
  5
1344
330
4C9
100
AcDbEntity
  8
LAYER_1
100
AcDbVertex
100
AcDb2dVertex
 10
231.499
 20
187.3529999999999
 30
0.0
  0
VERTEX
  5
1345
330
4C9
100
AcDbEntity
  8
LAYER_1
100
AcDbVertex
100
AcDb2dVertex
 10
231.3229999999999
 20
187.3529999999999
 30
0.0
  0
VERTEX
  5
1346
330
4C9
100
AcDbEntity
  8
LAYER_1
100
AcDbVertex
100
AcDb2dVertex
 10
231.3229999999999
 20
107.728
 30
0.0
  0
SEQEND
  5
1347
330
4C9
100
AcDbEntity
  8
LAYER_1
  0
POLYLINE
  5
4CF
330
475
100
AcDbEntity
  8
LAYER_1
100
AcDb2dPolyline
 66
     1
 10
0.0
 20
0.0
 30
0.0
 70
     1
 40
0.35278
 41
0.35278
  0
VERTEX
  5
1348
330
4CF
100
AcDbEntity
  8
LAYER_1
100
AcDbVertex
100
AcDb2dVertex
 10
230.8749999999999
 20
106.478
 30
0.0
  0
VERTEX
  5
1349
330
4CF
100
AcDbEntity
  8
LAYER_1
100
AcDbVertex
100
AcDb2dVertex
 10
230.8749999999999
 20
107.728
 30
0.0
  0
VERTEX
  5
134A
330
4CF
100
AcDbEntity
  8
LAYER_1
100
AcDbVertex
100
AcDb2dVertex
 10
230.6979999999999
 20
107.728
 30
0.0
  0
VERTEX
  5
134B
330
4CF
100
AcDbEntity
  8
LAYER_1
100
AcDbVertex
100
AcDb2dVertex
 10
230.6979999999999
 20
106.478
 30
0.0
  0
SEQEND
  5
134C
330
4CF
100
AcDbEntity
  8
LAYER_1
  0
POLYLINE
  5
4D5
330
475
100
AcDbEntity
  8
LAYER_1
100
AcDb2dPolyline
 66
     1
 10
0.0
 20
0.0
 30
0.0
 70
     1
 40
0.35278
 41
0.35278
  0
VERTEX
  5
134D
330
4D5
100
AcDbEntity
  8
LAYER_1
100
AcDbVertex
100
AcDb2dVertex
 10
224.5709999999999
 20
139.8529999999999
 30
0.0
  0
VERTEX
  5
134E
330
4D5
100
AcDbEntity
  8
LAYER_1
100
AcDbVertex
100
AcDb2dVertex
 10
224.5709999999999
 20
118.8529999999999
 30
0.0
  0
VERTEX
  5
134F
330
4D5
100
AcDbEntity
  8
LAYER_1
100
AcDbVertex
100
AcDb2dVertex
 10
224.7479999999999
 20
118.8529999999999
 30
0.0
  0
VERTEX
  5
1350
330
4D5
100
AcDbEntity
  8
LAYER_1
100
AcDbVertex
100
AcDb2dVertex
 10
224.7479999999999
 20
139.8529999999999
 30
0.0
  0
SEQEND
  5
1351
330
4D5
100
AcDbEntity
  8
LAYER_1
  0
POLYLINE
  5
4DB
330
475
100
AcDbEntity
  8
LAYER_1
100
AcDb2dPolyline
 66
     1
 10
0.0
 20
0.0
 30
0.0
 70
     1
 40
0.35278
 41
0.35278
  0
VERTEX
  5
1352
330
4DB
100
AcDbEntity
  8
LAYER_1
100
AcDbVertex
100
AcDb2dVertex
 10
206.3229999999999
 20
142.2649999999999
 30
0.0
  0
VERTEX
  5
1353
330
4DB
100
AcDbEntity
  8
LAYER_1
100
AcDbVertex
100
AcDb2dVertex
 10
222.16
 20
142.2649999999999
 30
0.0
  0
VERTEX
  5
1354
330
4DB
100
AcDbEntity
  8
LAYER_1
100
AcDbVertex
100
AcDb2dVertex
 10
222.16
 20
142.442
 30
0.0
  0
VERTEX
  5
1355
330
4DB
100
AcDbEntity
  8
LAYER_1
100
AcDbVertex
100
AcDb2dVertex
 10
206.3229999999999
 20
142.442
 30
0.0
  0
SEQEND
  5
1356
330
4DB
100
AcDbEntity
  8
LAYER_1
  0
POLYLINE
  5
4E1
330
475
100
AcDbEntity
  8
LAYER_1
100
AcDb2dPolyline
 66
     1
 10
0.0
 20
0.0
 30
0.0
 70
     1
 40
0.35278
 41
0.35278
  0
VERTEX
  5
1357
330
4E1
100
AcDbEntity
  8
LAYER_1
100
AcDbVertex
100
AcDb2dVertex
 10
203.9099999999999
 20
118.8529999999999
 30
0.0
  0
VERTEX
  5
1358
330
4E1
100
AcDbEntity
  8
LAYER_1
100
AcDbVertex
100
AcDb2dVertex
 10
203.9099999999999
 20
139.8529999999999
 30
0.0
  0
VERTEX
  5
1359
330
4E1
100
AcDbEntity
  8
LAYER_1
100
AcDbVertex
100
AcDb2dVertex
 10
203.7329999999999
 20
139.8529999999999
 30
0.0
  0
VERTEX
  5
135A
330
4E1
100
AcDbEntity
  8
LAYER_1
100
AcDbVertex
100
AcDb2dVertex
 10
203.7329999999999
 20
118.8529999999999
 30
0.0
  0
SEQEND
  5
135B
330
4E1
100
AcDbEntity
  8
LAYER_1
  0
POLYLINE
  5
4E7
330
475
100
AcDbEntity
  8
LAYER_1
100
AcDb2dPolyline
 66
     1
 10
0.0
 20
0.0
 30
0.0
 70
     1
 40
0.35278
 41
0.35278
  0
VERTEX
  5
135C
330
4E7
100
AcDbEntity
  8
LAYER_1
100
AcDbVertex
100
AcDb2dVertex
 10
232.034
 20
106.04
 30
0.0
  0
VERTEX
  5
135D
330
4E7
100
AcDbEntity
  8
LAYER_1
100
AcDbVertex
100
AcDb2dVertex
 10
231.534
 20
106.5409999999999
 30
0.0
  0
VERTEX
  5
135E
330
4E7
100
AcDbEntity
  8
LAYER_1
100
AcDbVertex
100
AcDb2dVertex
 10
231.4099999999999
 20
106.4159999999999
 30
0.0
  0
VERTEX
  5
135F
330
4E7
100
AcDbEntity
  8
LAYER_1
100
AcDbVertex
100
AcDb2dVertex
 10
231.91
 20
105.9159999999999
 30
0.0
  0
SEQEND
  5
1360
330
4E7
100
AcDbEntity
  8
LAYER_1
  0
POLYLINE
  5
4ED
330
475
100
AcDbEntity
  8
LAYER_1
100
AcDb2dPolyline
 66
     1
 10
0.0
 20
0.0
 30
0.0
 70
     1
 40
0.35278
 41
0.35278
  0
VERTEX
  5
1361
330
4ED
100
AcDbEntity
  8
LAYER_1
100
AcDbVertex
100
AcDb2dVertex
 10
216.595
 20
186.235
 30
0.0
  0
VERTEX
  5
1362
330
4ED
100
AcDbEntity
  8
LAYER_1
100
AcDbVertex
100
AcDb2dVertex
 10
198.7409999999999
 20
143.6379999999999
 30
0.0
  0
VERTEX
  5
1363
330
4ED
100
AcDbEntity
  8
LAYER_1
100
AcDbVertex
100
AcDb2dVertex
 10
198.904
 20
143.5689999999999
 30
0.0
  0
VERTEX
  5
1364
330
4ED
100
AcDbEntity
  8
LAYER_1
100
AcDbVertex
100
AcDb2dVertex
 10
216.758
 20
186.167
 30
0.0
  0
SEQEND
  5
1365
330
4ED
100
AcDbEntity
  8
LAYER_1
  0
POLYLINE
  5
4F3
330
475
100
AcDbEntity
  8
LAYER_1
100
AcDb2dPolyline
 66
     1
 10
0.0
 20
0.0
 30
0.0
 70
     1
 40
0.35278
 41
0.35278
  0
VERTEX
  5
1366
330
4F3
100
AcDbEntity
  8
LAYER_1
100
AcDbVertex
100
AcDb2dVertex
 10
199.235
 20
99.8529
 30
0.0
  0
VERTEX
  5
1367
330
4F3
100
AcDbEntity
  8
LAYER_1
100
AcDbVertex
100
AcDb2dVertex
 10
199.235
 20
99.3527
 30
0.0
  0
VERTEX
  5
1368
330
4F3
100
AcDbEntity
  8
LAYER_1
100
AcDbVertex
100
AcDb2dVertex
 10
199.412
 20
99.3527
 30
0.0
  0
VERTEX
  5
1369
330
4F3
100
AcDbEntity
  8
LAYER_1
100
AcDbVertex
100
AcDb2dVertex
 10
199.412
 20
99.8529
 30
0.0
  0
SEQEND
  5
136A
330
4F3
100
AcDbEntity
  8
LAYER_1
  0
POLYLINE
  5
4F9
330
475
100
AcDbEntity
  8
LAYER_1
100
AcDb2dPolyline
 66
     1
 10
0.0
 20
0.0
 30
0.0
 70
     1
 40
0.35278
 41
0.35278
  0
VERTEX
  5
136B
330
4F9
100
AcDbEntity
  8
LAYER_1
100
AcDbVertex
100
AcDb2dVertex
 10
198.9109999999999
 20
99.3527
 30
0.0
  0
VERTEX
  5
136C
330
4F9
100
AcDbEntity
  8
LAYER_1
100
AcDbVertex
100
AcDb2dVertex
 10
198.9109999999999
 20
143.604
 30
0.0
  0
VERTEX
  5
136D
330
4F9
100
AcDbEntity
  8
LAYER_1
100
AcDbVertex
100
AcDb2dVertex
 10
198.734
 20
143.604
 30
0.0
  0
VERTEX
  5
136E
330
4F9
100
AcDbEntity
  8
LAYER_1
100
AcDbVertex
100
AcDb2dVertex
 10
198.734
 20
99.3527
 30
0.0
  0
SEQEND
  5
136F
330
4F9
100
AcDbEntity
  8
LAYER_1
  0
POLYLINE
  5
4FF
330
475
100
AcDbEntity
  8
LAYER_1
100
AcDb2dPolyline
 66
     1
 10
0.0
 20
0.0
 30
0.0
 70
     1
 40
0.35278
 41
0.35278
  0
VERTEX
  5
1370
330
4FF
100
AcDbEntity
  8
LAYER_1
100
AcDbVertex
100
AcDb2dVertex
 10
222.16
 20
116.4409999999999
 30
0.0
  0
VERTEX
  5
1371
330
4FF
100
AcDbEntity
  8
LAYER_1
100
AcDbVertex
100
AcDb2dVertex
 10
206.3229999999999
 20
116.4409999999999
 30
0.0
  0
VERTEX
  5
1372
330
4FF
100
AcDbEntity
  8
LAYER_1
100
AcDbVertex
100
AcDb2dVertex
 10
206.3229999999999
 20
116.2649999999999
 30
0.0
  0
VERTEX
  5
1373
330
4FF
100
AcDbEntity
  8
LAYER_1
100
AcDbVertex
100
AcDb2dVertex
 10
222.16
 20
116.2649999999999
 30
0.0
  0
SEQEND
  5
1374
330
4FF
100
AcDbEntity
  8
LAYER_1
  0
POLYLINE
  5
505
330
475
100
AcDbEntity
  8
LAYER_1
100
AcDb2dPolyline
 66
     1
 10
0.0
 20
0.0
 30
0.0
 70
     1
 40
0.35278
 41
0.35278
  0
VERTEX
  5
1375
330
505
100
AcDbEntity
  8
LAYER_1
100
AcDbVertex
100
AcDb2dVertex
 10
231.4109999999999
 20
107.816
 30
0.0
  0
VERTEX
  5
1376
330
505
100
AcDbEntity
  8
LAYER_1
100
AcDbVertex
100
AcDb2dVertex
 10
230.7859999999999
 20
107.816
 30
0.0
  0
VERTEX
  5
1377
330
505
100
AcDbEntity
  8
LAYER_1
100
AcDbVertex
100
AcDb2dVertex
 10
230.7859999999999
 20
107.64
 30
0.0
  0
VERTEX
  5
1378
330
505
100
AcDbEntity
  8
LAYER_1
100
AcDbVertex
100
AcDb2dVertex
 10
231.4109999999999
 20
107.64
 30
0.0
  0
SEQEND
  5
1379
330
505
100
AcDbEntity
  8
LAYER_1
  0
POLYLINE
  5
50B
330
475
100
AcDbEntity
  8
LAYER_1
100
AcDb2dPolyline
 66
     1
 10
0.0
 20
0.0
 30
0.0
 70
     1
 40
0.35278
 41
0.35278
  0
VERTEX
  5
137A
330
50B
100
AcDbEntity
  8
LAYER_1
100
AcDbVertex
100
AcDb2dVertex
 10
230.7859999999999
 20
106.39
 30
0.0
  0
VERTEX
  5
137B
330
50B
100
AcDbEntity
  8
LAYER_1
100
AcDbVertex
100
AcDb2dVertex
 10
231.472
 20
106.39
 30
0.0
  0
VERTEX
  5
137C
330
50B
100
AcDbEntity
  8
LAYER_1
100
AcDbVertex
100
AcDb2dVertex
 10
231.472
 20
106.566
 30
0.0
  0
VERTEX
  5
137D
330
50B
100
AcDbEntity
  8
LAYER_1
100
AcDbVertex
100
AcDb2dVertex
 10
230.7859999999999
 20
106.566
 30
0.0
  0
SEQEND
  5
137E
330
50B
100
AcDbEntity
  8
LAYER_1
  0
POLYLINE
  5
511
330
475
100
AcDbEntity
  8
LAYER_1
100
AcDb2dPolyline
 66
     1
 10
0.0
 20
0.0
 30
0.0
 70
     1
 40
0.35278
 41
0.35278
  0
VERTEX
  5
137F
330
511
100
AcDbEntity
  8
LAYER_1
100
AcDbVertex
100
AcDb2dVertex
 10
218.3629999999999
 20
187.427
 30
0.0
  0
VERTEX
  5
1380
330
511
100
AcDbEntity
  8
LAYER_1
100
AcDbVertex
100
AcDb2dVertex
 10
216.6279999999999
 20
186.274
 30
0.0
  0
VERTEX
  5
1381
330
511
100
AcDbEntity
  8
LAYER_1
100
AcDbVertex
100
AcDb2dVertex
 10
216.725
 20
186.127
 30
0.0
  0
VERTEX
  5
1382
330
511
100
AcDbEntity
  8
LAYER_1
100
AcDbVertex
100
AcDb2dVertex
 10
218.46
 20
187.2799999999999
 30
0.0
  0
SEQEND
  5
1383
330
511
100
AcDbEntity
  8
LAYER_1
  0
POLYLINE
  5
517
330
475
100
AcDbEntity
  8
LAYER_1
100
AcDb2dPolyline
 66
     1
 10
0.0
 20
0.0
 30
0.0
 70
     1
 40
0.35278
 41
0.35278
  0
VERTEX
  5
1384
330
517
100
AcDbEntity
  8
LAYER_1
100
AcDbVertex
100
AcDb2dVertex
 10
198.8229999999999
 20
99.7647
 30
0.0
  0
VERTEX
  5
1385
330
517
100
AcDbEntity
  8
LAYER_1
100
AcDbVertex
100
AcDb2dVertex
 10
231.972
 20
99.7647
 30
0.0
  0
VERTEX
  5
1386
330
517
100
AcDbEntity
  8
LAYER_1
100
AcDbVertex
100
AcDb2dVertex
 10
231.972
 20
99.9411
 30
0.0
  0
VERTEX
  5
1387
330
517
100
AcDbEntity
  8
LAYER_1
100
AcDbVertex
100
AcDb2dVertex
 10
198.8229999999999
 20
99.9411
 30
0.0
  0
SEQEND
  5
1388
330
517
100
AcDbEntity
  8
LAYER_1
  0
POLYLINE
  5
51D
330
475
100
AcDbEntity
  8
LAYER_1
100
AcDb2dPolyline
 66
     1
 10
0.0
 20
0.0
 30
0.0
 70
     1
 40
0.35278
 41
0.35278
  0
VERTEX
  5
1389
330
51D
100
AcDbEntity
  8
LAYER_1
100
AcDbVertex
100
AcDb2dVertex
 10
198.8229999999999
 20
99.2645
 30
0.0
  0
VERTEX
  5
138A
330
51D
100
AcDbEntity
  8
LAYER_1
100
AcDbVertex
100
AcDb2dVertex
 10
231.972
 20
99.2645
 30
0.0
  0
VERTEX
  5
138B
330
51D
100
AcDbEntity
  8
LAYER_1
100
AcDbVertex
100
AcDb2dVertex
 10
231.972
 20
99.4409
 30
0.0
  0
VERTEX
  5
138C
330
51D
100
AcDbEntity
  8
LAYER_1
100
AcDbVertex
100
AcDb2dVertex
 10
198.8229999999999
 20
99.4409
 30
0.0
  0
SEQEND
  5
138D
330
51D
100
AcDbEntity
  8
LAYER_1
  0
POLYLINE
  5
523
330
475
100
AcDbEntity
  8
LAYER_1
100
AcDb2dPolyline
 66
     1
 10
0.0
 20
0.0
 30
0.0
 70
     1
 40
0.35278
 41
0.35278
  0
VERTEX
  5
138E
330
523
100
AcDbEntity
  8
LAYER_1
100
AcDbVertex
100
AcDb2dVertex
 10
158.6179999999999
 20
216.119
 30
0.0
  0
VERTEX
  5
138F
330
523
100
AcDbEntity
  8
LAYER_1
100
AcDbVertex
100
AcDb2dVertex
 10
158.6179999999999
 20
248.268
 30
0.0
  0
VERTEX
  5
1390
330
523
100
AcDbEntity
  8
LAYER_1
100
AcDbVertex
100
AcDb2dVertex
 10
158.441
 20
248.268
 30
0.0
  0
VERTEX
  5
1391
330
523
100
AcDbEntity
  8
LAYER_1
100
AcDbVertex
100
AcDb2dVertex
 10
158.441
 20
216.119
 30
0.0
  0
SEQEND
  5
1392
330
523
100
AcDbEntity
  8
LAYER_1
  0
POLYLINE
  5
529
330
475
100
AcDbEntity
  8
LAYER_1
100
AcDb2dPolyline
 66
     1
 10
0.0
 20
0.0
 30
0.0
 70
     1
 40
0.35278
 41
0.35278
  0
VERTEX
  5
1393
330
529
100
AcDbEntity
  8
LAYER_1
100
AcDbVertex
100
AcDb2dVertex
 10
157.967
 20
248.706
 30
0.0
  0
VERTEX
  5
1394
330
529
100
AcDbEntity
  8
LAYER_1
100
AcDbVertex
100
AcDb2dVertex
 10
158.467
 20
248.206
 30
0.0
  0
VERTEX
  5
1395
330
529
100
AcDbEntity
  8
LAYER_1
100
AcDbVertex
100
AcDb2dVertex
 10
158.592
 20
248.3309999999999
 30
0.0
  0
VERTEX
  5
1396
330
529
100
AcDbEntity
  8
LAYER_1
100
AcDbVertex
100
AcDb2dVertex
 10
158.092
 20
248.8309999999999
 30
0.0
  0
SEQEND
  5
1397
330
529
100
AcDbEntity
  8
LAYER_1
  0
POLYLINE
  5
52F
330
475
100
AcDbEntity
  8
LAYER_1
100
AcDb2dPolyline
 66
     1
 10
0.0
 20
0.0
 30
0.0
 70
     1
 40
0.35278
 41
0.35278
  0
VERTEX
  5
1398
330
52F
100
AcDbEntity
  8
LAYER_1
100
AcDbVertex
100
AcDb2dVertex
 10
158.092
 20
215.557
 30
0.0
  0
VERTEX
  5
1399
330
52F
100
AcDbEntity
  8
LAYER_1
100
AcDbVertex
100
AcDb2dVertex
 10
158.592
 20
216.057
 30
0.0
  0
VERTEX
  5
139A
330
52F
100
AcDbEntity
  8
LAYER_1
100
AcDbVertex
100
AcDb2dVertex
 10
158.467
 20
216.181
 30
0.0
  0
VERTEX
  5
139B
330
52F
100
AcDbEntity
  8
LAYER_1
100
AcDbVertex
100
AcDb2dVertex
 10
157.967
 20
215.6809999999999
 30
0.0
  0
SEQEND
  5
139C
330
52F
100
AcDbEntity
  8
LAYER_1
  0
POLYLINE
  5
535
330
475
100
AcDbEntity
  8
LAYER_1
100
AcDb2dPolyline
 66
     1
 10
0.0
 20
0.0
 30
0.0
 70
     1
 40
0.35278
 41
0.35278
  0
VERTEX
  5
139D
330
535
100
AcDbEntity
  8
LAYER_1
100
AcDbVertex
100
AcDb2dVertex
 10
152.242
 20
215.619
 30
0.0
  0
VERTEX
  5
139E
330
535
100
AcDbEntity
  8
LAYER_1
100
AcDbVertex
100
AcDb2dVertex
 10
152.242
 20
248.768
 30
0.0
  0
VERTEX
  5
139F
330
535
100
AcDbEntity
  8
LAYER_1
100
AcDbVertex
100
AcDb2dVertex
 10
152.066
 20
248.768
 30
0.0
  0
VERTEX
  5
13A0
330
535
100
AcDbEntity
  8
LAYER_1
100
AcDbVertex
100
AcDb2dVertex
 10
152.066
 20
215.619
 30
0.0
  0
SEQEND
  5
13A1
330
535
100
AcDbEntity
  8
LAYER_1
  0
POLYLINE
  5
53B
330
475
100
AcDbEntity
  8
LAYER_1
100
AcDb2dPolyline
 66
     1
 10
0.0
 20
0.0
 30
0.0
 70
     1
 40
0.35278
 41
0.35278
  0
VERTEX
  5
13A2
330
53B
100
AcDbEntity
  8
LAYER_1
100
AcDbVertex
100
AcDb2dVertex
 10
151.742
 20
248.2069999999999
 30
0.0
  0
VERTEX
  5
13A3
330
53B
100
AcDbEntity
  8
LAYER_1
100
AcDbVertex
100
AcDb2dVertex
 10
151.742
 20
248.768
 30
0.0
  0
VERTEX
  5
13A4
330
53B
100
AcDbEntity
  8
LAYER_1
100
AcDbVertex
100
AcDb2dVertex
 10
151.566
 20
248.768
 30
0.0
  0
VERTEX
  5
13A5
330
53B
100
AcDbEntity
  8
LAYER_1
100
AcDbVertex
100
AcDb2dVertex
 10
151.566
 20
248.2069999999999
 30
0.0
  0
SEQEND
  5
13A6
330
53B
100
AcDbEntity
  8
LAYER_1
  0
POLYLINE
  5
541
330
475
100
AcDbEntity
  8
LAYER_1
100
AcDb2dPolyline
 66
     1
 10
0.0
 20
0.0
 30
0.0
 70
     1
 40
0.35278
 41
0.35278
  0
VERTEX
  5
13A7
330
541
100
AcDbEntity
  8
LAYER_1
100
AcDbVertex
100
AcDb2dVertex
 10
151.566
 20
247.7069999999999
 30
0.0
  0
VERTEX
  5
13A8
330
541
100
AcDbEntity
  8
LAYER_1
100
AcDbVertex
100
AcDb2dVertex
 10
151.566
 20
215.619
 30
0.0
  0
VERTEX
  5
13A9
330
541
100
AcDbEntity
  8
LAYER_1
100
AcDbVertex
100
AcDb2dVertex
 10
151.742
 20
215.619
 30
0.0
  0
VERTEX
  5
13AA
330
541
100
AcDbEntity
  8
LAYER_1
100
AcDbVertex
100
AcDb2dVertex
 10
151.742
 20
247.7069999999999
 30
0.0
  0
SEQEND
  5
13AB
330
541
100
AcDbEntity
  8
LAYER_1
  0
POLYLINE
  5
547
330
475
100
AcDbEntity
  8
LAYER_1
100
AcDb2dPolyline
 66
     1
 10
0.0
 20
0.0
 30
0.0
 70
     1
 40
0.35278
 41
0.35278
  0
VERTEX
  5
13AC
330
547
100
AcDbEntity
  8
LAYER_1
100
AcDbVertex
100
AcDb2dVertex
 10
144.617
 20
247.7069999999999
 30
0.0
  0
VERTEX
  5
13AD
330
547
100
AcDbEntity
  8
LAYER_1
100
AcDbVertex
100
AcDb2dVertex
 10
144.617
 20
248.2069999999999
 30
0.0
  0
VERTEX
  5
13AE
330
547
100
AcDbEntity
  8
LAYER_1
100
AcDbVertex
100
AcDb2dVertex
 10
144.4399999999999
 20
248.2069999999999
 30
0.0
  0
VERTEX
  5
13AF
330
547
100
AcDbEntity
  8
LAYER_1
100
AcDbVertex
100
AcDb2dVertex
 10
144.4399999999999
 20
247.7069999999999
 30
0.0
  0
SEQEND
  5
13B0
330
547
100
AcDbEntity
  8
LAYER_1
  0
POLYLINE
  5
54D
330
475
100
AcDbEntity
  8
LAYER_1
100
AcDb2dPolyline
 66
     1
 10
0.0
 20
0.0
 30
0.0
 70
     1
 40
0.35278
 41
0.35278
  0
VERTEX
  5
13B1
330
54D
100
AcDbEntity
  8
LAYER_1
100
AcDbVertex
100
AcDb2dVertex
 10
143.367
 20
247.7069999999999
 30
0.0
  0
VERTEX
  5
13B2
330
54D
100
AcDbEntity
  8
LAYER_1
100
AcDbVertex
100
AcDb2dVertex
 10
143.367
 20
248.2069999999999
 30
0.0
  0
VERTEX
  5
13B3
330
54D
100
AcDbEntity
  8
LAYER_1
100
AcDbVertex
100
AcDb2dVertex
 10
143.1899999999999
 20
248.2069999999999
 30
0.0
  0
VERTEX
  5
13B4
330
54D
100
AcDbEntity
  8
LAYER_1
100
AcDbVertex
100
AcDb2dVertex
 10
143.1899999999999
 20
247.7069999999999
 30
0.0
  0
SEQEND
  5
13B5
330
54D
100
AcDbEntity
  8
LAYER_1
  0
POLYLINE
  5
553
330
475
100
AcDbEntity
  8
LAYER_1
100
AcDb2dPolyline
 66
     1
 10
0.0
 20
0.0
 30
0.0
 70
     1
 40
0.35278
 41
0.35278
  0
VERTEX
  5
13B6
330
553
100
AcDbEntity
  8
LAYER_1
100
AcDbVertex
100
AcDb2dVertex
 10
151.6539999999999
 20
248.68
 30
0.0
  0
VERTEX
  5
13B7
330
553
100
AcDbEntity
  8
LAYER_1
100
AcDbVertex
100
AcDb2dVertex
 10
158.0289999999999
 20
248.68
 30
0.0
  0
VERTEX
  5
13B8
330
553
100
AcDbEntity
  8
LAYER_1
100
AcDbVertex
100
AcDb2dVertex
 10
158.0289999999999
 20
248.857
 30
0.0
  0
VERTEX
  5
13B9
330
553
100
AcDbEntity
  8
LAYER_1
100
AcDbVertex
100
AcDb2dVertex
 10
151.6539999999999
 20
248.857
 30
0.0
  0
SEQEND
  5
13BA
330
553
100
AcDbEntity
  8
LAYER_1
  0
POLYLINE
  5
559
330
475
100
AcDbEntity
  8
LAYER_1
100
AcDb2dPolyline
 66
     1
 10
0.0
 20
0.0
 30
0.0
 70
     1
 40
0.35278
 41
0.35278
  0
VERTEX
  5
13BB
330
559
100
AcDbEntity
  8
LAYER_1
100
AcDbVertex
100
AcDb2dVertex
 10
44.9035
 20
248.857
 30
0.0
  0
VERTEX
  5
13BC
330
559
100
AcDbEntity
  8
LAYER_1
100
AcDbVertex
100
AcDb2dVertex
 10
38.52859999999999
 20
248.857
 30
0.0
  0
VERTEX
  5
13BD
330
559
100
AcDbEntity
  8
LAYER_1
100
AcDbVertex
100
AcDb2dVertex
 10
38.52859999999999
 20
248.68
 30
0.0
  0
VERTEX
  5
13BE
330
559
100
AcDbEntity
  8
LAYER_1
100
AcDbVertex
100
AcDb2dVertex
 10
44.9035
 20
248.68
 30
0.0
  0
SEQEND
  5
13BF
330
559
100
AcDbEntity
  8
LAYER_1
  0
POLYLINE
  5
55F
330
475
100
AcDbEntity
  8
LAYER_1
100
AcDb2dPolyline
 66
     1
 10
0.0
 20
0.0
 30
0.0
 70
     1
 40
0.35278
 41
0.35278
  0
VERTEX
  5
13C0
330
55F
100
AcDbEntity
  8
LAYER_1
100
AcDbVertex
100
AcDb2dVertex
 10
151.6539999999999
 20
248.18
 30
0.0
  0
VERTEX
  5
13C1
330
55F
100
AcDbEntity
  8
LAYER_1
100
AcDbVertex
100
AcDb2dVertex
 10
152.1539999999999
 20
248.18
 30
0.0
  0
VERTEX
  5
13C2
330
55F
100
AcDbEntity
  8
LAYER_1
100
AcDbVertex
100
AcDb2dVertex
 10
152.1539999999999
 20
248.356
 30
0.0
  0
VERTEX
  5
13C3
330
55F
100
AcDbEntity
  8
LAYER_1
100
AcDbVertex
100
AcDb2dVertex
 10
151.6539999999999
 20
248.356
 30
0.0
  0
SEQEND
  5
13C4
330
55F
100
AcDbEntity
  8
LAYER_1
  0
POLYLINE
  5
565
330
475
100
AcDbEntity
  8
LAYER_1
100
AcDb2dPolyline
 66
     1
 10
0.0
 20
0.0
 30
0.0
 70
     1
 40
0.35278
 41
0.35278
  0
VERTEX
  5
13C5
330
565
100
AcDbEntity
  8
LAYER_1
100
AcDbVertex
100
AcDb2dVertex
 10
44.9035
 20
248.356
 30
0.0
  0
VERTEX
  5
13C6
330
565
100
AcDbEntity
  8
LAYER_1
100
AcDbVertex
100
AcDb2dVertex
 10
44.4036
 20
248.356
 30
0.0
  0
VERTEX
  5
13C7
330
565
100
AcDbEntity
  8
LAYER_1
100
AcDbVertex
100
AcDb2dVertex
 10
44.4036
 20
248.18
 30
0.0
  0
VERTEX
  5
13C8
330
565
100
AcDbEntity
  8
LAYER_1
100
AcDbVertex
100
AcDb2dVertex
 10
44.9035
 20
248.18
 30
0.0
  0
SEQEND
  5
13C9
330
565
100
AcDbEntity
  8
LAYER_1
  0
POLYLINE
  5
56B
330
475
100
AcDbEntity
  8
LAYER_1
100
AcDb2dPolyline
 66
     1
 10
0.0
 20
0.0
 30
0.0
 70
     1
 40
0.35278
 41
0.35278
  0
VERTEX
  5
13CA
330
56B
100
AcDbEntity
  8
LAYER_1
100
AcDbVertex
100
AcDb2dVertex
 10
143.2789999999999
 20
248.119
 30
0.0
  0
VERTEX
  5
13CB
330
56B
100
AcDbEntity
  8
LAYER_1
100
AcDbVertex
100
AcDb2dVertex
 10
151.6539999999999
 20
248.119
 30
0.0
  0
VERTEX
  5
13CC
330
56B
100
AcDbEntity
  8
LAYER_1
100
AcDbVertex
100
AcDb2dVertex
 10
151.6539999999999
 20
248.2949999999999
 30
0.0
  0
VERTEX
  5
13CD
330
56B
100
AcDbEntity
  8
LAYER_1
100
AcDbVertex
100
AcDb2dVertex
 10
143.2789999999999
 20
248.2949999999999
 30
0.0
  0
SEQEND
  5
13CE
330
56B
100
AcDbEntity
  8
LAYER_1
  0
POLYLINE
  5
571
330
475
100
AcDbEntity
  8
LAYER_1
100
AcDb2dPolyline
 66
     1
 10
0.0
 20
0.0
 30
0.0
 70
     1
 40
0.35278
 41
0.35278
  0
VERTEX
  5
13CF
330
571
100
AcDbEntity
  8
LAYER_1
100
AcDbVertex
100
AcDb2dVertex
 10
53.2787
 20
248.2949999999999
 30
0.0
  0
VERTEX
  5
13D0
330
571
100
AcDbEntity
  8
LAYER_1
100
AcDbVertex
100
AcDb2dVertex
 10
44.9035
 20
248.2949999999999
 30
0.0
  0
VERTEX
  5
13D1
330
571
100
AcDbEntity
  8
LAYER_1
100
AcDbVertex
100
AcDb2dVertex
 10
44.9035
 20
248.119
 30
0.0
  0
VERTEX
  5
13D2
330
571
100
AcDbEntity
  8
LAYER_1
100
AcDbVertex
100
AcDb2dVertex
 10
53.2787
 20
248.119
 30
0.0
  0
SEQEND
  5
13D3
330
571
100
AcDbEntity
  8
LAYER_1
  0
POLYLINE
  5
577
330
475
100
AcDbEntity
  8
LAYER_1
100
AcDb2dPolyline
 66
     1
 10
0.0
 20
0.0
 30
0.0
 70
     1
 40
0.35278
 41
0.35278
  0
VERTEX
  5
13D4
330
577
100
AcDbEntity
  8
LAYER_1
100
AcDbVertex
100
AcDb2dVertex
 10
143.2789999999999
 20
247.6179999999999
 30
0.0
  0
VERTEX
  5
13D5
330
577
100
AcDbEntity
  8
LAYER_1
100
AcDbVertex
100
AcDb2dVertex
 10
151.6539999999999
 20
247.6179999999999
 30
0.0
  0
VERTEX
  5
13D6
330
577
100
AcDbEntity
  8
LAYER_1
100
AcDbVertex
100
AcDb2dVertex
 10
151.6539999999999
 20
247.7949999999999
 30
0.0
  0
VERTEX
  5
13D7
330
577
100
AcDbEntity
  8
LAYER_1
100
AcDbVertex
100
AcDb2dVertex
 10
143.2789999999999
 20
247.7949999999999
 30
0.0
  0
SEQEND
  5
13D8
330
577
100
AcDbEntity
  8
LAYER_1
  0
POLYLINE
  5
57D
330
475
100
AcDbEntity
  8
LAYER_1
100
AcDb2dPolyline
 66
     1
 10
0.0
 20
0.0
 30
0.0
 70
     1
 40
0.35278
 41
0.35278
  0
VERTEX
  5
13D9
330
57D
100
AcDbEntity
  8
LAYER_1
100
AcDbVertex
100
AcDb2dVertex
 10
53.2787
 20
247.7949999999999
 30
0.0
  0
VERTEX
  5
13DA
330
57D
100
AcDbEntity
  8
LAYER_1
100
AcDbVertex
100
AcDb2dVertex
 10
44.9035
 20
247.7949999999999
 30
0.0
  0
VERTEX
  5
13DB
330
57D
100
AcDbEntity
  8
LAYER_1
100
AcDbVertex
100
AcDb2dVertex
 10
44.9035
 20
247.6179999999999
 30
0.0
  0
VERTEX
  5
13DC
330
57D
100
AcDbEntity
  8
LAYER_1
100
AcDbVertex
100
AcDb2dVertex
 10
53.2787
 20
247.6179999999999
 30
0.0
  0
SEQEND
  5
13DD
330
57D
100
AcDbEntity
  8
LAYER_1
  0
POLYLINE
  5
583
330
475
100
AcDbEntity
  8
LAYER_1
100
AcDb2dPolyline
 66
     1
 10
0.0
 20
0.0
 30
0.0
 70
     1
 40
0.35278
 41
0.35278
  0
VERTEX
  5
13DE
330
583
100
AcDbEntity
  8
LAYER_1
100
AcDbVertex
100
AcDb2dVertex
 10
39.7034
 20
240.0539999999999
 30
0.0
  0
VERTEX
  5
13DF
330
583
100
AcDbEntity
  8
LAYER_1
100
AcDbVertex
100
AcDb2dVertex
 10
40.5787
 20
240.0539999999999
 30
0.0
  0
VERTEX
  5
13E0
330
583
100
AcDbEntity
  8
LAYER_1
100
AcDbVertex
100
AcDb2dVertex
 10
40.5787
 20
240.2309999999999
 30
0.0
  0
VERTEX
  5
13E1
330
583
100
AcDbEntity
  8
LAYER_1
100
AcDbVertex
100
AcDb2dVertex
 10
39.7034
 20
240.2309999999999
 30
0.0
  0
SEQEND
  5
13E2
330
583
100
AcDbEntity
  8
LAYER_1
  0
POLYLINE
  5
589
330
475
100
AcDbEntity
  8
LAYER_1
100
AcDb2dPolyline
 66
     1
 10
0.0
 20
0.0
 30
0.0
 70
     1
 40
0.35278
 41
0.35278
  0
VERTEX
  5
13E3
330
589
100
AcDbEntity
  8
LAYER_1
100
AcDbVertex
100
AcDb2dVertex
 10
156.8549999999999
 20
240.2309999999999
 30
0.0
  0
VERTEX
  5
13E4
330
589
100
AcDbEntity
  8
LAYER_1
100
AcDbVertex
100
AcDb2dVertex
 10
155.9789999999999
 20
240.2309999999999
 30
0.0
  0
VERTEX
  5
13E5
330
589
100
AcDbEntity
  8
LAYER_1
100
AcDbVertex
100
AcDb2dVertex
 10
155.9789999999999
 20
240.0539999999999
 30
0.0
  0
VERTEX
  5
13E6
330
589
100
AcDbEntity
  8
LAYER_1
100
AcDbVertex
100
AcDb2dVertex
 10
156.8549999999999
 20
240.0539999999999
 30
0.0
  0
SEQEND
  5
13E7
330
589
100
AcDbEntity
  8
LAYER_1
  0
POLYLINE
  5
58F
330
475
100
AcDbEntity
  8
LAYER_1
100
AcDb2dPolyline
 66
     1
 10
0.0
 20
0.0
 30
0.0
 70
     1
 40
0.35278
 41
0.35278
  0
VERTEX
  5
13E8
330
58F
100
AcDbEntity
  8
LAYER_1
100
AcDbVertex
100
AcDb2dVertex
 10
155.9789999999999
 20
238.4309999999999
 30
0.0
  0
VERTEX
  5
13E9
330
58F
100
AcDbEntity
  8
LAYER_1
100
AcDbVertex
100
AcDb2dVertex
 10
156.8549999999999
 20
238.4309999999999
 30
0.0
  0
VERTEX
  5
13EA
330
58F
100
AcDbEntity
  8
LAYER_1
100
AcDbVertex
100
AcDb2dVertex
 10
156.8549999999999
 20
238.607
 30
0.0
  0
VERTEX
  5
13EB
330
58F
100
AcDbEntity
  8
LAYER_1
100
AcDbVertex
100
AcDb2dVertex
 10
155.9789999999999
 20
238.607
 30
0.0
  0
SEQEND
  5
13EC
330
58F
100
AcDbEntity
  8
LAYER_1
  0
POLYLINE
  5
595
330
475
100
AcDbEntity
  8
LAYER_1
100
AcDb2dPolyline
 66
     1
 10
0.0
 20
0.0
 30
0.0
 70
     1
 40
0.35278
 41
0.35278
  0
VERTEX
  5
13ED
330
595
100
AcDbEntity
  8
LAYER_1
100
AcDbVertex
100
AcDb2dVertex
 10
40.5787
 20
238.607
 30
0.0
  0
VERTEX
  5
13EE
330
595
100
AcDbEntity
  8
LAYER_1
100
AcDbVertex
100
AcDb2dVertex
 10
39.7034
 20
238.607
 30
0.0
  0
VERTEX
  5
13EF
330
595
100
AcDbEntity
  8
LAYER_1
100
AcDbVertex
100
AcDb2dVertex
 10
39.7034
 20
238.4309999999999
 30
0.0
  0
VERTEX
  5
13F0
330
595
100
AcDbEntity
  8
LAYER_1
100
AcDbVertex
100
AcDb2dVertex
 10
40.5787
 20
238.4309999999999
 30
0.0
  0
SEQEND
  5
13F1
330
595
100
AcDbEntity
  8
LAYER_1
  0
POLYLINE
  5
59B
330
475
100
AcDbEntity
  8
LAYER_1
100
AcDb2dPolyline
 66
     1
 10
0.0
 20
0.0
 30
0.0
 70
     1
 40
0.35278
 41
0.35278
  0
VERTEX
  5
13F2
330
59B
100
AcDbEntity
  8
LAYER_1
100
AcDbVertex
100
AcDb2dVertex
 10
151.6539999999999
 20
235.119
 30
0.0
  0
VERTEX
  5
13F3
330
59B
100
AcDbEntity
  8
LAYER_1
100
AcDbVertex
100
AcDb2dVertex
 10
152.1539999999999
 20
235.119
 30
0.0
  0
VERTEX
  5
13F4
330
59B
100
AcDbEntity
  8
LAYER_1
100
AcDbVertex
100
AcDb2dVertex
 10
152.1539999999999
 20
235.2949999999999
 30
0.0
  0
VERTEX
  5
13F5
330
59B
100
AcDbEntity
  8
LAYER_1
100
AcDbVertex
100
AcDb2dVertex
 10
151.6539999999999
 20
235.2949999999999
 30
0.0
  0
SEQEND
  5
13F6
330
59B
100
AcDbEntity
  8
LAYER_1
  0
POLYLINE
  5
5A1
330
475
100
AcDbEntity
  8
LAYER_1
100
AcDb2dPolyline
 66
     1
 10
0.0
 20
0.0
 30
0.0
 70
     1
 40
0.35278
 41
0.35278
  0
VERTEX
  5
13F7
330
5A1
100
AcDbEntity
  8
LAYER_1
100
AcDbVertex
100
AcDb2dVertex
 10
44.9035
 20
235.2949999999999
 30
0.0
  0
VERTEX
  5
13F8
330
5A1
100
AcDbEntity
  8
LAYER_1
100
AcDbVertex
100
AcDb2dVertex
 10
44.4036
 20
235.2949999999999
 30
0.0
  0
VERTEX
  5
13F9
330
5A1
100
AcDbEntity
  8
LAYER_1
100
AcDbVertex
100
AcDb2dVertex
 10
44.4036
 20
235.119
 30
0.0
  0
VERTEX
  5
13FA
330
5A1
100
AcDbEntity
  8
LAYER_1
100
AcDbVertex
100
AcDb2dVertex
 10
44.9035
 20
235.119
 30
0.0
  0
SEQEND
  5
13FB
330
5A1
100
AcDbEntity
  8
LAYER_1
  0
POLYLINE
  5
5A7
330
475
100
AcDbEntity
  8
LAYER_1
100
AcDb2dPolyline
 66
     1
 10
0.0
 20
0.0
 30
0.0
 70
     1
 40
0.35278
 41
0.35278
  0
VERTEX
  5
13FC
330
5A7
100
AcDbEntity
  8
LAYER_1
100
AcDbVertex
100
AcDb2dVertex
 10
151.6539999999999
 20
233.384
 30
0.0
  0
VERTEX
  5
13FD
330
5A7
100
AcDbEntity
  8
LAYER_1
100
AcDbVertex
100
AcDb2dVertex
 10
152.1539999999999
 20
233.384
 30
0.0
  0
VERTEX
  5
13FE
330
5A7
100
AcDbEntity
  8
LAYER_1
100
AcDbVertex
100
AcDb2dVertex
 10
152.1539999999999
 20
233.5609999999999
 30
0.0
  0
VERTEX
  5
13FF
330
5A7
100
AcDbEntity
  8
LAYER_1
100
AcDbVertex
100
AcDb2dVertex
 10
151.6539999999999
 20
233.5609999999999
 30
0.0
  0
SEQEND
  5
1400
330
5A7
100
AcDbEntity
  8
LAYER_1
  0
POLYLINE
  5
5AD
330
475
100
AcDbEntity
  8
LAYER_1
100
AcDb2dPolyline
 66
     1
 10
0.0
 20
0.0
 30
0.0
 70
     1
 40
0.35278
 41
0.35278
  0
VERTEX
  5
1401
330
5AD
100
AcDbEntity
  8
LAYER_1
100
AcDbVertex
100
AcDb2dVertex
 10
44.9035
 20
233.5609999999999
 30
0.0
  0
VERTEX
  5
1402
330
5AD
100
AcDbEntity
  8
LAYER_1
100
AcDbVertex
100
AcDb2dVertex
 10
44.4036
 20
233.5609999999999
 30
0.0
  0
VERTEX
  5
1403
330
5AD
100
AcDbEntity
  8
LAYER_1
100
AcDbVertex
100
AcDb2dVertex
 10
44.4036
 20
233.384
 30
0.0
  0
VERTEX
  5
1404
330
5AD
100
AcDbEntity
  8
LAYER_1
100
AcDbVertex
100
AcDb2dVertex
 10
44.9035
 20
233.384
 30
0.0
  0
SEQEND
  5
1405
330
5AD
100
AcDbEntity
  8
LAYER_1
  0
POLYLINE
  5
5B3
330
475
100
AcDbEntity
  8
LAYER_1
100
AcDb2dPolyline
 66
     1
 10
0.0
 20
0.0
 30
0.0
 70
     1
 40
0.35278
 41
0.35278
  0
VERTEX
  5
1406
330
5B3
100
AcDbEntity
  8
LAYER_1
100
AcDbVertex
100
AcDb2dVertex
 10
39.7034
 20
225.767
 30
0.0
  0
VERTEX
  5
1407
330
5B3
100
AcDbEntity
  8
LAYER_1
100
AcDbVertex
100
AcDb2dVertex
 10
40.5787
 20
225.767
 30
0.0
  0
VERTEX
  5
1408
330
5B3
100
AcDbEntity
  8
LAYER_1
100
AcDbVertex
100
AcDb2dVertex
 10
40.5787
 20
225.943
 30
0.0
  0
VERTEX
  5
1409
330
5B3
100
AcDbEntity
  8
LAYER_1
100
AcDbVertex
100
AcDb2dVertex
 10
39.7034
 20
225.943
 30
0.0
  0
SEQEND
  5
140A
330
5B3
100
AcDbEntity
  8
LAYER_1
  0
POLYLINE
  5
5B9
330
475
100
AcDbEntity
  8
LAYER_1
100
AcDb2dPolyline
 66
     1
 10
0.0
 20
0.0
 30
0.0
 70
     1
 40
0.35278
 41
0.35278
  0
VERTEX
  5
140B
330
5B9
100
AcDbEntity
  8
LAYER_1
100
AcDbVertex
100
AcDb2dVertex
 10
156.8549999999999
 20
225.943
 30
0.0
  0
VERTEX
  5
140C
330
5B9
100
AcDbEntity
  8
LAYER_1
100
AcDbVertex
100
AcDb2dVertex
 10
155.9789999999999
 20
225.943
 30
0.0
  0
VERTEX
  5
140D
330
5B9
100
AcDbEntity
  8
LAYER_1
100
AcDbVertex
100
AcDb2dVertex
 10
155.9789999999999
 20
225.767
 30
0.0
  0
VERTEX
  5
140E
330
5B9
100
AcDbEntity
  8
LAYER_1
100
AcDbVertex
100
AcDb2dVertex
 10
156.8549999999999
 20
225.767
 30
0.0
  0
SEQEND
  5
140F
330
5B9
100
AcDbEntity
  8
LAYER_1
  0
POLYLINE
  5
5BF
330
475
100
AcDbEntity
  8
LAYER_1
100
AcDb2dPolyline
 66
     1
 10
0.0
 20
0.0
 30
0.0
 70
     1
 40
0.35278
 41
0.35278
  0
VERTEX
  5
1410
330
5BF
100
AcDbEntity
  8
LAYER_1
100
AcDbVertex
100
AcDb2dVertex
 10
155.9789999999999
 20
224.143
 30
0.0
  0
VERTEX
  5
1411
330
5BF
100
AcDbEntity
  8
LAYER_1
100
AcDbVertex
100
AcDb2dVertex
 10
156.8549999999999
 20
224.143
 30
0.0
  0
VERTEX
  5
1412
330
5BF
100
AcDbEntity
  8
LAYER_1
100
AcDbVertex
100
AcDb2dVertex
 10
156.8549999999999
 20
224.3199999999999
 30
0.0
  0
VERTEX
  5
1413
330
5BF
100
AcDbEntity
  8
LAYER_1
100
AcDbVertex
100
AcDb2dVertex
 10
155.9789999999999
 20
224.3199999999999
 30
0.0
  0
SEQEND
  5
1414
330
5BF
100
AcDbEntity
  8
LAYER_1
  0
POLYLINE
  5
5C5
330
475
100
AcDbEntity
  8
LAYER_1
100
AcDb2dPolyline
 66
     1
 10
0.0
 20
0.0
 30
0.0
 70
     1
 40
0.35278
 41
0.35278
  0
VERTEX
  5
1415
330
5C5
100
AcDbEntity
  8
LAYER_1
100
AcDbVertex
100
AcDb2dVertex
 10
40.5787
 20
224.3199999999999
 30
0.0
  0
VERTEX
  5
1416
330
5C5
100
AcDbEntity
  8
LAYER_1
100
AcDbVertex
100
AcDb2dVertex
 10
39.7034
 20
224.3199999999999
 30
0.0
  0
VERTEX
  5
1417
330
5C5
100
AcDbEntity
  8
LAYER_1
100
AcDbVertex
100
AcDb2dVertex
 10
39.7034
 20
224.143
 30
0.0
  0
VERTEX
  5
1418
330
5C5
100
AcDbEntity
  8
LAYER_1
100
AcDbVertex
100
AcDb2dVertex
 10
40.5787
 20
224.143
 30
0.0
  0
SEQEND
  5
1419
330
5C5
100
AcDbEntity
  8
LAYER_1
  0
POLYLINE
  5
5CB
330
475
100
AcDbEntity
  8
LAYER_1
100
AcDb2dPolyline
 66
     1
 10
0.0
 20
0.0
 30
0.0
 70
     1
 40
0.35278
 41
0.35278
  0
VERTEX
  5
141A
330
5CB
100
AcDbEntity
  8
LAYER_1
100
AcDbVertex
100
AcDb2dVertex
 10
151.6539999999999
 20
215.5309999999999
 30
0.0
  0
VERTEX
  5
141B
330
5CB
100
AcDbEntity
  8
LAYER_1
100
AcDbVertex
100
AcDb2dVertex
 10
158.0289999999999
 20
215.5309999999999
 30
0.0
  0
VERTEX
  5
141C
330
5CB
100
AcDbEntity
  8
LAYER_1
100
AcDbVertex
100
AcDb2dVertex
 10
158.0289999999999
 20
215.707
 30
0.0
  0
VERTEX
  5
141D
330
5CB
100
AcDbEntity
  8
LAYER_1
100
AcDbVertex
100
AcDb2dVertex
 10
151.6539999999999
 20
215.707
 30
0.0
  0
SEQEND
  5
141E
330
5CB
100
AcDbEntity
  8
LAYER_1
  0
POLYLINE
  5
5D1
330
475
100
AcDbEntity
  8
LAYER_1
100
AcDb2dPolyline
 66
     1
 10
0.0
 20
0.0
 30
0.0
 70
     1
 40
0.35278
 41
0.35278
  0
VERTEX
  5
141F
330
5D1
100
AcDbEntity
  8
LAYER_1
100
AcDbVertex
100
AcDb2dVertex
 10
44.9035
 20
215.707
 30
0.0
  0
VERTEX
  5
1420
330
5D1
100
AcDbEntity
  8
LAYER_1
100
AcDbVertex
100
AcDb2dVertex
 10
38.52859999999999
 20
215.707
 30
0.0
  0
VERTEX
  5
1421
330
5D1
100
AcDbEntity
  8
LAYER_1
100
AcDbVertex
100
AcDb2dVertex
 10
38.52859999999999
 20
215.5309999999999
 30
0.0
  0
VERTEX
  5
1422
330
5D1
100
AcDbEntity
  8
LAYER_1
100
AcDbVertex
100
AcDb2dVertex
 10
44.9035
 20
215.5309999999999
 30
0.0
  0
SEQEND
  5
1423
330
5D1
100
AcDbEntity
  8
LAYER_1
  0
POLYLINE
  5
5D7
330
475
100
AcDbEntity
  8
LAYER_1
100
AcDb2dPolyline
 66
     1
 10
0.0
 20
0.0
 30
0.0
 70
     1
 40
0.35278
 41
0.35278
  0
VERTEX
  5
1424
330
5D7
100
AcDbEntity
  8
LAYER_1
100
AcDbVertex
100
AcDb2dVertex
 10
53.3669
 20
247.7069999999999
 30
0.0
  0
VERTEX
  5
1425
330
5D7
100
AcDbEntity
  8
LAYER_1
100
AcDbVertex
100
AcDb2dVertex
 10
53.3669
 20
248.2069999999999
 30
0.0
  0
VERTEX
  5
1426
330
5D7
100
AcDbEntity
  8
LAYER_1
100
AcDbVertex
100
AcDb2dVertex
 10
53.1905
 20
248.2069999999999
 30
0.0
  0
VERTEX
  5
1427
330
5D7
100
AcDbEntity
  8
LAYER_1
100
AcDbVertex
100
AcDb2dVertex
 10
53.1905
 20
247.7069999999999
 30
0.0
  0
SEQEND
  5
1428
330
5D7
100
AcDbEntity
  8
LAYER_1
  0
POLYLINE
  5
5DD
330
475
100
AcDbEntity
  8
LAYER_1
100
AcDb2dPolyline
 66
     1
 10
0.0
 20
0.0
 30
0.0
 70
     1
 40
0.35278
 41
0.35278
  0
VERTEX
  5
1429
330
5DD
100
AcDbEntity
  8
LAYER_1
100
AcDbVertex
100
AcDb2dVertex
 10
52.117
 20
247.7069999999999
 30
0.0
  0
VERTEX
  5
142A
330
5DD
100
AcDbEntity
  8
LAYER_1
100
AcDbVertex
100
AcDb2dVertex
 10
52.117
 20
248.2069999999999
 30
0.0
  0
VERTEX
  5
142B
330
5DD
100
AcDbEntity
  8
LAYER_1
100
AcDbVertex
100
AcDb2dVertex
 10
51.94069999999999
 20
248.2069999999999
 30
0.0
  0
VERTEX
  5
142C
330
5DD
100
AcDbEntity
  8
LAYER_1
100
AcDbVertex
100
AcDb2dVertex
 10
51.94069999999999
 20
247.7069999999999
 30
0.0
  0
SEQEND
  5
142D
330
5DD
100
AcDbEntity
  8
LAYER_1
  0
POLYLINE
  5
5E3
330
475
100
AcDbEntity
  8
LAYER_1
100
AcDb2dPolyline
 66
     1
 10
0.0
 20
0.0
 30
0.0
 70
     1
 40
0.35278
 41
0.35278
  0
VERTEX
  5
142E
330
5E3
100
AcDbEntity
  8
LAYER_1
100
AcDbVertex
100
AcDb2dVertex
 10
44.9917
 20
248.2069999999999
 30
0.0
  0
VERTEX
  5
142F
330
5E3
100
AcDbEntity
  8
LAYER_1
100
AcDbVertex
100
AcDb2dVertex
 10
44.9917
 20
248.768
 30
0.0
  0
VERTEX
  5
1430
330
5E3
100
AcDbEntity
  8
LAYER_1
100
AcDbVertex
100
AcDb2dVertex
 10
44.8153
 20
248.768
 30
0.0
  0
VERTEX
  5
1431
330
5E3
100
AcDbEntity
  8
LAYER_1
100
AcDbVertex
100
AcDb2dVertex
 10
44.8153
 20
248.2069999999999
 30
0.0
  0
SEQEND
  5
1432
330
5E3
100
AcDbEntity
  8
LAYER_1
  0
POLYLINE
  5
5E9
330
475
100
AcDbEntity
  8
LAYER_1
100
AcDb2dPolyline
 66
     1
 10
0.0
 20
0.0
 30
0.0
 70
     1
 40
0.35278
 41
0.35278
  0
VERTEX
  5
1433
330
5E9
100
AcDbEntity
  8
LAYER_1
100
AcDbVertex
100
AcDb2dVertex
 10
44.8153
 20
247.7069999999999
 30
0.0
  0
VERTEX
  5
1434
330
5E9
100
AcDbEntity
  8
LAYER_1
100
AcDbVertex
100
AcDb2dVertex
 10
44.8153
 20
215.619
 30
0.0
  0
VERTEX
  5
1435
330
5E9
100
AcDbEntity
  8
LAYER_1
100
AcDbVertex
100
AcDb2dVertex
 10
44.9917
 20
215.619
 30
0.0
  0
VERTEX
  5
1436
330
5E9
100
AcDbEntity
  8
LAYER_1
100
AcDbVertex
100
AcDb2dVertex
 10
44.9917
 20
247.7069999999999
 30
0.0
  0
SEQEND
  5
1437
330
5E9
100
AcDbEntity
  8
LAYER_1
  0
POLYLINE
  5
5EF
330
475
100
AcDbEntity
  8
LAYER_1
100
AcDb2dPolyline
 66
     1
 10
0.0
 20
0.0
 30
0.0
 70
     1
 40
0.35278
 41
0.35278
  0
VERTEX
  5
1438
330
5EF
100
AcDbEntity
  8
LAYER_1
100
AcDbVertex
100
AcDb2dVertex
 10
38.591
 20
215.6809999999999
 30
0.0
  0
VERTEX
  5
1439
330
5EF
100
AcDbEntity
  8
LAYER_1
100
AcDbVertex
100
AcDb2dVertex
 10
38.0911
 20
216.181
 30
0.0
  0
VERTEX
  5
143A
330
5EF
100
AcDbEntity
  8
LAYER_1
100
AcDbVertex
100
AcDb2dVertex
 10
37.9664
 20
216.057
 30
0.0
  0
VERTEX
  5
143B
330
5EF
100
AcDbEntity
  8
LAYER_1
100
AcDbVertex
100
AcDb2dVertex
 10
38.46629999999999
 20
215.557
 30
0.0
  0
SEQEND
  5
143C
330
5EF
100
AcDbEntity
  8
LAYER_1
  0
POLYLINE
  5
5F5
330
475
100
AcDbEntity
  8
LAYER_1
100
AcDb2dPolyline
 66
     1
 10
0.0
 20
0.0
 30
0.0
 70
     1
 40
0.35278
 41
0.35278
  0
VERTEX
  5
143D
330
5F5
100
AcDbEntity
  8
LAYER_1
100
AcDbVertex
100
AcDb2dVertex
 10
38.46629999999999
 20
248.8309999999999
 30
0.0
  0
VERTEX
  5
143E
330
5F5
100
AcDbEntity
  8
LAYER_1
100
AcDbVertex
100
AcDb2dVertex
 10
37.9664
 20
248.3309999999999
 30
0.0
  0
VERTEX
  5
143F
330
5F5
100
AcDbEntity
  8
LAYER_1
100
AcDbVertex
100
AcDb2dVertex
 10
38.0911
 20
248.206
 30
0.0
  0
VERTEX
  5
1440
330
5F5
100
AcDbEntity
  8
LAYER_1
100
AcDbVertex
100
AcDb2dVertex
 10
38.591
 20
248.706
 30
0.0
  0
SEQEND
  5
1441
330
5F5
100
AcDbEntity
  8
LAYER_1
  0
POLYLINE
  5
5FB
330
475
100
AcDbEntity
  8
LAYER_1
100
AcDb2dPolyline
 66
     1
 10
0.0
 20
0.0
 30
0.0
 70
     1
 40
0.35278
 41
0.35278
  0
VERTEX
  5
1442
330
5FB
100
AcDbEntity
  8
LAYER_1
100
AcDbVertex
100
AcDb2dVertex
 10
44.4918
 20
215.619
 30
0.0
  0
VERTEX
  5
1443
330
5FB
100
AcDbEntity
  8
LAYER_1
100
AcDbVertex
100
AcDb2dVertex
 10
44.4918
 20
248.768
 30
0.0
  0
VERTEX
  5
1444
330
5FB
100
AcDbEntity
  8
LAYER_1
100
AcDbVertex
100
AcDb2dVertex
 10
44.3154
 20
248.768
 30
0.0
  0
VERTEX
  5
1445
330
5FB
100
AcDbEntity
  8
LAYER_1
100
AcDbVertex
100
AcDb2dVertex
 10
44.3154
 20
215.619
 30
0.0
  0
SEQEND
  5
1446
330
5FB
100
AcDbEntity
  8
LAYER_1
  0
POLYLINE
  5
601
330
475
100
AcDbEntity
  8
LAYER_1
100
AcDb2dPolyline
 66
     1
 10
0.0
 20
0.0
 30
0.0
 70
     1
 40
0.35278
 41
0.35278
  0
VERTEX
  5
1447
330
601
100
AcDbEntity
  8
LAYER_1
100
AcDbVertex
100
AcDb2dVertex
 10
38.1169
 20
216.119
 30
0.0
  0
VERTEX
  5
1448
330
601
100
AcDbEntity
  8
LAYER_1
100
AcDbVertex
100
AcDb2dVertex
 10
38.1169
 20
248.268
 30
0.0
  0
VERTEX
  5
1449
330
601
100
AcDbEntity
  8
LAYER_1
100
AcDbVertex
100
AcDb2dVertex
 10
37.9406
 20
248.268
 30
0.0
  0
VERTEX
  5
144A
330
601
100
AcDbEntity
  8
LAYER_1
100
AcDbVertex
100
AcDb2dVertex
 10
37.9406
 20
216.119
 30
0.0
  0
SEQEND
  5
144B
330
601
100
AcDbEntity
  8
LAYER_1
  0
POLYLINE
  5
607
330
475
100
AcDbEntity
  8
LAYER_1
100
AcDb2dPolyline
 66
     1
 10
0.0
 20
0.0
 30
0.0
 70
     1
 40
0.35278
 41
0.35278
  0
VERTEX
  5
144C
330
607
100
AcDbEntity
  8
LAYER_1
100
AcDbVertex
100
AcDb2dVertex
 10
158.441
 20
99.8529
 30
0.0
  0
VERTEX
  5
144D
330
607
100
AcDbEntity
  8
LAYER_1
100
AcDbVertex
100
AcDb2dVertex
 10
158.441
 20
99.3527
 30
0.0
  0
VERTEX
  5
144E
330
607
100
AcDbEntity
  8
LAYER_1
100
AcDbVertex
100
AcDb2dVertex
 10
158.6179999999999
 20
99.3527
 30
0.0
  0
VERTEX
  5
144F
330
607
100
AcDbEntity
  8
LAYER_1
100
AcDbVertex
100
AcDb2dVertex
 10
158.6179999999999
 20
99.8529
 30
0.0
  0
SEQEND
  5
1450
330
607
100
AcDbEntity
  8
LAYER_1
  0
POLYLINE
  5
60D
330
475
100
AcDbEntity
  8
LAYER_1
100
AcDb2dPolyline
 66
     1
 10
0.0
 20
0.0
 30
0.0
 70
     1
 40
0.35278
 41
0.35278
  0
VERTEX
  5
1451
330
60D
100
AcDbEntity
  8
LAYER_1
100
AcDbVertex
100
AcDb2dVertex
 10
157.941
 20
99.8529
 30
0.0
  0
VERTEX
  5
1452
330
60D
100
AcDbEntity
  8
LAYER_1
100
AcDbVertex
100
AcDb2dVertex
 10
157.941
 20
99.3527
 30
0.0
  0
VERTEX
  5
1453
330
60D
100
AcDbEntity
  8
LAYER_1
100
AcDbVertex
100
AcDb2dVertex
 10
158.117
 20
99.3527
 30
0.0
  0
VERTEX
  5
1454
330
60D
100
AcDbEntity
  8
LAYER_1
100
AcDbVertex
100
AcDb2dVertex
 10
158.117
 20
99.8529
 30
0.0
  0
SEQEND
  5
1455
330
60D
100
AcDbEntity
  8
LAYER_1
  0
POLYLINE
  5
613
330
475
100
AcDbEntity
  8
LAYER_1
100
AcDb2dPolyline
 66
     1
 10
0.0
 20
0.0
 30
0.0
 70
     1
 40
0.35278
 41
0.35278
  0
VERTEX
  5
1456
330
613
100
AcDbEntity
  8
LAYER_1
100
AcDbVertex
100
AcDb2dVertex
 10
152.242
 20
99.8529
 30
0.0
  0
VERTEX
  5
1457
330
613
100
AcDbEntity
  8
LAYER_1
100
AcDbVertex
100
AcDb2dVertex
 10
152.242
 20
187.3529999999999
 30
0.0
  0
VERTEX
  5
1458
330
613
100
AcDbEntity
  8
LAYER_1
100
AcDbVertex
100
AcDb2dVertex
 10
152.066
 20
187.3529999999999
 30
0.0
  0
VERTEX
  5
1459
330
613
100
AcDbEntity
  8
LAYER_1
100
AcDbVertex
100
AcDb2dVertex
 10
152.066
 20
99.8529
 30
0.0
  0
SEQEND
  5
145A
330
613
100
AcDbEntity
  8
LAYER_1
  0
POLYLINE
  5
619
330
475
100
AcDbEntity
  8
LAYER_1
100
AcDb2dPolyline
 66
     1
 10
0.0
 20
0.0
 30
0.0
 70
     1
 40
0.35278
 41
0.35278
  0
VERTEX
  5
145B
330
619
100
AcDbEntity
  8
LAYER_1
100
AcDbVertex
100
AcDb2dVertex
 10
151.566
 20
187.3529999999999
 30
0.0
  0
VERTEX
  5
145C
330
619
100
AcDbEntity
  8
LAYER_1
100
AcDbVertex
100
AcDb2dVertex
 10
151.566
 20
99.8529
 30
0.0
  0
VERTEX
  5
145D
330
619
100
AcDbEntity
  8
LAYER_1
100
AcDbVertex
100
AcDb2dVertex
 10
151.742
 20
99.8529
 30
0.0
  0
VERTEX
  5
145E
330
619
100
AcDbEntity
  8
LAYER_1
100
AcDbVertex
100
AcDb2dVertex
 10
151.742
 20
187.3529999999999
 30
0.0
  0
SEQEND
  5
145F
330
619
100
AcDbEntity
  8
LAYER_1
  0
POLYLINE
  5
61F
330
475
100
AcDbEntity
  8
LAYER_1
100
AcDb2dPolyline
 66
     1
 10
0.0
 20
0.0
 30
0.0
 70
     1
 40
0.35278
 41
0.35278
  0
VERTEX
  5
1460
330
61F
100
AcDbEntity
  8
LAYER_1
100
AcDbVertex
100
AcDb2dVertex
 10
145.018
 20
172.629
 30
0.0
  0
VERTEX
  5
1461
330
61F
100
AcDbEntity
  8
LAYER_1
100
AcDbVertex
100
AcDb2dVertex
 10
145.018
 20
172.8279999999999
 30
0.0
  0
VERTEX
  5
1462
330
61F
100
AcDbEntity
  8
LAYER_1
100
AcDbVertex
100
AcDb2dVertex
 10
144.842
 20
172.8279999999999
 30
0.0
  0
VERTEX
  5
1463
330
61F
100
AcDbEntity
  8
LAYER_1
100
AcDbVertex
100
AcDb2dVertex
 10
144.842
 20
172.629
 30
0.0
  0
SEQEND
  5
1464
330
61F
100
AcDbEntity
  8
LAYER_1
  0
POLYLINE
  5
625
330
475
100
AcDbEntity
  8
LAYER_1
100
AcDb2dPolyline
 66
     1
 10
0.0
 20
0.0
 30
0.0
 70
     1
 40
0.35278
 41
0.35278
  0
VERTEX
  5
1465
330
625
100
AcDbEntity
  8
LAYER_1
100
AcDbVertex
100
AcDb2dVertex
 10
144.0409999999999
 20
172.8279999999999
 30
0.0
  0
VERTEX
  5
1466
330
625
100
AcDbEntity
  8
LAYER_1
100
AcDbVertex
100
AcDb2dVertex
 10
144.0409999999999
 20
172.629
 30
0.0
  0
VERTEX
  5
1467
330
625
100
AcDbEntity
  8
LAYER_1
100
AcDbVertex
100
AcDb2dVertex
 10
144.218
 20
172.629
 30
0.0
  0
VERTEX
  5
1468
330
625
100
AcDbEntity
  8
LAYER_1
100
AcDbVertex
100
AcDb2dVertex
 10
144.218
 20
172.8279999999999
 30
0.0
  0
SEQEND
  5
1469
330
625
100
AcDbEntity
  8
LAYER_1
  0
POLYLINE
  5
62B
330
475
100
AcDbEntity
  8
LAYER_1
100
AcDb2dPolyline
 66
     1
 10
0.0
 20
0.0
 30
0.0
 70
     1
 40
0.35278
 41
0.35278
  0
VERTEX
  5
146A
330
62B
100
AcDbEntity
  8
LAYER_1
100
AcDbVertex
100
AcDb2dVertex
 10
144.5289999999999
 20
187.2649999999999
 30
0.0
  0
VERTEX
  5
146B
330
62B
100
AcDbEntity
  8
LAYER_1
100
AcDbVertex
100
AcDb2dVertex
 10
152.1539999999999
 20
187.2649999999999
 30
0.0
  0
VERTEX
  5
146C
330
62B
100
AcDbEntity
  8
LAYER_1
100
AcDbVertex
100
AcDb2dVertex
 10
152.1539999999999
 20
187.442
 30
0.0
  0
VERTEX
  5
146D
330
62B
100
AcDbEntity
  8
LAYER_1
100
AcDbVertex
100
AcDb2dVertex
 10
144.5289999999999
 20
187.442
 30
0.0
  0
SEQEND
  5
146E
330
62B
100
AcDbEntity
  8
LAYER_1
  0
POLYLINE
  5
631
330
475
100
AcDbEntity
  8
LAYER_1
100
AcDb2dPolyline
 66
     1
 10
0.0
 20
0.0
 30
0.0
 70
     1
 40
0.35278
 41
0.35278
  0
VERTEX
  5
146F
330
631
100
AcDbEntity
  8
LAYER_1
100
AcDbVertex
100
AcDb2dVertex
 10
52.0288
 20
187.442
 30
0.0
  0
VERTEX
  5
1470
330
631
100
AcDbEntity
  8
LAYER_1
100
AcDbVertex
100
AcDb2dVertex
 10
44.4036
 20
187.442
 30
0.0
  0
VERTEX
  5
1471
330
631
100
AcDbEntity
  8
LAYER_1
100
AcDbVertex
100
AcDb2dVertex
 10
44.4036
 20
187.2649999999999
 30
0.0
  0
VERTEX
  5
1472
330
631
100
AcDbEntity
  8
LAYER_1
100
AcDbVertex
100
AcDb2dVertex
 10
52.0288
 20
187.2649999999999
 30
0.0
  0
SEQEND
  5
1473
330
631
100
AcDbEntity
  8
LAYER_1
  0
POLYLINE
  5
637
330
475
100
AcDbEntity
  8
LAYER_1
100
AcDb2dPolyline
 66
     1
 10
0.0
 20
0.0
 30
0.0
 70
     1
 40
0.35278
 41
0.35278
  0
VERTEX
  5
1474
330
637
100
AcDbEntity
  8
LAYER_1
100
AcDbVertex
100
AcDb2dVertex
 10
151.6539999999999
 20
186.1119999999999
 30
0.0
  0
VERTEX
  5
1475
330
637
100
AcDbEntity
  8
LAYER_1
100
AcDbVertex
100
AcDb2dVertex
 10
152.1539999999999
 20
186.1119999999999
 30
0.0
  0
VERTEX
  5
1476
330
637
100
AcDbEntity
  8
LAYER_1
100
AcDbVertex
100
AcDb2dVertex
 10
152.1539999999999
 20
186.289
 30
0.0
  0
VERTEX
  5
1477
330
637
100
AcDbEntity
  8
LAYER_1
100
AcDbVertex
100
AcDb2dVertex
 10
151.6539999999999
 20
186.289
 30
0.0
  0
SEQEND
  5
1478
330
637
100
AcDbEntity
  8
LAYER_1
  0
POLYLINE
  5
63D
330
475
100
AcDbEntity
  8
LAYER_1
100
AcDb2dPolyline
 66
     1
 10
0.0
 20
0.0
 30
0.0
 70
     1
 40
0.35278
 41
0.35278
  0
VERTEX
  5
1479
330
63D
100
AcDbEntity
  8
LAYER_1
100
AcDbVertex
100
AcDb2dVertex
 10
44.9035
 20
186.289
 30
0.0
  0
VERTEX
  5
147A
330
63D
100
AcDbEntity
  8
LAYER_1
100
AcDbVertex
100
AcDb2dVertex
 10
44.4036
 20
186.289
 30
0.0
  0
VERTEX
  5
147B
330
63D
100
AcDbEntity
  8
LAYER_1
100
AcDbVertex
100
AcDb2dVertex
 10
44.4036
 20
186.1119999999999
 30
0.0
  0
VERTEX
  5
147C
330
63D
100
AcDbEntity
  8
LAYER_1
100
AcDbVertex
100
AcDb2dVertex
 10
44.9035
 20
186.1119999999999
 30
0.0
  0
SEQEND
  5
147D
330
63D
100
AcDbEntity
  8
LAYER_1
  0
POLYLINE
  5
643
330
475
100
AcDbEntity
  8
LAYER_1
100
AcDb2dPolyline
 66
     1
 10
0.0
 20
0.0
 30
0.0
 70
     1
 40
0.35278
 41
0.35278
  0
VERTEX
  5
147E
330
643
100
AcDbEntity
  8
LAYER_1
100
AcDbVertex
100
AcDb2dVertex
 10
143.367
 20
108.9779999999999
 30
0.0
  0
VERTEX
  5
147F
330
643
100
AcDbEntity
  8
LAYER_1
100
AcDbVertex
100
AcDb2dVertex
 10
143.367
 20
186.104
 30
0.0
  0
VERTEX
  5
1480
330
643
100
AcDbEntity
  8
LAYER_1
100
AcDbVertex
100
AcDb2dVertex
 10
143.1899999999999
 20
186.104
 30
0.0
  0
VERTEX
  5
1481
330
643
100
AcDbEntity
  8
LAYER_1
100
AcDbVertex
100
AcDb2dVertex
 10
143.1899999999999
 20
108.9779999999999
 30
0.0
  0
SEQEND
  5
1482
330
643
100
AcDbEntity
  8
LAYER_1
  0
POLYLINE
  5
649
330
475
100
AcDbEntity
  8
LAYER_1
100
AcDb2dPolyline
 66
     1
 10
0.0
 20
0.0
 30
0.0
 70
     1
 40
0.35278
 41
0.35278
  0
VERTEX
  5
1483
330
649
100
AcDbEntity
  8
LAYER_1
100
AcDbVertex
100
AcDb2dVertex
 10
143.216
 20
108.9159999999999
 30
0.0
  0
VERTEX
  5
1484
330
649
100
AcDbEntity
  8
LAYER_1
100
AcDbVertex
100
AcDb2dVertex
 10
144.466
 20
107.6659999999999
 30
0.0
  0
VERTEX
  5
1485
330
649
100
AcDbEntity
  8
LAYER_1
100
AcDbVertex
100
AcDb2dVertex
 10
144.591
 20
107.79
 30
0.0
  0
VERTEX
  5
1486
330
649
100
AcDbEntity
  8
LAYER_1
100
AcDbVertex
100
AcDb2dVertex
 10
143.341
 20
109.04
 30
0.0
  0
SEQEND
  5
1487
330
649
100
AcDbEntity
  8
LAYER_1
  0
POLYLINE
  5
64F
330
475
100
AcDbEntity
  8
LAYER_1
100
AcDb2dPolyline
 66
     1
 10
0.0
 20
0.0
 30
0.0
 70
     1
 40
0.35278
 41
0.35278
  0
VERTEX
  5
1488
330
64F
100
AcDbEntity
  8
LAYER_1
100
AcDbVertex
100
AcDb2dVertex
 10
143.341
 20
186.0409999999999
 30
0.0
  0
VERTEX
  5
1489
330
64F
100
AcDbEntity
  8
LAYER_1
100
AcDbVertex
100
AcDb2dVertex
 10
144.591
 20
187.291
 30
0.0
  0
VERTEX
  5
148A
330
64F
100
AcDbEntity
  8
LAYER_1
100
AcDbVertex
100
AcDb2dVertex
 10
144.466
 20
187.416
 30
0.0
  0
VERTEX
  5
148B
330
64F
100
AcDbEntity
  8
LAYER_1
100
AcDbVertex
100
AcDb2dVertex
 10
143.216
 20
186.166
 30
0.0
  0
SEQEND
  5
148C
330
64F
100
AcDbEntity
  8
LAYER_1
  0
POLYLINE
  5
655
330
475
100
AcDbEntity
  8
LAYER_1
100
AcDb2dPolyline
 66
     1
 10
0.0
 20
0.0
 30
0.0
 70
     1
 40
0.35278
 41
0.35278
  0
VERTEX
  5
148D
330
655
100
AcDbEntity
  8
LAYER_1
100
AcDbVertex
100
AcDb2dVertex
 10
53.34109999999999
 20
186.166
 30
0.0
  0
VERTEX
  5
148E
330
655
100
AcDbEntity
  8
LAYER_1
100
AcDbVertex
100
AcDb2dVertex
 10
52.0912
 20
187.416
 30
0.0
  0
VERTEX
  5
148F
330
655
100
AcDbEntity
  8
LAYER_1
100
AcDbVertex
100
AcDb2dVertex
 10
51.9665
 20
187.291
 30
0.0
  0
VERTEX
  5
1490
330
655
100
AcDbEntity
  8
LAYER_1
100
AcDbVertex
100
AcDb2dVertex
 10
53.2164
 20
186.0409999999999
 30
0.0
  0
SEQEND
  5
1491
330
655
100
AcDbEntity
  8
LAYER_1
  0
POLYLINE
  5
65B
330
475
100
AcDbEntity
  8
LAYER_1
100
AcDb2dPolyline
 66
     1
 10
0.0
 20
0.0
 30
0.0
 70
     1
 40
0.35278
 41
0.35278
  0
VERTEX
  5
1492
330
65B
100
AcDbEntity
  8
LAYER_1
100
AcDbVertex
100
AcDb2dVertex
 10
151.6539999999999
 20
143.5149999999999
 30
0.0
  0
VERTEX
  5
1493
330
65B
100
AcDbEntity
  8
LAYER_1
100
AcDbVertex
100
AcDb2dVertex
 10
152.1539999999999
 20
143.5149999999999
 30
0.0
  0
VERTEX
  5
1494
330
65B
100
AcDbEntity
  8
LAYER_1
100
AcDbVertex
100
AcDb2dVertex
 10
152.1539999999999
 20
143.692
 30
0.0
  0
VERTEX
  5
1495
330
65B
100
AcDbEntity
  8
LAYER_1
100
AcDbVertex
100
AcDb2dVertex
 10
151.6539999999999
 20
143.692
 30
0.0
  0
SEQEND
  5
1496
330
65B
100
AcDbEntity
  8
LAYER_1
  0
POLYLINE
  5
661
330
475
100
AcDbEntity
  8
LAYER_1
100
AcDb2dPolyline
 66
     1
 10
0.0
 20
0.0
 30
0.0
 70
     1
 40
0.35278
 41
0.35278
  0
VERTEX
  5
1497
330
661
100
AcDbEntity
  8
LAYER_1
100
AcDbVertex
100
AcDb2dVertex
 10
44.9035
 20
143.692
 30
0.0
  0
VERTEX
  5
1498
330
661
100
AcDbEntity
  8
LAYER_1
100
AcDbVertex
100
AcDb2dVertex
 10
44.4036
 20
143.692
 30
0.0
  0
VERTEX
  5
1499
330
661
100
AcDbEntity
  8
LAYER_1
100
AcDbVertex
100
AcDb2dVertex
 10
44.4036
 20
143.5149999999999
 30
0.0
  0
VERTEX
  5
149A
330
661
100
AcDbEntity
  8
LAYER_1
100
AcDbVertex
100
AcDb2dVertex
 10
44.9035
 20
143.5149999999999
 30
0.0
  0
SEQEND
  5
149B
330
661
100
AcDbEntity
  8
LAYER_1
  0
POLYLINE
  5
667
330
475
100
AcDbEntity
  8
LAYER_1
100
AcDb2dPolyline
 66
     1
 10
0.0
 20
0.0
 30
0.0
 70
     1
 40
0.35278
 41
0.35278
  0
VERTEX
  5
149C
330
667
100
AcDbEntity
  8
LAYER_1
100
AcDbVertex
100
AcDb2dVertex
 10
53.2164
 20
109.04
 30
0.0
  0
VERTEX
  5
149D
330
667
100
AcDbEntity
  8
LAYER_1
100
AcDbVertex
100
AcDb2dVertex
 10
51.9665
 20
107.79
 30
0.0
  0
VERTEX
  5
149E
330
667
100
AcDbEntity
  8
LAYER_1
100
AcDbVertex
100
AcDb2dVertex
 10
52.0912
 20
107.6659999999999
 30
0.0
  0
VERTEX
  5
149F
330
667
100
AcDbEntity
  8
LAYER_1
100
AcDbVertex
100
AcDb2dVertex
 10
53.34109999999999
 20
108.9159999999999
 30
0.0
  0
SEQEND
  5
14A0
330
667
100
AcDbEntity
  8
LAYER_1
  0
POLYLINE
  5
66D
330
475
100
AcDbEntity
  8
LAYER_1
100
AcDb2dPolyline
 66
     1
 10
0.0
 20
0.0
 30
0.0
 70
     1
 40
0.35278
 41
0.35278
  0
VERTEX
  5
14A1
330
66D
100
AcDbEntity
  8
LAYER_1
100
AcDbVertex
100
AcDb2dVertex
 10
144.5289999999999
 20
107.64
 30
0.0
  0
VERTEX
  5
14A2
330
66D
100
AcDbEntity
  8
LAYER_1
100
AcDbVertex
100
AcDb2dVertex
 10
151.6539999999999
 20
107.64
 30
0.0
  0
VERTEX
  5
14A3
330
66D
100
AcDbEntity
  8
LAYER_1
100
AcDbVertex
100
AcDb2dVertex
 10
151.6539999999999
 20
107.816
 30
0.0
  0
VERTEX
  5
14A4
330
66D
100
AcDbEntity
  8
LAYER_1
100
AcDbVertex
100
AcDb2dVertex
 10
144.5289999999999
 20
107.816
 30
0.0
  0
SEQEND
  5
14A5
330
66D
100
AcDbEntity
  8
LAYER_1
  0
POLYLINE
  5
673
330
475
100
AcDbEntity
  8
LAYER_1
100
AcDb2dPolyline
 66
     1
 10
0.0
 20
0.0
 30
0.0
 70
     1
 40
0.35278
 41
0.35278
  0
VERTEX
  5
14A6
330
673
100
AcDbEntity
  8
LAYER_1
100
AcDbVertex
100
AcDb2dVertex
 10
52.0288
 20
107.816
 30
0.0
  0
VERTEX
  5
14A7
330
673
100
AcDbEntity
  8
LAYER_1
100
AcDbVertex
100
AcDb2dVertex
 10
44.9035
 20
107.816
 30
0.0
  0
VERTEX
  5
14A8
330
673
100
AcDbEntity
  8
LAYER_1
100
AcDbVertex
100
AcDb2dVertex
 10
44.9035
 20
107.64
 30
0.0
  0
VERTEX
  5
14A9
330
673
100
AcDbEntity
  8
LAYER_1
100
AcDbVertex
100
AcDb2dVertex
 10
52.0288
 20
107.64
 30
0.0
  0
SEQEND
  5
14AA
330
673
100
AcDbEntity
  8
LAYER_1
  0
POLYLINE
  5
679
330
475
100
AcDbEntity
  8
LAYER_1
100
AcDb2dPolyline
 66
     1
 10
0.0
 20
0.0
 30
0.0
 70
     1
 40
0.35278
 41
0.35278
  0
VERTEX
  5
14AB
330
679
100
AcDbEntity
  8
LAYER_1
100
AcDbVertex
100
AcDb2dVertex
 10
152.1539999999999
 20
99.7647
 30
0.0
  0
VERTEX
  5
14AC
330
679
100
AcDbEntity
  8
LAYER_1
100
AcDbVertex
100
AcDb2dVertex
 10
158.529
 20
99.7647
 30
0.0
  0
VERTEX
  5
14AD
330
679
100
AcDbEntity
  8
LAYER_1
100
AcDbVertex
100
AcDb2dVertex
 10
158.529
 20
99.9411
 30
0.0
  0
VERTEX
  5
14AE
330
679
100
AcDbEntity
  8
LAYER_1
100
AcDbVertex
100
AcDb2dVertex
 10
152.1539999999999
 20
99.9411
 30
0.0
  0
SEQEND
  5
14AF
330
679
100
AcDbEntity
  8
LAYER_1
  0
POLYLINE
  5
67F
330
475
100
AcDbEntity
  8
LAYER_1
100
AcDb2dPolyline
 66
     1
 10
0.0
 20
0.0
 30
0.0
 70
     1
 40
0.35278
 41
0.35278
  0
VERTEX
  5
14B0
330
67F
100
AcDbEntity
  8
LAYER_1
100
AcDbVertex
100
AcDb2dVertex
 10
44.4036
 20
99.9411
 30
0.0
  0
VERTEX
  5
14B1
330
67F
100
AcDbEntity
  8
LAYER_1
100
AcDbVertex
100
AcDb2dVertex
 10
38.0288
 20
99.9411
 30
0.0
  0
VERTEX
  5
14B2
330
67F
100
AcDbEntity
  8
LAYER_1
100
AcDbVertex
100
AcDb2dVertex
 10
38.0288
 20
99.7647
 30
0.0
  0
VERTEX
  5
14B3
330
67F
100
AcDbEntity
  8
LAYER_1
100
AcDbVertex
100
AcDb2dVertex
 10
44.4036
 20
99.7647
 30
0.0
  0
SEQEND
  5
14B4
330
67F
100
AcDbEntity
  8
LAYER_1
  0
POLYLINE
  5
685
330
475
100
AcDbEntity
  8
LAYER_1
100
AcDb2dPolyline
 66
     1
 10
0.0
 20
0.0
 30
0.0
 70
     1
 40
0.35278
 41
0.35278
  0
VERTEX
  5
14B5
330
685
100
AcDbEntity
  8
LAYER_1
100
AcDbVertex
100
AcDb2dVertex
 10
152.1539999999999
 20
99.2645
 30
0.0
  0
VERTEX
  5
14B6
330
685
100
AcDbEntity
  8
LAYER_1
100
AcDbVertex
100
AcDb2dVertex
 10
158.529
 20
99.2645
 30
0.0
  0
VERTEX
  5
14B7
330
685
100
AcDbEntity
  8
LAYER_1
100
AcDbVertex
100
AcDb2dVertex
 10
158.529
 20
99.4409
 30
0.0
  0
VERTEX
  5
14B8
330
685
100
AcDbEntity
  8
LAYER_1
100
AcDbVertex
100
AcDb2dVertex
 10
152.1539999999999
 20
99.4409
 30
0.0
  0
SEQEND
  5
14B9
330
685
100
AcDbEntity
  8
LAYER_1
  0
POLYLINE
  5
68B
330
475
100
AcDbEntity
  8
LAYER_1
100
AcDb2dPolyline
 66
     1
 10
0.0
 20
0.0
 30
0.0
 70
     1
 40
0.35278
 41
0.35278
  0
VERTEX
  5
14BA
330
68B
100
AcDbEntity
  8
LAYER_1
100
AcDbVertex
100
AcDb2dVertex
 10
38.0288
 20
99.2645
 30
0.0
  0
VERTEX
  5
14BB
330
68B
100
AcDbEntity
  8
LAYER_1
100
AcDbVertex
100
AcDb2dVertex
 10
44.4036
 20
99.2645
 30
0.0
  0
VERTEX
  5
14BC
330
68B
100
AcDbEntity
  8
LAYER_1
100
AcDbVertex
100
AcDb2dVertex
 10
44.4036
 20
99.4409
 30
0.0
  0
VERTEX
  5
14BD
330
68B
100
AcDbEntity
  8
LAYER_1
100
AcDbVertex
100
AcDb2dVertex
 10
38.0288
 20
99.4409
 30
0.0
  0
SEQEND
  5
14BE
330
68B
100
AcDbEntity
  8
LAYER_1
  0
POLYLINE
  5
691
330
475
100
AcDbEntity
  8
LAYER_1
100
AcDb2dPolyline
 66
     1
 10
0.0
 20
0.0
 30
0.0
 70
     1
 40
0.35278
 41
0.35278
  0
VERTEX
  5
14BF
330
691
100
AcDbEntity
  8
LAYER_1
100
AcDbVertex
100
AcDb2dVertex
 10
53.3669
 20
108.9779999999999
 30
0.0
  0
VERTEX
  5
14C0
330
691
100
AcDbEntity
  8
LAYER_1
100
AcDbVertex
100
AcDb2dVertex
 10
53.3669
 20
186.104
 30
0.0
  0
VERTEX
  5
14C1
330
691
100
AcDbEntity
  8
LAYER_1
100
AcDbVertex
100
AcDb2dVertex
 10
53.1905
 20
186.104
 30
0.0
  0
VERTEX
  5
14C2
330
691
100
AcDbEntity
  8
LAYER_1
100
AcDbVertex
100
AcDb2dVertex
 10
53.1905
 20
108.9779999999999
 30
0.0
  0
SEQEND
  5
14C3
330
691
100
AcDbEntity
  8
LAYER_1
  0
POLYLINE
  5
697
330
475
100
AcDbEntity
  8
LAYER_1
100
AcDb2dPolyline
 66
     1
 10
0.0
 20
0.0
 30
0.0
 70
     1
 40
0.35278
 41
0.35278
  0
VERTEX
  5
14C4
330
697
100
AcDbEntity
  8
LAYER_1
100
AcDbVertex
100
AcDb2dVertex
 10
52.34049999999999
 20
172.8279999999999
 30
0.0
  0
VERTEX
  5
14C5
330
697
100
AcDbEntity
  8
LAYER_1
100
AcDbVertex
100
AcDb2dVertex
 10
52.34049999999999
 20
172.629
 30
0.0
  0
VERTEX
  5
14C6
330
697
100
AcDbEntity
  8
LAYER_1
100
AcDbVertex
100
AcDb2dVertex
 10
52.5168
 20
172.629
 30
0.0
  0
VERTEX
  5
14C7
330
697
100
AcDbEntity
  8
LAYER_1
100
AcDbVertex
100
AcDb2dVertex
 10
52.5168
 20
172.8279999999999
 30
0.0
  0
SEQEND
  5
14C8
330
697
100
AcDbEntity
  8
LAYER_1
  0
POLYLINE
  5
69D
330
475
100
AcDbEntity
  8
LAYER_1
100
AcDb2dPolyline
 66
     1
 10
0.0
 20
0.0
 30
0.0
 70
     1
 40
0.35278
 41
0.35278
  0
VERTEX
  5
14C9
330
69D
100
AcDbEntity
  8
LAYER_1
100
AcDbVertex
100
AcDb2dVertex
 10
51.7171
 20
172.629
 30
0.0
  0
VERTEX
  5
14CA
330
69D
100
AcDbEntity
  8
LAYER_1
100
AcDbVertex
100
AcDb2dVertex
 10
51.7171
 20
172.8279999999999
 30
0.0
  0
VERTEX
  5
14CB
330
69D
100
AcDbEntity
  8
LAYER_1
100
AcDbVertex
100
AcDb2dVertex
 10
51.5407
 20
172.8279999999999
 30
0.0
  0
VERTEX
  5
14CC
330
69D
100
AcDbEntity
  8
LAYER_1
100
AcDbVertex
100
AcDb2dVertex
 10
51.5407
 20
172.629
 30
0.0
  0
SEQEND
  5
14CD
330
69D
100
AcDbEntity
  8
LAYER_1
  0
POLYLINE
  5
6A3
330
475
100
AcDbEntity
  8
LAYER_1
100
AcDb2dPolyline
 66
     1
 10
0.0
 20
0.0
 30
0.0
 70
     1
 40
0.35278
 41
0.35278
  0
VERTEX
  5
14CE
330
6A3
100
AcDbEntity
  8
LAYER_1
100
AcDbVertex
100
AcDb2dVertex
 10
44.8153
 20
187.3529999999999
 30
0.0
  0
VERTEX
  5
14CF
330
6A3
100
AcDbEntity
  8
LAYER_1
100
AcDbVertex
100
AcDb2dVertex
 10
44.8153
 20
99.8529
 30
0.0
  0
VERTEX
  5
14D0
330
6A3
100
AcDbEntity
  8
LAYER_1
100
AcDbVertex
100
AcDb2dVertex
 10
44.9917
 20
99.8529
 30
0.0
  0
VERTEX
  5
14D1
330
6A3
100
AcDbEntity
  8
LAYER_1
100
AcDbVertex
100
AcDb2dVertex
 10
44.9917
 20
187.3529999999999
 30
0.0
  0
SEQEND
  5
14D2
330
6A3
100
AcDbEntity
  8
LAYER_1
  0
POLYLINE
  5
6A9
330
475
100
AcDbEntity
  8
LAYER_1
100
AcDb2dPolyline
 66
     1
 10
0.0
 20
0.0
 30
0.0
 70
     1
 40
0.35278
 41
0.35278
  0
VERTEX
  5
14D3
330
6A9
100
AcDbEntity
  8
LAYER_1
100
AcDbVertex
100
AcDb2dVertex
 10
44.4918
 20
99.8529
 30
0.0
  0
VERTEX
  5
14D4
330
6A9
100
AcDbEntity
  8
LAYER_1
100
AcDbVertex
100
AcDb2dVertex
 10
44.4918
 20
187.3529999999999
 30
0.0
  0
VERTEX
  5
14D5
330
6A9
100
AcDbEntity
  8
LAYER_1
100
AcDbVertex
100
AcDb2dVertex
 10
44.3154
 20
187.3529999999999
 30
0.0
  0
VERTEX
  5
14D6
330
6A9
100
AcDbEntity
  8
LAYER_1
100
AcDbVertex
100
AcDb2dVertex
 10
44.3154
 20
99.8529
 30
0.0
  0
SEQEND
  5
14D7
330
6A9
100
AcDbEntity
  8
LAYER_1
  0
POLYLINE
  5
6AF
330
475
100
AcDbEntity
  8
LAYER_1
100
AcDb2dPolyline
 66
     1
 10
0.0
 20
0.0
 30
0.0
 70
     1
 40
0.35278
 41
0.35278
  0
VERTEX
  5
14D8
330
6AF
100
AcDbEntity
  8
LAYER_1
100
AcDbVertex
100
AcDb2dVertex
 10
38.44039999999999
 20
99.8529
 30
0.0
  0
VERTEX
  5
14D9
330
6AF
100
AcDbEntity
  8
LAYER_1
100
AcDbVertex
100
AcDb2dVertex
 10
38.44039999999999
 20
99.3527
 30
0.0
  0
VERTEX
  5
14DA
330
6AF
100
AcDbEntity
  8
LAYER_1
100
AcDbVertex
100
AcDb2dVertex
 10
38.61679999999999
 20
99.3527
 30
0.0
  0
VERTEX
  5
14DB
330
6AF
100
AcDbEntity
  8
LAYER_1
100
AcDbVertex
100
AcDb2dVertex
 10
38.61679999999999
 20
99.8529
 30
0.0
  0
SEQEND
  5
14DC
330
6AF
100
AcDbEntity
  8
LAYER_1
  0
POLYLINE
  5
6B5
330
475
100
AcDbEntity
  8
LAYER_1
100
AcDb2dPolyline
 66
     1
 10
0.0
 20
0.0
 30
0.0
 70
     1
 40
0.35278
 41
0.35278
  0
VERTEX
  5
14DD
330
6B5
100
AcDbEntity
  8
LAYER_1
100
AcDbVertex
100
AcDb2dVertex
 10
37.9406
 20
99.8529
 30
0.0
  0
VERTEX
  5
14DE
330
6B5
100
AcDbEntity
  8
LAYER_1
100
AcDbVertex
100
AcDb2dVertex
 10
37.9406
 20
99.3527
 30
0.0
  0
VERTEX
  5
14DF
330
6B5
100
AcDbEntity
  8
LAYER_1
100
AcDbVertex
100
AcDb2dVertex
 10
38.1169
 20
99.3527
 30
0.0
  0
VERTEX
  5
14E0
330
6B5
100
AcDbEntity
  8
LAYER_1
100
AcDbVertex
100
AcDb2dVertex
 10
38.1169
 20
99.8529
 30
0.0
  0
SEQEND
  5
14E1
330
6B5
100
AcDbEntity
  8
LAYER_1
  0
POLYLINE
  5
6BB
330
475
100
AcDbEntity
  8
LAYER_1
100
AcDb2dPolyline
 66
     1
 10
0.0
 20
0.0
 30
0.0
 70
     1
 40
0.35278
 41
0.35278
  0
VERTEX
  5
14E2
330
6BB
100
AcDbEntity
  8
LAYER_1
100
AcDbVertex
100
AcDb2dVertex
 10
158.441
 20
70.73170000000001
 30
0.0
  0
VERTEX
  5
14E3
330
6BB
100
AcDbEntity
  8
LAYER_1
100
AcDbVertex
100
AcDb2dVertex
 10
158.441
 20
38.5812
 30
0.0
  0
VERTEX
  5
14E4
330
6BB
100
AcDbEntity
  8
LAYER_1
100
AcDbVertex
100
AcDb2dVertex
 10
158.6179999999999
 20
38.5812
 30
0.0
  0
VERTEX
  5
14E5
330
6BB
100
AcDbEntity
  8
LAYER_1
100
AcDbVertex
100
AcDb2dVertex
 10
158.6179999999999
 20
70.73170000000001
 30
0.0
  0
SEQEND
  5
14E6
330
6BB
100
AcDbEntity
  8
LAYER_1
  0
POLYLINE
  5
6C1
330
475
100
AcDbEntity
  8
LAYER_1
100
AcDb2dPolyline
 66
     1
 10
0.0
 20
0.0
 30
0.0
 70
     1
 40
0.35278
 41
0.35278
  0
VERTEX
  5
14E7
330
6C1
100
AcDbEntity
  8
LAYER_1
100
AcDbVertex
100
AcDb2dVertex
 10
157.967
 20
71.1696
 30
0.0
  0
VERTEX
  5
14E8
330
6C1
100
AcDbEntity
  8
LAYER_1
100
AcDbVertex
100
AcDb2dVertex
 10
158.467
 20
70.66930000000001
 30
0.0
  0
VERTEX
  5
14E9
330
6C1
100
AcDbEntity
  8
LAYER_1
100
AcDbVertex
100
AcDb2dVertex
 10
158.592
 20
70.7941
 30
0.0
  0
VERTEX
  5
14EA
330
6C1
100
AcDbEntity
  8
LAYER_1
100
AcDbVertex
100
AcDb2dVertex
 10
158.092
 20
71.29430000000001
 30
0.0
  0
SEQEND
  5
14EB
330
6C1
100
AcDbEntity
  8
LAYER_1
  0
POLYLINE
  5
6C7
330
475
100
AcDbEntity
  8
LAYER_1
100
AcDb2dPolyline
 66
     1
 10
0.0
 20
0.0
 30
0.0
 70
     1
 40
0.35278
 41
0.35278
  0
VERTEX
  5
14EC
330
6C7
100
AcDbEntity
  8
LAYER_1
100
AcDbVertex
100
AcDb2dVertex
 10
158.092
 20
38.0189
 30
0.0
  0
VERTEX
  5
14ED
330
6C7
100
AcDbEntity
  8
LAYER_1
100
AcDbVertex
100
AcDb2dVertex
 10
158.592
 20
38.51879999999999
 30
0.0
  0
VERTEX
  5
14EE
330
6C7
100
AcDbEntity
  8
LAYER_1
100
AcDbVertex
100
AcDb2dVertex
 10
158.467
 20
38.6435
 30
0.0
  0
VERTEX
  5
14EF
330
6C7
100
AcDbEntity
  8
LAYER_1
100
AcDbVertex
100
AcDb2dVertex
 10
157.967
 20
38.1436
 30
0.0
  0
SEQEND
  5
14F0
330
6C7
100
AcDbEntity
  8
LAYER_1
  0
POLYLINE
  5
6CD
330
475
100
AcDbEntity
  8
LAYER_1
100
AcDb2dPolyline
 66
     1
 10
0.0
 20
0.0
 30
0.0
 70
     1
 40
0.35278
 41
0.35278
  0
VERTEX
  5
14F1
330
6CD
100
AcDbEntity
  8
LAYER_1
100
AcDbVertex
100
AcDb2dVertex
 10
151.742
 20
38.0813
 30
0.0
  0
VERTEX
  5
14F2
330
6CD
100
AcDbEntity
  8
LAYER_1
100
AcDbVertex
100
AcDb2dVertex
 10
151.742
 20
71.2319
 30
0.0
  0
VERTEX
  5
14F3
330
6CD
100
AcDbEntity
  8
LAYER_1
100
AcDbVertex
100
AcDb2dVertex
 10
151.566
 20
71.2319
 30
0.0
  0
VERTEX
  5
14F4
330
6CD
100
AcDbEntity
  8
LAYER_1
100
AcDbVertex
100
AcDb2dVertex
 10
151.566
 20
38.0813
 30
0.0
  0
SEQEND
  5
14F5
330
6CD
100
AcDbEntity
  8
LAYER_1
  0
POLYLINE
  5
6D3
330
475
100
AcDbEntity
  8
LAYER_1
100
AcDb2dPolyline
 66
     1
 10
0.0
 20
0.0
 30
0.0
 70
     1
 40
0.35278
 41
0.35278
  0
VERTEX
  5
14F6
330
6D3
100
AcDbEntity
  8
LAYER_1
100
AcDbVertex
100
AcDb2dVertex
 10
144.617
 20
38.6439
 30
0.0
  0
VERTEX
  5
14F7
330
6D3
100
AcDbEntity
  8
LAYER_1
100
AcDbVertex
100
AcDb2dVertex
 10
144.617
 20
39.1441
 30
0.0
  0
VERTEX
  5
14F8
330
6D3
100
AcDbEntity
  8
LAYER_1
100
AcDbVertex
100
AcDb2dVertex
 10
144.4399999999999
 20
39.1441
 30
0.0
  0
VERTEX
  5
14F9
330
6D3
100
AcDbEntity
  8
LAYER_1
100
AcDbVertex
100
AcDb2dVertex
 10
144.4399999999999
 20
38.6439
 30
0.0
  0
SEQEND
  5
14FA
330
6D3
100
AcDbEntity
  8
LAYER_1
  0
POLYLINE
  5
6D9
330
475
100
AcDbEntity
  8
LAYER_1
100
AcDb2dPolyline
 66
     1
 10
0.0
 20
0.0
 30
0.0
 70
     1
 40
0.35278
 41
0.35278
  0
VERTEX
  5
14FB
330
6D9
100
AcDbEntity
  8
LAYER_1
100
AcDbVertex
100
AcDb2dVertex
 10
143.367
 20
38.6439
 30
0.0
  0
VERTEX
  5
14FC
330
6D9
100
AcDbEntity
  8
LAYER_1
100
AcDbVertex
100
AcDb2dVertex
 10
143.367
 20
39.1441
 30
0.0
  0
VERTEX
  5
14FD
330
6D9
100
AcDbEntity
  8
LAYER_1
100
AcDbVertex
100
AcDb2dVertex
 10
143.1899999999999
 20
39.1441
 30
0.0
  0
VERTEX
  5
14FE
330
6D9
100
AcDbEntity
  8
LAYER_1
100
AcDbVertex
100
AcDb2dVertex
 10
143.1899999999999
 20
38.6439
 30
0.0
  0
SEQEND
  5
14FF
330
6D9
100
AcDbEntity
  8
LAYER_1
  0
POLYLINE
  5
6DF
330
475
100
AcDbEntity
  8
LAYER_1
100
AcDb2dPolyline
 66
     1
 10
0.0
 20
0.0
 30
0.0
 70
     1
 40
0.35278
 41
0.35278
  0
VERTEX
  5
1500
330
6DF
100
AcDbEntity
  8
LAYER_1
100
AcDbVertex
100
AcDb2dVertex
 10
151.6539999999999
 20
71.1437
 30
0.0
  0
VERTEX
  5
1501
330
6DF
100
AcDbEntity
  8
LAYER_1
100
AcDbVertex
100
AcDb2dVertex
 10
158.0289999999999
 20
71.1437
 30
0.0
  0
VERTEX
  5
1502
330
6DF
100
AcDbEntity
  8
LAYER_1
100
AcDbVertex
100
AcDb2dVertex
 10
158.0289999999999
 20
71.3201
 30
0.0
  0
VERTEX
  5
1503
330
6DF
100
AcDbEntity
  8
LAYER_1
100
AcDbVertex
100
AcDb2dVertex
 10
151.6539999999999
 20
71.3201
 30
0.0
  0
SEQEND
  5
1504
330
6DF
100
AcDbEntity
  8
LAYER_1
  0
POLYLINE
  5
6E5
330
475
100
AcDbEntity
  8
LAYER_1
100
AcDb2dPolyline
 66
     1
 10
0.0
 20
0.0
 30
0.0
 70
     1
 40
0.35278
 41
0.35278
  0
VERTEX
  5
1505
330
6E5
100
AcDbEntity
  8
LAYER_1
100
AcDbVertex
100
AcDb2dVertex
 10
38.52859999999999
 20
71.1437
 30
0.0
  0
VERTEX
  5
1506
330
6E5
100
AcDbEntity
  8
LAYER_1
100
AcDbVertex
100
AcDb2dVertex
 10
44.9035
 20
71.1437
 30
0.0
  0
VERTEX
  5
1507
330
6E5
100
AcDbEntity
  8
LAYER_1
100
AcDbVertex
100
AcDb2dVertex
 10
44.9035
 20
71.3201
 30
0.0
  0
VERTEX
  5
1508
330
6E5
100
AcDbEntity
  8
LAYER_1
100
AcDbVertex
100
AcDb2dVertex
 10
38.52859999999999
 20
71.3201
 30
0.0
  0
SEQEND
  5
1509
330
6E5
100
AcDbEntity
  8
LAYER_1
  0
POLYLINE
  5
6EB
330
475
100
AcDbEntity
  8
LAYER_1
100
AcDb2dPolyline
 66
     1
 10
0.0
 20
0.0
 30
0.0
 70
     1
 40
0.35278
 41
0.35278
  0
VERTEX
  5
150A
330
6EB
100
AcDbEntity
  8
LAYER_1
100
AcDbVertex
100
AcDb2dVertex
 10
155.9789999999999
 20
62.5309
 30
0.0
  0
VERTEX
  5
150B
330
6EB
100
AcDbEntity
  8
LAYER_1
100
AcDbVertex
100
AcDb2dVertex
 10
156.8549999999999
 20
62.5309
 30
0.0
  0
VERTEX
  5
150C
330
6EB
100
AcDbEntity
  8
LAYER_1
100
AcDbVertex
100
AcDb2dVertex
 10
156.8549999999999
 20
62.7073
 30
0.0
  0
VERTEX
  5
150D
330
6EB
100
AcDbEntity
  8
LAYER_1
100
AcDbVertex
100
AcDb2dVertex
 10
155.9789999999999
 20
62.7073
 30
0.0
  0
SEQEND
  5
150E
330
6EB
100
AcDbEntity
  8
LAYER_1
  0
POLYLINE
  5
6F1
330
475
100
AcDbEntity
  8
LAYER_1
100
AcDb2dPolyline
 66
     1
 10
0.0
 20
0.0
 30
0.0
 70
     1
 40
0.35278
 41
0.35278
  0
VERTEX
  5
150F
330
6F1
100
AcDbEntity
  8
LAYER_1
100
AcDbVertex
100
AcDb2dVertex
 10
40.5787
 20
62.7073
 30
0.0
  0
VERTEX
  5
1510
330
6F1
100
AcDbEntity
  8
LAYER_1
100
AcDbVertex
100
AcDb2dVertex
 10
39.7034
 20
62.7073
 30
0.0
  0
VERTEX
  5
1511
330
6F1
100
AcDbEntity
  8
LAYER_1
100
AcDbVertex
100
AcDb2dVertex
 10
39.7034
 20
62.5309
 30
0.0
  0
VERTEX
  5
1512
330
6F1
100
AcDbEntity
  8
LAYER_1
100
AcDbVertex
100
AcDb2dVertex
 10
40.5787
 20
62.5309
 30
0.0
  0
SEQEND
  5
1513
330
6F1
100
AcDbEntity
  8
LAYER_1
  0
POLYLINE
  5
6F7
330
475
100
AcDbEntity
  8
LAYER_1
100
AcDb2dPolyline
 66
     1
 10
0.0
 20
0.0
 30
0.0
 70
     1
 40
0.35278
 41
0.35278
  0
VERTEX
  5
1514
330
6F7
100
AcDbEntity
  8
LAYER_1
100
AcDbVertex
100
AcDb2dVertex
 10
39.7034
 20
60.9055
 30
0.0
  0
VERTEX
  5
1515
330
6F7
100
AcDbEntity
  8
LAYER_1
100
AcDbVertex
100
AcDb2dVertex
 10
40.5787
 20
60.9055
 30
0.0
  0
VERTEX
  5
1516
330
6F7
100
AcDbEntity
  8
LAYER_1
100
AcDbVertex
100
AcDb2dVertex
 10
40.5787
 20
61.0819
 30
0.0
  0
VERTEX
  5
1517
330
6F7
100
AcDbEntity
  8
LAYER_1
100
AcDbVertex
100
AcDb2dVertex
 10
39.7034
 20
61.0819
 30
0.0
  0
SEQEND
  5
1518
330
6F7
100
AcDbEntity
  8
LAYER_1
  0
POLYLINE
  5
6FD
330
475
100
AcDbEntity
  8
LAYER_1
100
AcDb2dPolyline
 66
     1
 10
0.0
 20
0.0
 30
0.0
 70
     1
 40
0.35278
 41
0.35278
  0
VERTEX
  5
1519
330
6FD
100
AcDbEntity
  8
LAYER_1
100
AcDbVertex
100
AcDb2dVertex
 10
156.8549999999999
 20
61.0819
 30
0.0
  0
VERTEX
  5
151A
330
6FD
100
AcDbEntity
  8
LAYER_1
100
AcDbVertex
100
AcDb2dVertex
 10
155.9789999999999
 20
61.0819
 30
0.0
  0
VERTEX
  5
151B
330
6FD
100
AcDbEntity
  8
LAYER_1
100
AcDbVertex
100
AcDb2dVertex
 10
155.9789999999999
 20
60.9055
 30
0.0
  0
VERTEX
  5
151C
330
6FD
100
AcDbEntity
  8
LAYER_1
100
AcDbVertex
100
AcDb2dVertex
 10
156.8549999999999
 20
60.9055
 30
0.0
  0
SEQEND
  5
151D
330
6FD
100
AcDbEntity
  8
LAYER_1
  0
POLYLINE
  5
703
330
475
100
AcDbEntity
  8
LAYER_1
100
AcDb2dPolyline
 66
     1
 10
0.0
 20
0.0
 30
0.0
 70
     1
 40
0.35278
 41
0.35278
  0
VERTEX
  5
151E
330
703
100
AcDbEntity
  8
LAYER_1
100
AcDbVertex
100
AcDb2dVertex
 10
155.9789999999999
 20
48.2434
 30
0.0
  0
VERTEX
  5
151F
330
703
100
AcDbEntity
  8
LAYER_1
100
AcDbVertex
100
AcDb2dVertex
 10
156.8549999999999
 20
48.2434
 30
0.0
  0
VERTEX
  5
1520
330
703
100
AcDbEntity
  8
LAYER_1
100
AcDbVertex
100
AcDb2dVertex
 10
156.8549999999999
 20
48.41969999999999
 30
0.0
  0
VERTEX
  5
1521
330
703
100
AcDbEntity
  8
LAYER_1
100
AcDbVertex
100
AcDb2dVertex
 10
155.9789999999999
 20
48.41969999999999
 30
0.0
  0
SEQEND
  5
1522
330
703
100
AcDbEntity
  8
LAYER_1
  0
POLYLINE
  5
709
330
475
100
AcDbEntity
  8
LAYER_1
100
AcDb2dPolyline
 66
     1
 10
0.0
 20
0.0
 30
0.0
 70
     1
 40
0.35278
 41
0.35278
  0
VERTEX
  5
1523
330
709
100
AcDbEntity
  8
LAYER_1
100
AcDbVertex
100
AcDb2dVertex
 10
40.5787
 20
48.41969999999999
 30
0.0
  0
VERTEX
  5
1524
330
709
100
AcDbEntity
  8
LAYER_1
100
AcDbVertex
100
AcDb2dVertex
 10
39.7034
 20
48.41969999999999
 30
0.0
  0
VERTEX
  5
1525
330
709
100
AcDbEntity
  8
LAYER_1
100
AcDbVertex
100
AcDb2dVertex
 10
39.7034
 20
48.2434
 30
0.0
  0
VERTEX
  5
1526
330
709
100
AcDbEntity
  8
LAYER_1
100
AcDbVertex
100
AcDb2dVertex
 10
40.5787
 20
48.2434
 30
0.0
  0
SEQEND
  5
1527
330
709
100
AcDbEntity
  8
LAYER_1
  0
POLYLINE
  5
70F
330
475
100
AcDbEntity
  8
LAYER_1
100
AcDb2dPolyline
 66
     1
 10
0.0
 20
0.0
 30
0.0
 70
     1
 40
0.35278
 41
0.35278
  0
VERTEX
  5
1528
330
70F
100
AcDbEntity
  8
LAYER_1
100
AcDbVertex
100
AcDb2dVertex
 10
39.7034
 20
46.61789999999999
 30
0.0
  0
VERTEX
  5
1529
330
70F
100
AcDbEntity
  8
LAYER_1
100
AcDbVertex
100
AcDb2dVertex
 10
40.5787
 20
46.61789999999999
 30
0.0
  0
VERTEX
  5
152A
330
70F
100
AcDbEntity
  8
LAYER_1
100
AcDbVertex
100
AcDb2dVertex
 10
40.5787
 20
46.79429999999999
 30
0.0
  0
VERTEX
  5
152B
330
70F
100
AcDbEntity
  8
LAYER_1
100
AcDbVertex
100
AcDb2dVertex
 10
39.7034
 20
46.79429999999999
 30
0.0
  0
SEQEND
  5
152C
330
70F
100
AcDbEntity
  8
LAYER_1
  0
POLYLINE
  5
715
330
475
100
AcDbEntity
  8
LAYER_1
100
AcDb2dPolyline
 66
     1
 10
0.0
 20
0.0
 30
0.0
 70
     1
 40
0.35278
 41
0.35278
  0
VERTEX
  5
152D
330
715
100
AcDbEntity
  8
LAYER_1
100
AcDbVertex
100
AcDb2dVertex
 10
156.8549999999999
 20
46.79429999999999
 30
0.0
  0
VERTEX
  5
152E
330
715
100
AcDbEntity
  8
LAYER_1
100
AcDbVertex
100
AcDb2dVertex
 10
155.9789999999999
 20
46.79429999999999
 30
0.0
  0
VERTEX
  5
152F
330
715
100
AcDbEntity
  8
LAYER_1
100
AcDbVertex
100
AcDb2dVertex
 10
155.9789999999999
 20
46.61789999999999
 30
0.0
  0
VERTEX
  5
1530
330
715
100
AcDbEntity
  8
LAYER_1
100
AcDbVertex
100
AcDb2dVertex
 10
156.8549999999999
 20
46.61789999999999
 30
0.0
  0
SEQEND
  5
1531
330
715
100
AcDbEntity
  8
LAYER_1
  0
POLYLINE
  5
71B
330
475
100
AcDbEntity
  8
LAYER_1
100
AcDb2dPolyline
 66
     1
 10
0.0
 20
0.0
 30
0.0
 70
     1
 40
0.35278
 41
0.35278
  0
VERTEX
  5
1532
330
71B
100
AcDbEntity
  8
LAYER_1
100
AcDbVertex
100
AcDb2dVertex
 10
143.2789999999999
 20
39.0559
 30
0.0
  0
VERTEX
  5
1533
330
71B
100
AcDbEntity
  8
LAYER_1
100
AcDbVertex
100
AcDb2dVertex
 10
151.6539999999999
 20
39.0559
 30
0.0
  0
VERTEX
  5
1534
330
71B
100
AcDbEntity
  8
LAYER_1
100
AcDbVertex
100
AcDb2dVertex
 10
151.6539999999999
 20
39.2323
 30
0.0
  0
VERTEX
  5
1535
330
71B
100
AcDbEntity
  8
LAYER_1
100
AcDbVertex
100
AcDb2dVertex
 10
143.2789999999999
 20
39.2323
 30
0.0
  0
SEQEND
  5
1536
330
71B
100
AcDbEntity
  8
LAYER_1
  0
POLYLINE
  5
721
330
475
100
AcDbEntity
  8
LAYER_1
100
AcDb2dPolyline
 66
     1
 10
0.0
 20
0.0
 30
0.0
 70
     1
 40
0.35278
 41
0.35278
  0
VERTEX
  5
1537
330
721
100
AcDbEntity
  8
LAYER_1
100
AcDbVertex
100
AcDb2dVertex
 10
53.2787
 20
39.2323
 30
0.0
  0
VERTEX
  5
1538
330
721
100
AcDbEntity
  8
LAYER_1
100
AcDbVertex
100
AcDb2dVertex
 10
44.9035
 20
39.2323
 30
0.0
  0
VERTEX
  5
1539
330
721
100
AcDbEntity
  8
LAYER_1
100
AcDbVertex
100
AcDb2dVertex
 10
44.9035
 20
39.0559
 30
0.0
  0
VERTEX
  5
153A
330
721
100
AcDbEntity
  8
LAYER_1
100
AcDbVertex
100
AcDb2dVertex
 10
53.2787
 20
39.0559
 30
0.0
  0
SEQEND
  5
153B
330
721
100
AcDbEntity
  8
LAYER_1
  0
POLYLINE
  5
727
330
475
100
AcDbEntity
  8
LAYER_1
100
AcDb2dPolyline
 66
     1
 10
0.0
 20
0.0
 30
0.0
 70
     1
 40
0.35278
 41
0.35278
  0
VERTEX
  5
153C
330
727
100
AcDbEntity
  8
LAYER_1
100
AcDbVertex
100
AcDb2dVertex
 10
143.2789999999999
 20
38.5557
 30
0.0
  0
VERTEX
  5
153D
330
727
100
AcDbEntity
  8
LAYER_1
100
AcDbVertex
100
AcDb2dVertex
 10
151.6539999999999
 20
38.5557
 30
0.0
  0
VERTEX
  5
153E
330
727
100
AcDbEntity
  8
LAYER_1
100
AcDbVertex
100
AcDb2dVertex
 10
151.6539999999999
 20
38.7321
 30
0.0
  0
VERTEX
  5
153F
330
727
100
AcDbEntity
  8
LAYER_1
100
AcDbVertex
100
AcDb2dVertex
 10
143.2789999999999
 20
38.7321
 30
0.0
  0
SEQEND
  5
1540
330
727
100
AcDbEntity
  8
LAYER_1
  0
POLYLINE
  5
72D
330
475
100
AcDbEntity
  8
LAYER_1
100
AcDb2dPolyline
 66
     1
 10
0.0
 20
0.0
 30
0.0
 70
     1
 40
0.35278
 41
0.35278
  0
VERTEX
  5
1541
330
72D
100
AcDbEntity
  8
LAYER_1
100
AcDbVertex
100
AcDb2dVertex
 10
53.2787
 20
38.7321
 30
0.0
  0
VERTEX
  5
1542
330
72D
100
AcDbEntity
  8
LAYER_1
100
AcDbVertex
100
AcDb2dVertex
 10
44.9035
 20
38.7321
 30
0.0
  0
VERTEX
  5
1543
330
72D
100
AcDbEntity
  8
LAYER_1
100
AcDbVertex
100
AcDb2dVertex
 10
44.9035
 20
38.5557
 30
0.0
  0
VERTEX
  5
1544
330
72D
100
AcDbEntity
  8
LAYER_1
100
AcDbVertex
100
AcDb2dVertex
 10
53.2787
 20
38.5557
 30
0.0
  0
SEQEND
  5
1545
330
72D
100
AcDbEntity
  8
LAYER_1
  0
POLYLINE
  5
733
330
475
100
AcDbEntity
  8
LAYER_1
100
AcDb2dPolyline
 66
     1
 10
0.0
 20
0.0
 30
0.0
 70
     1
 40
0.35278
 41
0.35278
  0
VERTEX
  5
1546
330
733
100
AcDbEntity
  8
LAYER_1
100
AcDbVertex
100
AcDb2dVertex
 10
38.52859999999999
 20
37.9931
 30
0.0
  0
VERTEX
  5
1547
330
733
100
AcDbEntity
  8
LAYER_1
100
AcDbVertex
100
AcDb2dVertex
 10
44.9035
 20
37.9931
 30
0.0
  0
VERTEX
  5
1548
330
733
100
AcDbEntity
  8
LAYER_1
100
AcDbVertex
100
AcDb2dVertex
 10
44.9035
 20
38.1695
 30
0.0
  0
VERTEX
  5
1549
330
733
100
AcDbEntity
  8
LAYER_1
100
AcDbVertex
100
AcDb2dVertex
 10
38.52859999999999
 20
38.1695
 30
0.0
  0
SEQEND
  5
154A
330
733
100
AcDbEntity
  8
LAYER_1
  0
POLYLINE
  5
739
330
475
100
AcDbEntity
  8
LAYER_1
100
AcDb2dPolyline
 66
     1
 10
0.0
 20
0.0
 30
0.0
 70
     1
 40
0.35278
 41
0.35278
  0
VERTEX
  5
154B
330
739
100
AcDbEntity
  8
LAYER_1
100
AcDbVertex
100
AcDb2dVertex
 10
158.0289999999999
 20
38.1695
 30
0.0
  0
VERTEX
  5
154C
330
739
100
AcDbEntity
  8
LAYER_1
100
AcDbVertex
100
AcDb2dVertex
 10
151.6539999999999
 20
38.1695
 30
0.0
  0
VERTEX
  5
154D
330
739
100
AcDbEntity
  8
LAYER_1
100
AcDbVertex
100
AcDb2dVertex
 10
151.6539999999999
 20
37.9931
 30
0.0
  0
VERTEX
  5
154E
330
739
100
AcDbEntity
  8
LAYER_1
100
AcDbVertex
100
AcDb2dVertex
 10
158.0289999999999
 20
37.9931
 30
0.0
  0
SEQEND
  5
154F
330
739
100
AcDbEntity
  8
LAYER_1
  0
POLYLINE
  5
73F
330
475
100
AcDbEntity
  8
LAYER_1
100
AcDb2dPolyline
 66
     1
 10
0.0
 20
0.0
 30
0.0
 70
     1
 40
0.35278
 41
0.35278
  0
VERTEX
  5
1550
330
73F
100
AcDbEntity
  8
LAYER_1
100
AcDbVertex
100
AcDb2dVertex
 10
53.3669
 20
38.6439
 30
0.0
  0
VERTEX
  5
1551
330
73F
100
AcDbEntity
  8
LAYER_1
100
AcDbVertex
100
AcDb2dVertex
 10
53.3669
 20
39.1441
 30
0.0
  0
VERTEX
  5
1552
330
73F
100
AcDbEntity
  8
LAYER_1
100
AcDbVertex
100
AcDb2dVertex
 10
53.1905
 20
39.1441
 30
0.0
  0
VERTEX
  5
1553
330
73F
100
AcDbEntity
  8
LAYER_1
100
AcDbVertex
100
AcDb2dVertex
 10
53.1905
 20
38.6439
 30
0.0
  0
SEQEND
  5
1554
330
73F
100
AcDbEntity
  8
LAYER_1
  0
POLYLINE
  5
745
330
475
100
AcDbEntity
  8
LAYER_1
100
AcDb2dPolyline
 66
     1
 10
0.0
 20
0.0
 30
0.0
 70
     1
 40
0.35278
 41
0.35278
  0
VERTEX
  5
1555
330
745
100
AcDbEntity
  8
LAYER_1
100
AcDbVertex
100
AcDb2dVertex
 10
52.117
 20
38.6439
 30
0.0
  0
VERTEX
  5
1556
330
745
100
AcDbEntity
  8
LAYER_1
100
AcDbVertex
100
AcDb2dVertex
 10
52.117
 20
39.1441
 30
0.0
  0
VERTEX
  5
1557
330
745
100
AcDbEntity
  8
LAYER_1
100
AcDbVertex
100
AcDb2dVertex
 10
51.94069999999999
 20
39.1441
 30
0.0
  0
VERTEX
  5
1558
330
745
100
AcDbEntity
  8
LAYER_1
100
AcDbVertex
100
AcDb2dVertex
 10
51.94069999999999
 20
38.6439
 30
0.0
  0
SEQEND
  5
1559
330
745
100
AcDbEntity
  8
LAYER_1
  0
POLYLINE
  5
74B
330
475
100
AcDbEntity
  8
LAYER_1
100
AcDb2dPolyline
 66
     1
 10
0.0
 20
0.0
 30
0.0
 70
     1
 40
0.35278
 41
0.35278
  0
VERTEX
  5
155A
330
74B
100
AcDbEntity
  8
LAYER_1
100
AcDbVertex
100
AcDb2dVertex
 10
44.8153
 20
71.2319
 30
0.0
  0
VERTEX
  5
155B
330
74B
100
AcDbEntity
  8
LAYER_1
100
AcDbVertex
100
AcDb2dVertex
 10
44.8153
 20
38.0813
 30
0.0
  0
VERTEX
  5
155C
330
74B
100
AcDbEntity
  8
LAYER_1
100
AcDbVertex
100
AcDb2dVertex
 10
44.9917
 20
38.0813
 30
0.0
  0
VERTEX
  5
155D
330
74B
100
AcDbEntity
  8
LAYER_1
100
AcDbVertex
100
AcDb2dVertex
 10
44.9917
 20
71.2319
 30
0.0
  0
SEQEND
  5
155E
330
74B
100
AcDbEntity
  8
LAYER_1
  0
POLYLINE
  5
751
330
475
100
AcDbEntity
  8
LAYER_1
100
AcDb2dPolyline
 66
     1
 10
0.0
 20
0.0
 30
0.0
 70
     1
 40
0.35278
 41
0.35278
  0
VERTEX
  5
155F
330
751
100
AcDbEntity
  8
LAYER_1
100
AcDbVertex
100
AcDb2dVertex
 10
38.591
 20
38.1436
 30
0.0
  0
VERTEX
  5
1560
330
751
100
AcDbEntity
  8
LAYER_1
100
AcDbVertex
100
AcDb2dVertex
 10
38.0911
 20
38.6435
 30
0.0
  0
VERTEX
  5
1561
330
751
100
AcDbEntity
  8
LAYER_1
100
AcDbVertex
100
AcDb2dVertex
 10
37.9664
 20
38.51879999999999
 30
0.0
  0
VERTEX
  5
1562
330
751
100
AcDbEntity
  8
LAYER_1
100
AcDbVertex
100
AcDb2dVertex
 10
38.46629999999999
 20
38.0189
 30
0.0
  0
SEQEND
  5
1563
330
751
100
AcDbEntity
  8
LAYER_1
  0
POLYLINE
  5
757
330
475
100
AcDbEntity
  8
LAYER_1
100
AcDb2dPolyline
 66
     1
 10
0.0
 20
0.0
 30
0.0
 70
     1
 40
0.35278
 41
0.35278
  0
VERTEX
  5
1564
330
757
100
AcDbEntity
  8
LAYER_1
100
AcDbVertex
100
AcDb2dVertex
 10
38.46629999999999
 20
71.29430000000001
 30
0.0
  0
VERTEX
  5
1565
330
757
100
AcDbEntity
  8
LAYER_1
100
AcDbVertex
100
AcDb2dVertex
 10
37.9664
 20
70.7941
 30
0.0
  0
VERTEX
  5
1566
330
757
100
AcDbEntity
  8
LAYER_1
100
AcDbVertex
100
AcDb2dVertex
 10
38.0911
 20
70.66930000000001
 30
0.0
  0
VERTEX
  5
1567
330
757
100
AcDbEntity
  8
LAYER_1
100
AcDbVertex
100
AcDb2dVertex
 10
38.591
 20
71.1696
 30
0.0
  0
SEQEND
  5
1568
330
757
100
AcDbEntity
  8
LAYER_1
  0
POLYLINE
  5
75D
330
475
100
AcDbEntity
  8
LAYER_1
100
AcDb2dPolyline
 66
     1
 10
0.0
 20
0.0
 30
0.0
 70
     1
 40
0.35278
 41
0.35278
  0
VERTEX
  5
1569
330
75D
100
AcDbEntity
  8
LAYER_1
100
AcDbVertex
100
AcDb2dVertex
 10
37.9406
 20
70.73170000000001
 30
0.0
  0
VERTEX
  5
156A
330
75D
100
AcDbEntity
  8
LAYER_1
100
AcDbVertex
100
AcDb2dVertex
 10
37.9406
 20
38.5812
 30
0.0
  0
VERTEX
  5
156B
330
75D
100
AcDbEntity
  8
LAYER_1
100
AcDbVertex
100
AcDb2dVertex
 10
38.1169
 20
38.5812
 30
0.0
  0
VERTEX
  5
156C
330
75D
100
AcDbEntity
  8
LAYER_1
100
AcDbVertex
100
AcDb2dVertex
 10
38.1169
 20
70.73170000000001
 30
0.0
  0
SEQEND
  5
156D
330
75D
100
AcDbEntity
  8
LAYER_1
  0
ENDBLK
  5
763
330
475
100
AcDbEntity
  8
0
100
AcDbBlockEnd
  0
BLOCK
  5
765
330
764
100
AcDbEntity
  8
LAYER_1
100
AcDbBlockBegin
  2
AIGNBL01010016
 70
     0
 10
0.0
 20
0.0
 30
0.0
  3
AIGNBL01010016
  1

  0
POLYLINE
  5
766
330
764
100
AcDbEntity
  8
LAYER_1
  6
AIGENLINE001
100
AcDb2dPolyline
 66
     1
 10
0.0
 20
0.0
 30
0.0
 70
   128
 40
0.17639
 41
0.17639
  0
VERTEX
  5
156E
330
766
100
AcDbEntity
  8
LAYER_1
  6
AIGENLINE001
100
AcDbVertex
100
AcDb2dVertex
 10
44.4036
 20
39.1441
 30
0.0
 42
0.3926
  0
VERTEX
  5
156F
330
766
100
AcDbEntity
  8
LAYER_1
  6
AIGENLINE001
100
AcDbVertex
100
AcDb2dVertex
 10
44.9035
 20
38.6439
 30
0.0
  0
SEQEND
  5
1570
330
766
100
AcDbEntity
  8
LAYER_1
  6
AIGENLINE001
  0
POLYLINE
  5
76A
330
764
100
AcDbEntity
  8
LAYER_1
  6
AIGENLINE001
100
AcDb2dPolyline
 66
     1
 10
0.0
 20
0.0
 30
0.0
 70
   128
 40
0.17639
 41
0.17639
  0
VERTEX
  5
1571
330
76A
100
AcDbEntity
  8
LAYER_1
  6
AIGENLINE001
100
AcDbVertex
100
AcDb2dVertex
 10
151.6539999999999
 20
38.6439
 30
0.0
 42
0.3931
  0
VERTEX
  5
1572
330
76A
100
AcDbEntity
  8
LAYER_1
  6
AIGENLINE001
100
AcDbVertex
100
AcDb2dVertex
 10
152.153
 20
39.1441
 30
0.0
  0
SEQEND
  5
1573
330
76A
100
AcDbEntity
  8
LAYER_1
  6
AIGENLINE001
  0
POLYLINE
  5
76E
330
764
100
AcDbEntity
  8
LAYER_1
  6
AIGENLINE001
100
AcDb2dPolyline
 66
     1
 10
0.0
 20
0.0
 30
0.0
 70
   128
 40
0.17639
 41
0.17639
  0
VERTEX
  5
1574
330
76E
100
AcDbEntity
  8
LAYER_1
  6
AIGENLINE001
100
AcDbVertex
100
AcDb2dVertex
 10
230.9109999999999
 20
186.104
 30
0.0
  0
VERTEX
  5
1575
330
76E
100
AcDbEntity
  8
LAYER_1
  6
AIGENLINE001
100
AcDbVertex
100
AcDb2dVertex
 10
231.4109999999999
 20
186.104
 30
0.0
  0
SEQEND
  5
1576
330
76E
100
AcDbEntity
  8
LAYER_1
  6
AIGENLINE001
  0
POLYLINE
  5
772
330
764
100
AcDbEntity
  8
LAYER_1
  6
AIGENLINE001
100
AcDb2dPolyline
 66
     1
 10
0.0
 20
0.0
 30
0.0
 70
   128
 40
0.17639
 41
0.17639
  0
VERTEX
  5
1577
330
772
100
AcDbEntity
  8
LAYER_1
  6
AIGENLINE001
100
AcDbVertex
100
AcDb2dVertex
 10
231.4109999999999
 20
173.2279999999999
 30
0.0
  0
VERTEX
  5
1578
330
772
100
AcDbEntity
  8
LAYER_1
  6
AIGENLINE001
100
AcDbVertex
100
AcDb2dVertex
 10
230.9109999999999
 20
173.2279999999999
 30
0.0
  0
SEQEND
  5
1579
330
772
100
AcDbEntity
  8
LAYER_1
  6
AIGENLINE001
  0
POLYLINE
  5
776
330
764
100
AcDbEntity
  8
LAYER_1
  6
AIGENLINE001
100
AcDb2dPolyline
 66
     1
 10
0.0
 20
0.0
 30
0.0
 70
   128
 40
0.17639
 41
0.17639
  0
VERTEX
  5
157A
330
776
100
AcDbEntity
  8
LAYER_1
  6
AIGENLINE001
100
AcDbVertex
100
AcDb2dVertex
 10
231.4109999999999
 20
172.229
 30
0.0
  0
VERTEX
  5
157B
330
776
100
AcDbEntity
  8
LAYER_1
  6
AIGENLINE001
100
AcDbVertex
100
AcDb2dVertex
 10
230.9109999999999
 20
172.229
 30
0.0
  0
SEQEND
  5
157C
330
776
100
AcDbEntity
  8
LAYER_1
  6
AIGENLINE001
  0
POLYLINE
  5
77A
330
764
100
AcDbEntity
  8
LAYER_1
  6
AIGENLINE001
100
AcDb2dPolyline
 66
     1
 10
0.0
 20
0.0
 30
0.0
 70
   128
 40
0.17639
 41
0.17639
  0
VERTEX
  5
157D
330
77A
100
AcDbEntity
  8
LAYER_1
  6
AIGENLINE001
100
AcDbVertex
100
AcDb2dVertex
 10
230.9109999999999
 20
107.728
 30
0.0
  0
VERTEX
  5
157E
330
77A
100
AcDbEntity
  8
LAYER_1
  6
AIGENLINE001
100
AcDbVertex
100
AcDb2dVertex
 10
230.9109999999999
 20
187.3529999999999
 30
0.0
  0
SEQEND
  5
157F
330
77A
100
AcDbEntity
  8
LAYER_1
  6
AIGENLINE001
  0
POLYLINE
  5
77E
330
764
100
AcDbEntity
  8
LAYER_1
  6
AIGENLINE001
100
AcDb2dPolyline
 66
     1
 10
0.0
 20
0.0
 30
0.0
 70
   128
 40
0.17639
 41
0.17639
  0
VERTEX
  5
1580
330
77E
100
AcDbEntity
  8
LAYER_1
  6
AIGENLINE001
100
AcDbVertex
100
AcDb2dVertex
 10
223.346
 20
99.8529
 30
0.0
  0
VERTEX
  5
1581
330
77E
100
AcDbEntity
  8
LAYER_1
  6
AIGENLINE001
100
AcDbVertex
100
AcDb2dVertex
 10
223.346
 20
99.3527
 30
0.0
  0
SEQEND
  5
1582
330
77E
100
AcDbEntity
  8
LAYER_1
  6
AIGENLINE001
  0
POLYLINE
  5
782
330
764
100
AcDbEntity
  8
LAYER_1
  6
AIGENLINE001
100
AcDb2dPolyline
 66
     1
 10
0.0
 20
0.0
 30
0.0
 70
   128
 40
0.17639
 41
0.17639
  0
VERTEX
  5
1583
330
782
100
AcDbEntity
  8
LAYER_1
  6
AIGENLINE001
100
AcDbVertex
100
AcDb2dVertex
 10
221.7229999999999
 20
99.8529
 30
0.0
  0
VERTEX
  5
1584
330
782
100
AcDbEntity
  8
LAYER_1
  6
AIGENLINE001
100
AcDbVertex
100
AcDb2dVertex
 10
221.7229999999999
 20
99.3527
 30
0.0
  0
SEQEND
  5
1585
330
782
100
AcDbEntity
  8
LAYER_1
  6
AIGENLINE001
  0
POLYLINE
  5
786
330
764
100
AcDbEntity
  8
LAYER_1
  6
AIGENLINE001
100
AcDb2dPolyline
 66
     1
 10
0.0
 20
0.0
 30
0.0
 70
   128
 40
0.17639
 41
0.17639
  0
VERTEX
  5
1586
330
786
100
AcDbEntity
  8
LAYER_1
  6
AIGENLINE001
100
AcDbVertex
100
AcDb2dVertex
 10
209.059
 20
99.8529
 30
0.0
  0
VERTEX
  5
1587
330
786
100
AcDbEntity
  8
LAYER_1
  6
AIGENLINE001
100
AcDbVertex
100
AcDb2dVertex
 10
209.059
 20
99.3527
 30
0.0
  0
SEQEND
  5
1588
330
786
100
AcDbEntity
  8
LAYER_1
  6
AIGENLINE001
  0
POLYLINE
  5
78A
330
764
100
AcDbEntity
  8
LAYER_1
  6
AIGENLINE001
100
AcDb2dPolyline
 66
     1
 10
0.0
 20
0.0
 30
0.0
 70
   128
 40
0.17639
 41
0.17639
  0
VERTEX
  5
1589
330
78A
100
AcDbEntity
  8
LAYER_1
  6
AIGENLINE001
100
AcDbVertex
100
AcDb2dVertex
 10
207.4349999999999
 20
99.8529
 30
0.0
  0
VERTEX
  5
158A
330
78A
100
AcDbEntity
  8
LAYER_1
  6
AIGENLINE001
100
AcDbVertex
100
AcDb2dVertex
 10
207.4349999999999
 20
99.3527
 30
0.0
  0
SEQEND
  5
158B
330
78A
100
AcDbEntity
  8
LAYER_1
  6
AIGENLINE001
  0
POLYLINE
  5
78E
330
764
100
AcDbEntity
  8
LAYER_1
  6
AIGENLINE001
100
AcDb2dPolyline
 66
     1
 10
0.0
 20
0.0
 30
0.0
 70
   128
 40
0.17639
 41
0.17639
  0
VERTEX
  5
158C
330
78E
100
AcDbEntity
  8
LAYER_1
  6
AIGENLINE001
100
AcDbVertex
100
AcDb2dVertex
 10
231.4109999999999
 20
118.6279999999999
 30
0.0
  0
VERTEX
  5
158D
330
78E
100
AcDbEntity
  8
LAYER_1
  6
AIGENLINE001
100
AcDbVertex
100
AcDb2dVertex
 10
230.9109999999999
 20
118.6279999999999
 30
0.0
  0
SEQEND
  5
158E
330
78E
100
AcDbEntity
  8
LAYER_1
  6
AIGENLINE001
  0
POLYLINE
  5
792
330
764
100
AcDbEntity
  8
LAYER_1
  6
AIGENLINE001
100
AcDb2dPolyline
 66
     1
 10
0.0
 20
0.0
 30
0.0
 70
   128
 40
0.17639
 41
0.17639
  0
VERTEX
  5
158F
330
792
100
AcDbEntity
  8
LAYER_1
  6
AIGENLINE001
100
AcDbVertex
100
AcDb2dVertex
 10
231.4109999999999
 20
117.8279999999999
 30
0.0
  0
VERTEX
  5
1590
330
792
100
AcDbEntity
  8
LAYER_1
  6
AIGENLINE001
100
AcDbVertex
100
AcDb2dVertex
 10
230.9109999999999
 20
117.8279999999999
 30
0.0
  0
SEQEND
  5
1591
330
792
100
AcDbEntity
  8
LAYER_1
  6
AIGENLINE001
  0
POLYLINE
  5
796
330
764
100
AcDbEntity
  8
LAYER_1
  6
AIGENLINE001
100
AcDb2dPolyline
 66
     1
 10
0.0
 20
0.0
 30
0.0
 70
   128
 40
0.17639
 41
0.17639
  0
VERTEX
  5
1592
330
796
100
AcDbEntity
  8
LAYER_1
  6
AIGENLINE001
100
AcDbVertex
100
AcDb2dVertex
 10
231.4109999999999
 20
108.9779999999999
 30
0.0
  0
VERTEX
  5
1593
330
796
100
AcDbEntity
  8
LAYER_1
  6
AIGENLINE001
100
AcDbVertex
100
AcDb2dVertex
 10
230.9109999999999
 20
108.9779999999999
 30
0.0
  0
SEQEND
  5
1594
330
796
100
AcDbEntity
  8
LAYER_1
  6
AIGENLINE001
  0
POLYLINE
  5
79A
330
764
100
AcDbEntity
  8
LAYER_1
  6
AIGENLINE001
100
AcDb2dPolyline
 66
     1
 10
0.0
 20
0.0
 30
0.0
 70
   128
 40
0.17639
 41
0.17639
  0
VERTEX
  5
1595
330
79A
100
AcDbEntity
  8
LAYER_1
  6
AIGENLINE001
100
AcDbVertex
100
AcDb2dVertex
 10
151.6539999999999
 20
248.2069999999999
 30
0.0
  0
VERTEX
  5
1596
330
79A
100
AcDbEntity
  8
LAYER_1
  6
AIGENLINE001
100
AcDbVertex
100
AcDb2dVertex
 10
151.6539999999999
 20
247.7069999999999
 30
0.0
  0
SEQEND
  5
1597
330
79A
100
AcDbEntity
  8
LAYER_1
  6
AIGENLINE001
  0
POLYLINE
  5
79E
330
764
100
AcDbEntity
  8
LAYER_1
  6
AIGENLINE001
100
AcDb2dPolyline
 66
     1
 10
0.0
 20
0.0
 30
0.0
 70
   128
 40
0.17639
 41
0.17639
  0
VERTEX
  5
1598
330
79E
100
AcDbEntity
  8
LAYER_1
  6
AIGENLINE001
100
AcDbVertex
100
AcDb2dVertex
 10
144.93
 20
248.2069999999999
 30
0.0
  0
VERTEX
  5
1599
330
79E
100
AcDbEntity
  8
LAYER_1
  6
AIGENLINE001
100
AcDbVertex
100
AcDb2dVertex
 10
144.93
 20
247.7069999999999
 30
0.0
  0
SEQEND
  5
159A
330
79E
100
AcDbEntity
  8
LAYER_1
  6
AIGENLINE001
  0
POLYLINE
  5
7A2
330
764
100
AcDbEntity
  8
LAYER_1
  6
AIGENLINE001
100
AcDb2dPolyline
 66
     1
 10
0.0
 20
0.0
 30
0.0
 70
   128
 40
0.17639
 41
0.17639
  0
VERTEX
  5
159B
330
7A2
100
AcDbEntity
  8
LAYER_1
  6
AIGENLINE001
100
AcDbVertex
100
AcDb2dVertex
 10
144.13
 20
248.2069999999999
 30
0.0
  0
VERTEX
  5
159C
330
7A2
100
AcDbEntity
  8
LAYER_1
  6
AIGENLINE001
100
AcDbVertex
100
AcDb2dVertex
 10
144.13
 20
247.7069999999999
 30
0.0
  0
SEQEND
  5
159D
330
7A2
100
AcDbEntity
  8
LAYER_1
  6
AIGENLINE001
  0
POLYLINE
  5
7A6
330
764
100
AcDbEntity
  8
LAYER_1
  6
AIGENLINE001
100
AcDb2dPolyline
 66
     1
 10
0.0
 20
0.0
 30
0.0
 70
   128
 40
0.17639
 41
0.17639
  0
VERTEX
  5
159E
330
7A6
100
AcDbEntity
  8
LAYER_1
  6
AIGENLINE001
100
AcDbVertex
100
AcDb2dVertex
 10
44.4036
 20
247.582
 30
0.0
  0
VERTEX
  5
159F
330
7A6
100
AcDbEntity
  8
LAYER_1
  6
AIGENLINE001
100
AcDbVertex
100
AcDb2dVertex
 10
44.9035
 20
247.582
 30
0.0
  0
SEQEND
  5
15A0
330
7A6
100
AcDbEntity
  8
LAYER_1
  6
AIGENLINE001
  0
POLYLINE
  5
7AA
330
764
100
AcDbEntity
  8
LAYER_1
  6
AIGENLINE001
100
AcDb2dPolyline
 66
     1
 10
0.0
 20
0.0
 30
0.0
 70
   128
 40
0.17639
 41
0.17639
  0
VERTEX
  5
15A1
330
7AA
100
AcDbEntity
  8
LAYER_1
  6
AIGENLINE001
100
AcDbVertex
100
AcDb2dVertex
 10
152.1539999999999
 20
247.582
 30
0.0
  0
VERTEX
  5
15A2
330
7AA
100
AcDbEntity
  8
LAYER_1
  6
AIGENLINE001
100
AcDbVertex
100
AcDb2dVertex
 10
151.6539999999999
 20
247.582
 30
0.0
  0
SEQEND
  5
15A3
330
7AA
100
AcDbEntity
  8
LAYER_1
  6
AIGENLINE001
  0
POLYLINE
  5
7AE
330
764
100
AcDbEntity
  8
LAYER_1
  6
AIGENLINE001
100
AcDb2dPolyline
 66
     1
 10
0.0
 20
0.0
 30
0.0
 70
   128
 40
0.17639
 41
0.17639
  0
VERTEX
  5
15A4
330
7AE
100
AcDbEntity
  8
LAYER_1
  6
AIGENLINE001
100
AcDbVertex
100
AcDb2dVertex
 10
151.6539999999999
 20
241.4559999999999
 30
0.0
  0
VERTEX
  5
15A5
330
7AE
100
AcDbEntity
  8
LAYER_1
  6
AIGENLINE001
100
AcDbVertex
100
AcDb2dVertex
 10
152.1539999999999
 20
241.4559999999999
 30
0.0
  0
SEQEND
  5
15A6
330
7AE
100
AcDbEntity
  8
LAYER_1
  6
AIGENLINE001
  0
POLYLINE
  5
7B2
330
764
100
AcDbEntity
  8
LAYER_1
  6
AIGENLINE001
100
AcDb2dPolyline
 66
     1
 10
0.0
 20
0.0
 30
0.0
 70
   128
 40
0.17639
 41
0.17639
  0
VERTEX
  5
15A7
330
7B2
100
AcDbEntity
  8
LAYER_1
  6
AIGENLINE001
100
AcDbVertex
100
AcDb2dVertex
 10
44.9035
 20
241.4559999999999
 30
0.0
  0
VERTEX
  5
15A8
330
7B2
100
AcDbEntity
  8
LAYER_1
  6
AIGENLINE001
100
AcDbVertex
100
AcDb2dVertex
 10
44.4036
 20
241.4559999999999
 30
0.0
  0
SEQEND
  5
15A9
330
7B2
100
AcDbEntity
  8
LAYER_1
  6
AIGENLINE001
  0
POLYLINE
  5
7B6
330
764
100
AcDbEntity
  8
LAYER_1
  6
AIGENLINE001
100
AcDb2dPolyline
 66
     1
 10
0.0
 20
0.0
 30
0.0
 70
   128
 40
0.17639
 41
0.17639
  0
VERTEX
  5
15AA
330
7B6
100
AcDbEntity
  8
LAYER_1
  6
AIGENLINE001
100
AcDbVertex
100
AcDb2dVertex
 10
151.6539999999999
 20
220.6179999999999
 30
0.0
  0
VERTEX
  5
15AB
330
7B6
100
AcDbEntity
  8
LAYER_1
  6
AIGENLINE001
100
AcDbVertex
100
AcDb2dVertex
 10
152.1539999999999
 20
220.6179999999999
 30
0.0
  0
SEQEND
  5
15AC
330
7B6
100
AcDbEntity
  8
LAYER_1
  6
AIGENLINE001
  0
POLYLINE
  5
7BA
330
764
100
AcDbEntity
  8
LAYER_1
  6
AIGENLINE001
100
AcDb2dPolyline
 66
     1
 10
0.0
 20
0.0
 30
0.0
 70
   128
 40
0.17639
 41
0.17639
  0
VERTEX
  5
15AD
330
7BA
100
AcDbEntity
  8
LAYER_1
  6
AIGENLINE001
100
AcDbVertex
100
AcDb2dVertex
 10
44.9035
 20
220.6179999999999
 30
0.0
  0
VERTEX
  5
15AE
330
7BA
100
AcDbEntity
  8
LAYER_1
  6
AIGENLINE001
100
AcDbVertex
100
AcDb2dVertex
 10
44.4036
 20
220.6179999999999
 30
0.0
  0
SEQEND
  5
15AF
330
7BA
100
AcDbEntity
  8
LAYER_1
  6
AIGENLINE001
  0
POLYLINE
  5
7BE
330
764
100
AcDbEntity
  8
LAYER_1
  6
AIGENLINE001
100
AcDb2dPolyline
 66
     1
 10
0.0
 20
0.0
 30
0.0
 70
   128
 40
0.17639
 41
0.17639
  0
VERTEX
  5
15B0
330
7BE
100
AcDbEntity
  8
LAYER_1
  6
AIGENLINE001
100
AcDbVertex
100
AcDb2dVertex
 10
52.42869999999999
 20
247.7069999999999
 30
0.0
  0
VERTEX
  5
15B1
330
7BE
100
AcDbEntity
  8
LAYER_1
  6
AIGENLINE001
100
AcDbVertex
100
AcDb2dVertex
 10
52.42869999999999
 20
248.2069999999999
 30
0.0
  0
SEQEND
  5
15B2
330
7BE
100
AcDbEntity
  8
LAYER_1
  6
AIGENLINE001
  0
POLYLINE
  5
7C2
330
764
100
AcDbEntity
  8
LAYER_1
  6
AIGENLINE001
100
AcDb2dPolyline
 66
     1
 10
0.0
 20
0.0
 30
0.0
 70
   128
 40
0.17639
 41
0.17639
  0
VERTEX
  5
15B3
330
7C2
100
AcDbEntity
  8
LAYER_1
  6
AIGENLINE001
100
AcDbVertex
100
AcDb2dVertex
 10
51.6289
 20
247.7069999999999
 30
0.0
  0
VERTEX
  5
15B4
330
7C2
100
AcDbEntity
  8
LAYER_1
  6
AIGENLINE001
100
AcDbVertex
100
AcDb2dVertex
 10
51.6289
 20
248.2069999999999
 30
0.0
  0
SEQEND
  5
15B5
330
7C2
100
AcDbEntity
  8
LAYER_1
  6
AIGENLINE001
  0
POLYLINE
  5
7C6
330
764
100
AcDbEntity
  8
LAYER_1
  6
AIGENLINE001
100
AcDb2dPolyline
 66
     1
 10
0.0
 20
0.0
 30
0.0
 70
   128
 40
0.17639
 41
0.17639
  0
VERTEX
  5
15B6
330
7C6
100
AcDbEntity
  8
LAYER_1
  6
AIGENLINE001
100
AcDbVertex
100
AcDb2dVertex
 10
44.9035
 20
247.7069999999999
 30
0.0
  0
VERTEX
  5
15B7
330
7C6
100
AcDbEntity
  8
LAYER_1
  6
AIGENLINE001
100
AcDbVertex
100
AcDb2dVertex
 10
44.9035
 20
248.2069999999999
 30
0.0
  0
SEQEND
  5
15B8
330
7C6
100
AcDbEntity
  8
LAYER_1
  6
AIGENLINE001
  0
POLYLINE
  5
7CA
330
764
100
AcDbEntity
  8
LAYER_1
  6
AIGENLINE001
100
AcDb2dPolyline
 66
     1
 10
0.0
 20
0.0
 30
0.0
 70
   128
 40
0.17639
 41
0.17639
  0
VERTEX
  5
15B9
330
7CA
100
AcDbEntity
  8
LAYER_1
  6
AIGENLINE001
100
AcDbVertex
100
AcDb2dVertex
 10
157.6649999999999
 20
99.3527
 30
0.0
  0
VERTEX
  5
15BA
330
7CA
100
AcDbEntity
  8
LAYER_1
  6
AIGENLINE001
100
AcDbVertex
100
AcDb2dVertex
 10
157.6649999999999
 20
99.8529
 30
0.0
  0
SEQEND
  5
15BB
330
7CA
100
AcDbEntity
  8
LAYER_1
  6
AIGENLINE001
  0
POLYLINE
  5
7CE
330
764
100
AcDbEntity
  8
LAYER_1
  6
AIGENLINE001
100
AcDb2dPolyline
 66
     1
 10
0.0
 20
0.0
 30
0.0
 70
   128
 40
0.17639
 41
0.17639
  0
VERTEX
  5
15BC
330
7CE
100
AcDbEntity
  8
LAYER_1
  6
AIGENLINE001
100
AcDbVertex
100
AcDb2dVertex
 10
155.166
 20
99.3527
 30
0.0
  0
VERTEX
  5
15BD
330
7CE
100
AcDbEntity
  8
LAYER_1
  6
AIGENLINE001
100
AcDbVertex
100
AcDb2dVertex
 10
155.166
 20
99.8529
 30
0.0
  0
SEQEND
  5
15BE
330
7CE
100
AcDbEntity
  8
LAYER_1
  6
AIGENLINE001
  0
POLYLINE
  5
7D2
330
764
100
AcDbEntity
  8
LAYER_1
  6
AIGENLINE001
100
AcDb2dPolyline
 66
     1
 10
0.0
 20
0.0
 30
0.0
 70
   128
 40
0.17639
 41
0.17639
  0
VERTEX
  5
15BF
330
7D2
100
AcDbEntity
  8
LAYER_1
  6
AIGENLINE001
100
AcDbVertex
100
AcDb2dVertex
 10
151.6539999999999
 20
142.3539999999999
 30
0.0
  0
VERTEX
  5
15C0
330
7D2
100
AcDbEntity
  8
LAYER_1
  6
AIGENLINE001
100
AcDbVertex
100
AcDb2dVertex
 10
152.1539999999999
 20
142.3539999999999
 30
0.0
  0
SEQEND
  5
15C1
330
7D2
100
AcDbEntity
  8
LAYER_1
  6
AIGENLINE001
  0
POLYLINE
  5
7D6
330
764
100
AcDbEntity
  8
LAYER_1
  6
AIGENLINE001
100
AcDb2dPolyline
 66
     1
 10
0.0
 20
0.0
 30
0.0
 70
   128
 40
0.17639
 41
0.17639
  0
VERTEX
  5
15C2
330
7D6
100
AcDbEntity
  8
LAYER_1
  6
AIGENLINE001
100
AcDbVertex
100
AcDb2dVertex
 10
44.9035
 20
142.3539999999999
 30
0.0
  0
VERTEX
  5
15C3
330
7D6
100
AcDbEntity
  8
LAYER_1
  6
AIGENLINE001
100
AcDbVertex
100
AcDb2dVertex
 10
44.4036
 20
142.3539999999999
 30
0.0
  0
SEQEND
  5
15C4
330
7D6
100
AcDbEntity
  8
LAYER_1
  6
AIGENLINE001
  0
POLYLINE
  5
7DA
330
764
100
AcDbEntity
  8
LAYER_1
  6
AIGENLINE001
100
AcDb2dPolyline
 66
     1
 10
0.0
 20
0.0
 30
0.0
 70
   128
 40
0.17639
 41
0.17639
  0
VERTEX
  5
15C5
330
7DA
100
AcDbEntity
  8
LAYER_1
  6
AIGENLINE001
100
AcDbVertex
100
AcDb2dVertex
 10
151.6539999999999
 20
116.3529999999999
 30
0.0
  0
VERTEX
  5
15C6
330
7DA
100
AcDbEntity
  8
LAYER_1
  6
AIGENLINE001
100
AcDbVertex
100
AcDb2dVertex
 10
152.1539999999999
 20
116.3529999999999
 30
0.0
  0
SEQEND
  5
15C7
330
7DA
100
AcDbEntity
  8
LAYER_1
  6
AIGENLINE001
  0
POLYLINE
  5
7DE
330
764
100
AcDbEntity
  8
LAYER_1
  6
AIGENLINE001
100
AcDb2dPolyline
 66
     1
 10
0.0
 20
0.0
 30
0.0
 70
   128
 40
0.17639
 41
0.17639
  0
VERTEX
  5
15C8
330
7DE
100
AcDbEntity
  8
LAYER_1
  6
AIGENLINE001
100
AcDbVertex
100
AcDb2dVertex
 10
44.9035
 20
116.3529999999999
 30
0.0
  0
VERTEX
  5
15C9
330
7DE
100
AcDbEntity
  8
LAYER_1
  6
AIGENLINE001
100
AcDbVertex
100
AcDb2dVertex
 10
44.4036
 20
116.3529999999999
 30
0.0
  0
SEQEND
  5
15CA
330
7DE
100
AcDbEntity
  8
LAYER_1
  6
AIGENLINE001
  0
POLYLINE
  5
7E2
330
764
100
AcDbEntity
  8
LAYER_1
  6
AIGENLINE001
100
AcDb2dPolyline
 66
     1
 10
0.0
 20
0.0
 30
0.0
 70
   128
 40
0.17639
 41
0.17639
  0
VERTEX
  5
15CB
330
7E2
100
AcDbEntity
  8
LAYER_1
  6
AIGENLINE001
100
AcDbVertex
100
AcDb2dVertex
 10
44.4036
 20
107.728
 30
0.0
  0
VERTEX
  5
15CC
330
7E2
100
AcDbEntity
  8
LAYER_1
  6
AIGENLINE001
100
AcDbVertex
100
AcDb2dVertex
 10
44.9035
 20
107.728
 30
0.0
  0
SEQEND
  5
15CD
330
7E2
100
AcDbEntity
  8
LAYER_1
  6
AIGENLINE001
  0
POLYLINE
  5
7E6
330
764
100
AcDbEntity
  8
LAYER_1
  6
AIGENLINE001
100
AcDb2dPolyline
 66
     1
 10
0.0
 20
0.0
 30
0.0
 70
   128
 40
0.17639
 41
0.17639
  0
VERTEX
  5
15CE
330
7E6
100
AcDbEntity
  8
LAYER_1
  6
AIGENLINE001
100
AcDbVertex
100
AcDb2dVertex
 10
152.1539999999999
 20
107.728
 30
0.0
  0
VERTEX
  5
15CF
330
7E6
100
AcDbEntity
  8
LAYER_1
  6
AIGENLINE001
100
AcDbVertex
100
AcDb2dVertex
 10
151.6539999999999
 20
107.728
 30
0.0
  0
SEQEND
  5
15D0
330
7E6
100
AcDbEntity
  8
LAYER_1
  6
AIGENLINE001
  0
POLYLINE
  5
7EA
330
764
100
AcDbEntity
  8
LAYER_1
  6
AIGENLINE001
100
AcDb2dPolyline
 66
     1
 10
0.0
 20
0.0
 30
0.0
 70
   128
 40
0.17639
 41
0.17639
  0
VERTEX
  5
15D1
330
7EA
100
AcDbEntity
  8
LAYER_1
  6
AIGENLINE001
100
AcDbVertex
100
AcDb2dVertex
 10
151.6539999999999
 20
106.478
 30
0.0
  0
VERTEX
  5
15D2
330
7EA
100
AcDbEntity
  8
LAYER_1
  6
AIGENLINE001
100
AcDbVertex
100
AcDb2dVertex
 10
152.1539999999999
 20
106.478
 30
0.0
  0
SEQEND
  5
15D3
330
7EA
100
AcDbEntity
  8
LAYER_1
  6
AIGENLINE001
  0
POLYLINE
  5
7EE
330
764
100
AcDbEntity
  8
LAYER_1
  6
AIGENLINE001
100
AcDb2dPolyline
 66
     1
 10
0.0
 20
0.0
 30
0.0
 70
   128
 40
0.17639
 41
0.17639
  0
VERTEX
  5
15D4
330
7EE
100
AcDbEntity
  8
LAYER_1
  6
AIGENLINE001
100
AcDbVertex
100
AcDb2dVertex
 10
44.9035
 20
106.478
 30
0.0
  0
VERTEX
  5
15D5
330
7EE
100
AcDbEntity
  8
LAYER_1
  6
AIGENLINE001
100
AcDbVertex
100
AcDb2dVertex
 10
44.4036
 20
106.478
 30
0.0
  0
SEQEND
  5
15D6
330
7EE
100
AcDbEntity
  8
LAYER_1
  6
AIGENLINE001
  0
POLYLINE
  5
7F2
330
764
100
AcDbEntity
  8
LAYER_1
  6
AIGENLINE001
100
AcDb2dPolyline
 66
     1
 10
0.0
 20
0.0
 30
0.0
 70
   128
 40
0.17639
 41
0.17639
  0
VERTEX
  5
15D7
330
7F2
100
AcDbEntity
  8
LAYER_1
  6
AIGENLINE001
100
AcDbVertex
100
AcDb2dVertex
 10
151.6539999999999
 20
105.9779999999999
 30
0.0
  0
VERTEX
  5
15D8
330
7F2
100
AcDbEntity
  8
LAYER_1
  6
AIGENLINE001
100
AcDbVertex
100
AcDb2dVertex
 10
152.1539999999999
 20
105.9779999999999
 30
0.0
  0
SEQEND
  5
15D9
330
7F2
100
AcDbEntity
  8
LAYER_1
  6
AIGENLINE001
  0
POLYLINE
  5
7F6
330
764
100
AcDbEntity
  8
LAYER_1
  6
AIGENLINE001
100
AcDb2dPolyline
 66
     1
 10
0.0
 20
0.0
 30
0.0
 70
   128
 40
0.17639
 41
0.17639
  0
VERTEX
  5
15DA
330
7F6
100
AcDbEntity
  8
LAYER_1
  6
AIGENLINE001
100
AcDbVertex
100
AcDb2dVertex
 10
44.9035
 20
105.9779999999999
 30
0.0
  0
VERTEX
  5
15DB
330
7F6
100
AcDbEntity
  8
LAYER_1
  6
AIGENLINE001
100
AcDbVertex
100
AcDb2dVertex
 10
44.4036
 20
105.9779999999999
 30
0.0
  0
SEQEND
  5
15DC
330
7F6
100
AcDbEntity
  8
LAYER_1
  6
AIGENLINE001
  0
POLYLINE
  5
7FA
330
764
100
AcDbEntity
  8
LAYER_1
  6
AIGENLINE001
100
AcDb2dPolyline
 66
     1
 10
0.0
 20
0.0
 30
0.0
 70
   128
 40
0.17639
 41
0.17639
  0
VERTEX
  5
15DD
330
7FA
100
AcDbEntity
  8
LAYER_1
  6
AIGENLINE001
100
AcDbVertex
100
AcDb2dVertex
 10
41.3912
 20
99.8529
 30
0.0
  0
VERTEX
  5
15DE
330
7FA
100
AcDbEntity
  8
LAYER_1
  6
AIGENLINE001
100
AcDbVertex
100
AcDb2dVertex
 10
41.3912
 20
99.3527
 30
0.0
  0
SEQEND
  5
15DF
330
7FA
100
AcDbEntity
  8
LAYER_1
  6
AIGENLINE001
  0
POLYLINE
  5
7FE
330
764
100
AcDbEntity
  8
LAYER_1
  6
AIGENLINE001
100
AcDb2dPolyline
 66
     1
 10
0.0
 20
0.0
 30
0.0
 70
   128
 40
0.17639
 41
0.17639
  0
VERTEX
  5
15E0
330
7FE
100
AcDbEntity
  8
LAYER_1
  6
AIGENLINE001
100
AcDbVertex
100
AcDb2dVertex
 10
38.8911
 20
99.8529
 30
0.0
  0
VERTEX
  5
15E1
330
7FE
100
AcDbEntity
  8
LAYER_1
  6
AIGENLINE001
100
AcDbVertex
100
AcDb2dVertex
 10
38.8911
 20
99.3527
 30
0.0
  0
SEQEND
  5
15E2
330
7FE
100
AcDbEntity
  8
LAYER_1
  6
AIGENLINE001
  0
POLYLINE
  5
802
330
764
100
AcDbEntity
  8
LAYER_1
  6
AIGENLINE001
100
AcDb2dPolyline
 66
     1
 10
0.0
 20
0.0
 30
0.0
 70
   128
 40
0.17639
 41
0.17639
  0
VERTEX
  5
15E3
330
802
100
AcDbEntity
  8
LAYER_1
  6
AIGENLINE001
100
AcDbVertex
100
AcDb2dVertex
 10
152.1539999999999
 20
38.0813
 30
0.0
  0
VERTEX
  5
15E4
330
802
100
AcDbEntity
  8
LAYER_1
  6
AIGENLINE001
100
AcDbVertex
100
AcDb2dVertex
 10
152.1539999999999
 20
71.2319
 30
0.0
  0
SEQEND
  5
15E5
330
802
100
AcDbEntity
  8
LAYER_1
  6
AIGENLINE001
  0
POLYLINE
  5
806
330
764
100
AcDbEntity
  8
LAYER_1
  6
AIGENLINE001
100
AcDb2dPolyline
 66
     1
 10
0.0
 20
0.0
 30
0.0
 70
   128
 40
0.17639
 41
0.17639
  0
VERTEX
  5
15E6
330
806
100
AcDbEntity
  8
LAYER_1
  6
AIGENLINE001
100
AcDbVertex
100
AcDb2dVertex
 10
144.93
 20
39.1441
 30
0.0
  0
VERTEX
  5
15E7
330
806
100
AcDbEntity
  8
LAYER_1
  6
AIGENLINE001
100
AcDbVertex
100
AcDb2dVertex
 10
144.93
 20
38.6439
 30
0.0
  0
SEQEND
  5
15E8
330
806
100
AcDbEntity
  8
LAYER_1
  6
AIGENLINE001
  0
POLYLINE
  5
80A
330
764
100
AcDbEntity
  8
LAYER_1
  6
AIGENLINE001
100
AcDb2dPolyline
 66
     1
 10
0.0
 20
0.0
 30
0.0
 70
   128
 40
0.17639
 41
0.17639
  0
VERTEX
  5
15E9
330
80A
100
AcDbEntity
  8
LAYER_1
  6
AIGENLINE001
100
AcDbVertex
100
AcDb2dVertex
 10
144.13
 20
39.1441
 30
0.0
  0
VERTEX
  5
15EA
330
80A
100
AcDbEntity
  8
LAYER_1
  6
AIGENLINE001
100
AcDbVertex
100
AcDb2dVertex
 10
144.13
 20
38.6439
 30
0.0
  0
SEQEND
  5
15EB
330
80A
100
AcDbEntity
  8
LAYER_1
  6
AIGENLINE001
  0
POLYLINE
  5
80E
330
764
100
AcDbEntity
  8
LAYER_1
  6
AIGENLINE001
100
AcDb2dPolyline
 66
     1
 10
0.0
 20
0.0
 30
0.0
 70
   128
 40
0.17639
 41
0.17639
  0
VERTEX
  5
15EC
330
80E
100
AcDbEntity
  8
LAYER_1
  6
AIGENLINE001
100
AcDbVertex
100
AcDb2dVertex
 10
151.6539999999999
 20
66.2313
 30
0.0
  0
VERTEX
  5
15ED
330
80E
100
AcDbEntity
  8
LAYER_1
  6
AIGENLINE001
100
AcDbVertex
100
AcDb2dVertex
 10
152.1539999999999
 20
66.2313
 30
0.0
  0
SEQEND
  5
15EE
330
80E
100
AcDbEntity
  8
LAYER_1
  6
AIGENLINE001
  0
POLYLINE
  5
812
330
764
100
AcDbEntity
  8
LAYER_1
  6
AIGENLINE001
100
AcDb2dPolyline
 66
     1
 10
0.0
 20
0.0
 30
0.0
 70
   128
 40
0.17639
 41
0.17639
  0
VERTEX
  5
15EF
330
812
100
AcDbEntity
  8
LAYER_1
  6
AIGENLINE001
100
AcDbVertex
100
AcDb2dVertex
 10
44.9035
 20
66.2313
 30
0.0
  0
VERTEX
  5
15F0
330
812
100
AcDbEntity
  8
LAYER_1
  6
AIGENLINE001
100
AcDbVertex
100
AcDb2dVertex
 10
44.4036
 20
66.2313
 30
0.0
  0
SEQEND
  5
15F1
330
812
100
AcDbEntity
  8
LAYER_1
  6
AIGENLINE001
  0
POLYLINE
  5
816
330
764
100
AcDbEntity
  8
LAYER_1
  6
AIGENLINE001
100
AcDb2dPolyline
 66
     1
 10
0.0
 20
0.0
 30
0.0
 70
   128
 40
0.17639
 41
0.17639
  0
VERTEX
  5
15F2
330
816
100
AcDbEntity
  8
LAYER_1
  6
AIGENLINE001
100
AcDbVertex
100
AcDb2dVertex
 10
151.6539999999999
 20
53.3773
 30
0.0
  0
VERTEX
  5
15F3
330
816
100
AcDbEntity
  8
LAYER_1
  6
AIGENLINE001
100
AcDbVertex
100
AcDb2dVertex
 10
152.1539999999999
 20
53.3773
 30
0.0
  0
SEQEND
  5
15F4
330
816
100
AcDbEntity
  8
LAYER_1
  6
AIGENLINE001
  0
POLYLINE
  5
81A
330
764
100
AcDbEntity
  8
LAYER_1
  6
AIGENLINE001
100
AcDb2dPolyline
 66
     1
 10
0.0
 20
0.0
 30
0.0
 70
   128
 40
0.17639
 41
0.17639
  0
VERTEX
  5
15F5
330
81A
100
AcDbEntity
  8
LAYER_1
  6
AIGENLINE001
100
AcDbVertex
100
AcDb2dVertex
 10
44.9035
 20
53.3773
 30
0.0
  0
VERTEX
  5
15F6
330
81A
100
AcDbEntity
  8
LAYER_1
  6
AIGENLINE001
100
AcDbVertex
100
AcDb2dVertex
 10
44.4036
 20
53.3773
 30
0.0
  0
SEQEND
  5
15F7
330
81A
100
AcDbEntity
  8
LAYER_1
  6
AIGENLINE001
  0
POLYLINE
  5
81E
330
764
100
AcDbEntity
  8
LAYER_1
  6
AIGENLINE001
100
AcDb2dPolyline
 66
     1
 10
0.0
 20
0.0
 30
0.0
 70
   128
 40
0.17639
 41
0.17639
  0
VERTEX
  5
15F8
330
81E
100
AcDbEntity
  8
LAYER_1
  6
AIGENLINE001
100
AcDbVertex
100
AcDb2dVertex
 10
151.6539999999999
 20
51.6437
 30
0.0
  0
VERTEX
  5
15F9
330
81E
100
AcDbEntity
  8
LAYER_1
  6
AIGENLINE001
100
AcDbVertex
100
AcDb2dVertex
 10
152.1539999999999
 20
51.6437
 30
0.0
  0
SEQEND
  5
15FA
330
81E
100
AcDbEntity
  8
LAYER_1
  6
AIGENLINE001
  0
POLYLINE
  5
822
330
764
100
AcDbEntity
  8
LAYER_1
  6
AIGENLINE001
100
AcDb2dPolyline
 66
     1
 10
0.0
 20
0.0
 30
0.0
 70
   128
 40
0.17639
 41
0.17639
  0
VERTEX
  5
15FB
330
822
100
AcDbEntity
  8
LAYER_1
  6
AIGENLINE001
100
AcDbVertex
100
AcDb2dVertex
 10
44.9035
 20
51.6437
 30
0.0
  0
VERTEX
  5
15FC
330
822
100
AcDbEntity
  8
LAYER_1
  6
AIGENLINE001
100
AcDbVertex
100
AcDb2dVertex
 10
44.4036
 20
51.6437
 30
0.0
  0
SEQEND
  5
15FD
330
822
100
AcDbEntity
  8
LAYER_1
  6
AIGENLINE001
  0
POLYLINE
  5
826
330
764
100
AcDbEntity
  8
LAYER_1
  6
AIGENLINE001
100
AcDb2dPolyline
 66
     1
 10
0.0
 20
0.0
 30
0.0
 70
   128
 40
0.17639
 41
0.17639
  0
VERTEX
  5
15FE
330
826
100
AcDbEntity
  8
LAYER_1
  6
AIGENLINE001
100
AcDbVertex
100
AcDb2dVertex
 10
151.6539999999999
 20
45.3939
 30
0.0
  0
VERTEX
  5
15FF
330
826
100
AcDbEntity
  8
LAYER_1
  6
AIGENLINE001
100
AcDbVertex
100
AcDb2dVertex
 10
152.1539999999999
 20
45.3939
 30
0.0
  0
SEQEND
  5
1600
330
826
100
AcDbEntity
  8
LAYER_1
  6
AIGENLINE001
  0
POLYLINE
  5
82A
330
764
100
AcDbEntity
  8
LAYER_1
  6
AIGENLINE001
100
AcDb2dPolyline
 66
     1
 10
0.0
 20
0.0
 30
0.0
 70
   128
 40
0.17639
 41
0.17639
  0
VERTEX
  5
1601
330
82A
100
AcDbEntity
  8
LAYER_1
  6
AIGENLINE001
100
AcDbVertex
100
AcDb2dVertex
 10
44.9035
 20
45.3939
 30
0.0
  0
VERTEX
  5
1602
330
82A
100
AcDbEntity
  8
LAYER_1
  6
AIGENLINE001
100
AcDbVertex
100
AcDb2dVertex
 10
44.4036
 20
45.3939
 30
0.0
  0
SEQEND
  5
1603
330
82A
100
AcDbEntity
  8
LAYER_1
  6
AIGENLINE001
  0
POLYLINE
  5
82E
330
764
100
AcDbEntity
  8
LAYER_1
  6
AIGENLINE001
100
AcDb2dPolyline
 66
     1
 10
0.0
 20
0.0
 30
0.0
 70
   128
 40
0.17639
 41
0.17639
  0
VERTEX
  5
1604
330
82E
100
AcDbEntity
  8
LAYER_1
  6
AIGENLINE001
100
AcDbVertex
100
AcDb2dVertex
 10
151.6539999999999
 20
39.2688
 30
0.0
  0
VERTEX
  5
1605
330
82E
100
AcDbEntity
  8
LAYER_1
  6
AIGENLINE001
100
AcDbVertex
100
AcDb2dVertex
 10
152.1539999999999
 20
39.2688
 30
0.0
  0
SEQEND
  5
1606
330
82E
100
AcDbEntity
  8
LAYER_1
  6
AIGENLINE001
  0
POLYLINE
  5
832
330
764
100
AcDbEntity
  8
LAYER_1
  6
AIGENLINE001
100
AcDb2dPolyline
 66
     1
 10
0.0
 20
0.0
 30
0.0
 70
   128
 40
0.17639
 41
0.17639
  0
VERTEX
  5
1607
330
832
100
AcDbEntity
  8
LAYER_1
  6
AIGENLINE001
100
AcDbVertex
100
AcDb2dVertex
 10
44.9035
 20
39.2688
 30
0.0
  0
VERTEX
  5
1608
330
832
100
AcDbEntity
  8
LAYER_1
  6
AIGENLINE001
100
AcDbVertex
100
AcDb2dVertex
 10
44.4036
 20
39.2688
 30
0.0
  0
SEQEND
  5
1609
330
832
100
AcDbEntity
  8
LAYER_1
  6
AIGENLINE001
  0
POLYLINE
  5
836
330
764
100
AcDbEntity
  8
LAYER_1
  6
AIGENLINE001
100
AcDb2dPolyline
 66
     1
 10
0.0
 20
0.0
 30
0.0
 70
   128
 40
0.17639
 41
0.17639
  0
VERTEX
  5
160A
330
836
100
AcDbEntity
  8
LAYER_1
  6
AIGENLINE001
100
AcDbVertex
100
AcDb2dVertex
 10
151.6539999999999
 20
38.5812
 30
0.0
  0
VERTEX
  5
160B
330
836
100
AcDbEntity
  8
LAYER_1
  6
AIGENLINE001
100
AcDbVertex
100
AcDb2dVertex
 10
152.1539999999999
 20
38.5812
 30
0.0
  0
SEQEND
  5
160C
330
836
100
AcDbEntity
  8
LAYER_1
  6
AIGENLINE001
  0
POLYLINE
  5
83A
330
764
100
AcDbEntity
  8
LAYER_1
  6
AIGENLINE001
100
AcDb2dPolyline
 66
     1
 10
0.0
 20
0.0
 30
0.0
 70
   128
 40
0.17639
 41
0.17639
  0
VERTEX
  5
160D
330
83A
100
AcDbEntity
  8
LAYER_1
  6
AIGENLINE001
100
AcDbVertex
100
AcDb2dVertex
 10
44.9035
 20
38.5812
 30
0.0
  0
VERTEX
  5
160E
330
83A
100
AcDbEntity
  8
LAYER_1
  6
AIGENLINE001
100
AcDbVertex
100
AcDb2dVertex
 10
44.4036
 20
38.5812
 30
0.0
  0
SEQEND
  5
160F
330
83A
100
AcDbEntity
  8
LAYER_1
  6
AIGENLINE001
  0
POLYLINE
  5
83E
330
764
100
AcDbEntity
  8
LAYER_1
  6
AIGENLINE001
100
AcDb2dPolyline
 66
     1
 10
0.0
 20
0.0
 30
0.0
 70
   128
 40
0.17639
 41
0.17639
  0
VERTEX
  5
1610
330
83E
100
AcDbEntity
  8
LAYER_1
  6
AIGENLINE001
100
AcDbVertex
100
AcDb2dVertex
 10
52.42869999999999
 20
39.1441
 30
0.0
  0
VERTEX
  5
1611
330
83E
100
AcDbEntity
  8
LAYER_1
  6
AIGENLINE001
100
AcDbVertex
100
AcDb2dVertex
 10
52.42869999999999
 20
38.6439
 30
0.0
  0
SEQEND
  5
1612
330
83E
100
AcDbEntity
  8
LAYER_1
  6
AIGENLINE001
  0
POLYLINE
  5
842
330
764
100
AcDbEntity
  8
LAYER_1
  6
AIGENLINE001
100
AcDb2dPolyline
 66
     1
 10
0.0
 20
0.0
 30
0.0
 70
   128
 40
0.17639
 41
0.17639
  0
VERTEX
  5
1613
330
842
100
AcDbEntity
  8
LAYER_1
  6
AIGENLINE001
100
AcDbVertex
100
AcDb2dVertex
 10
51.6289
 20
39.1441
 30
0.0
  0
VERTEX
  5
1614
330
842
100
AcDbEntity
  8
LAYER_1
  6
AIGENLINE001
100
AcDbVertex
100
AcDb2dVertex
 10
51.6289
 20
38.6439
 30
0.0
  0
SEQEND
  5
1615
330
842
100
AcDbEntity
  8
LAYER_1
  6
AIGENLINE001
  0
POLYLINE
  5
846
330
764
100
AcDbEntity
  8
LAYER_1
  6
AIGENLINE001
100
AcDb2dPolyline
 66
     1
 10
0.0
 20
0.0
 30
0.0
 70
   128
 40
0.17639
 41
0.17639
  0
VERTEX
  5
1616
330
846
100
AcDbEntity
  8
LAYER_1
  6
AIGENLINE001
100
AcDbVertex
100
AcDb2dVertex
 10
44.4036
 20
38.0813
 30
0.0
  0
VERTEX
  5
1617
330
846
100
AcDbEntity
  8
LAYER_1
  6
AIGENLINE001
100
AcDbVertex
100
AcDb2dVertex
 10
44.4036
 20
71.2319
 30
0.0
  0
SEQEND
  5
1618
330
846
100
AcDbEntity
  8
LAYER_1
  6
AIGENLINE001
  0
ENDBLK
  5
84A
330
764
100
AcDbEntity
  8
0
100
AcDbBlockEnd
  0
BLOCK
  5
84C
330
84B
100
AcDbEntity
  8
LAYER_2
100
AcDbBlockBegin
  2
AIGNBL02010002
 70
     0
 10
0.0
 20
0.0
 30
0.0
  3
AIGNBL02010002
  1

  0
INSERT
  5
84D
330
84B
100
AcDbEntity
  8
LAYER_2
100
AcDbBlockReference
  2
AIGNBL02020003
 10
0.0
 20
0.0
 30
0.0
  0
INSERT
  5
84E
330
84B
100
AcDbEntity
  8
LAYER_2
100
AcDbBlockReference
  2
AIGNBL02020004
 10
0.0
 20
0.0
 30
0.0
  0
INSERT
  5
84F
330
84B
100
AcDbEntity
  8
LAYER_2
100
AcDbBlockReference
  2
AIGNBL02020005
 10
0.0
 20
0.0
 30
0.0
  0
INSERT
  5
850
330
84B
100
AcDbEntity
  8
LAYER_2
100
AcDbBlockReference
  2
AIGNBL02020006
 10
0.0
 20
0.0
 30
0.0
  0
INSERT
  5
851
330
84B
100
AcDbEntity
  8
LAYER_2
100
AcDbBlockReference
  2
AIGNBL02020007
 10
0.0
 20
0.0
 30
0.0
  0
INSERT
  5
852
330
84B
100
AcDbEntity
  8
LAYER_2
100
AcDbBlockReference
  2
AIGNBL02020008
 10
0.0
 20
0.0
 30
0.0
  0
INSERT
  5
853
330
84B
100
AcDbEntity
  8
LAYER_2
100
AcDbBlockReference
  2
AIGNBL02020009
 10
0.0
 20
0.0
 30
0.0
  0
INSERT
  5
854
330
84B
100
AcDbEntity
  8
LAYER_2
100
AcDbBlockReference
  2
AIGNBL0202000A
 10
0.0
 20
0.0
 30
0.0
  0
INSERT
  5
855
330
84B
100
AcDbEntity
  8
LAYER_2
100
AcDbBlockReference
  2
AIGNBL0202000B
 10
0.0
 20
0.0
 30
0.0
  0
ENDBLK
  5
856
330
84B
100
AcDbEntity
  8
0
100
AcDbBlockEnd
  0
ENDSEC
  0
SECTION
  2
ENTITIES
  0
INSERT
  5
857
330
1E
100
AcDbEntity
  8
LAYER_1
100
AcDbBlockReference
  2
AIGNBL01010002
 10
0.0
 20
0.0
 30
0.0
  0
INSERT
  5
858
330
1E
100
AcDbEntity
  8
LAYER_1
100
AcDbBlockReference
  2
AIGNBL01010009
 10
0.0
 20
0.0
 30
0.0
  0
INSERT
  5
859
330
1E
100
AcDbEntity
  8
LAYER_1
100
AcDbBlockReference
  2
AIGNBL0101000A
 10
0.0
 20
0.0
 30
0.0
  0
INSERT
  5
85A
330
1E
100
AcDbEntity
  8
LAYER_1
100
AcDbBlockReference
  2
AIGNBL0101000F
 10
0.0
 20
0.0
 30
0.0
  0
INSERT
  5
85B
330
1E
100
AcDbEntity
  8
LAYER_1
100
AcDbBlockReference
  2
AIGNBL01010010
 10
0.0
 20
0.0
 30
0.0
  0
POLYLINE
  5
85C
330
1E
100
AcDbEntity
  8
LAYER_1
100
AcDb2dPolyline
 66
     1
 10
0.0
 20
0.0
 30
0.0
 40
0.105834
 41
0.105834
  0
VERTEX
  5
1619
330
85C
100
AcDbEntity
  8
LAYER_1
100
AcDbVertex
100
AcDb2dVertex
 10
156.8259999999999
 20
23.4936
 30
0.0
  0
VERTEX
  5
161A
330
85C
100
AcDbEntity
  8
LAYER_1
100
AcDbVertex
100
AcDb2dVertex
 10
158.529
 20
23.9501
 30
0.0
  0
VERTEX
  5
161B
330
85C
100
AcDbEntity
  8
LAYER_1
100
AcDbVertex
100
AcDb2dVertex
 10
156.8259999999999
 20
24.4066
 30
0.0
  0
SEQEND
  5
161C
330
85C
100
AcDbEntity
  8
LAYER_1
  0
POLYLINE
  5
861
330
1E
100
AcDbEntity
  8
LAYER_1
100
AcDb2dPolyline
 66
     1
 10
0.0
 20
0.0
 30
0.0
 40
0.105834
 41
0.105834
  0
VERTEX
  5
161D
330
861
100
AcDbEntity
  8
LAYER_1
100
AcDbVertex
100
AcDb2dVertex
 10
39.7325
 20
24.4066
 30
0.0
  0
VERTEX
  5
161E
330
861
100
AcDbEntity
  8
LAYER_1
100
AcDbVertex
100
AcDb2dVertex
 10
38.0288
 20
23.9501
 30
0.0
  0
VERTEX
  5
161F
330
861
100
AcDbEntity
  8
LAYER_1
100
AcDbVertex
100
AcDb2dVertex
 10
39.7325
 20
23.4936
 30
0.0
  0
SEQEND
  5
1620
330
861
100
AcDbEntity
  8
LAYER_1
  0
POLYLINE
  5
866
330
1E
100
AcDbEntity
  8
LAYER_1
100
AcDb2dPolyline
 66
     1
 10
0.0
 20
0.0
 30
0.0
 40
0.105834
 41
0.105834
  0
VERTEX
  5
1621
330
866
100
AcDbEntity
  8
LAYER_1
100
AcDbVertex
100
AcDb2dVertex
 10
38.0288
 20
23.9501
 30
0.0
  0
VERTEX
  5
1622
330
866
100
AcDbEntity
  8
LAYER_1
100
AcDbVertex
100
AcDb2dVertex
 10
158.529
 20
23.9501
 30
0.0
  0
SEQEND
  5
1623
330
866
100
AcDbEntity
  8
LAYER_1
  0
POLYLINE
  5
86A
330
1E
100
AcDbEntity
  8
LAYER_1
100
AcDb2dPolyline
 66
     1
 10
0.0
 20
0.0
 30
0.0
 40
0.105834
 41
0.105834
  0
VERTEX
  5
1624
330
86A
100
AcDbEntity
  8
LAYER_1
100
AcDbVertex
100
AcDb2dVertex
 10
158.529
 20
37.8756
 30
0.0
  0
VERTEX
  5
1625
330
86A
100
AcDbEntity
  8
LAYER_1
100
AcDbVertex
100
AcDb2dVertex
 10
158.529
 20
22.1862
 30
0.0
  0
SEQEND
  5
1626
330
86A
100
AcDbEntity
  8
LAYER_1
  0
POLYLINE
  5
86E
330
1E
100
AcDbEntity
  8
LAYER_1
100
AcDb2dPolyline
 66
     1
 10
0.0
 20
0.0
 30
0.0
 40
0.105834
 41
0.105834
  0
VERTEX
  5
1627
330
86E
100
AcDbEntity
  8
LAYER_1
100
AcDbVertex
100
AcDb2dVertex
 10
38.0288
 20
37.8756
 30
0.0
  0
VERTEX
  5
1628
330
86E
100
AcDbEntity
  8
LAYER_1
100
AcDbVertex
100
AcDb2dVertex
 10
38.0288
 20
22.1862
 30
0.0
  0
SEQEND
  5
1629
330
86E
100
AcDbEntity
  8
LAYER_1
  0
INSERT
  5
872
330
1E
100
AcDbEntity
  8
LAYER_1
100
AcDbBlockReference
  2
AIGNBL01010014
 10
0.0
 20
0.0
 30
0.0
  0
INSERT
  5
873
330
1E
100
AcDbEntity
  8
LAYER_1
100
AcDbBlockReference
  2
AIGNBL01010015
 10
0.0
 20
0.0
 30
0.0
  0
INSERT
  5
874
330
1E
100
AcDbEntity
  8
LAYER_1
100
AcDbBlockReference
  2
AIGNBL01010016
 10
0.0
 20
0.0
 30
0.0
  0
INSERT
  5
875
330
1E
100
AcDbEntity
  8
LAYER_2
100
AcDbBlockReference
  2
AIGNBL02010002
 10
0.0
 20
0.0
 30
0.0
  0
ENDSEC
  0
SECTION
  2
OBJECTS
  0
DICTIONARY
  5
C
330
0
100
AcDbDictionary
  3
ACAD_GROUP
350
D
  3
ACAD_MLINESTYLE
350
16
  3
ACAD_PLOTSETTINGS
350
18
  3
ACAD_LAYOUT
350
19
1001
ACAD
1000
TREAT_AS_HARD
1070
     0
  0
DICTIONARY
  5
F54
330
1E
100
AcDbDictionary
  3
ACAD_LAYOUTSELFREF
350
F55
  0
DICTIONARY
  5
F52
330
1A
100
AcDbDictionary
  3
ACAD_LAYOUTSELFREF
350
F53
  0
DICTIONARY
  5
D
102
{ACAD_REACTORS
330
C
102
}
330
C
100
AcDbDictionary
1001
ACAD
1000
TREAT_AS_HARD
1070
     0
  0
DICTIONARY
  5
16
102
{ACAD_REACTORS
330
C
102
}
330
C
100
AcDbDictionary
  3
STANDARD
350
17
1001
ACAD
1000
TREAT_AS_HARD
1070
     0
  0
DICTIONARY
  5
18
102
{ACAD_REACTORS
330
C
102
}
330
C
100
AcDbDictionary
1001
ACAD
1000
TREAT_AS_HARD
1070
     0
  0
DICTIONARY
  5
19
102
{ACAD_REACTORS
330
C
102
}
330
C
100
AcDbDictionary
1001
ACAD
1000
TREAT_AS_HARD
1070
     0
  0
XRECORD
  5
F55
102
{ACAD_REACTORS
330
F54
102
}
330
F54
100
AcDbXrecord
340
1E
  0
XRECORD
  5
F53
102
{ACAD_REACTORS
330
F52
102
}
330
F52
100
AcDbXrecord
340
1A
  0
MLINESTYLE
  5
17
102
{ACAD_REACTORS
330
16
102
}
330
16
100
AcDbMlineStyle
  2
STANDARD
 70
     0
  3

 62
   256
 51
90.0
 52
90.0
 71
     2
 49
0.5
 62
   256
  6
BYLAYER
 49
-0.5
 62
   256
  6
BYLAYER
  0
ENDSEC
  0
EOF
