  0
SECTION
  2
HEADER
  9
$LUNITS
 70
2
  9
$LUPREC
 70
4
  9
$LTSCALE
 40
1.0
  9
$EXTMIN
 10
5.2917
 20
5.2917
 30
0
  9
$EXTMAX
 10
203.907
 20
291.749
 30
0
  0
ENDSEC
  0
SECTION
  2
TABLES
  0
TABLE
  2
LTYPE
 70
256
  0
ENDTAB
  0
TABLE
  2
LAYER
 70
33
  0
LAYER
  2
LAYER_1
 70
64
 62
7
  6
CONTINUOUS
  0
LAYER
  2
LAYER_2
 70
64
 62
7
  6
CONTINUOUS
  0
LAYER
  2
LAYER_3
 70
64
 62
7
  6
CONTINUOUS
  0
LAYER
  2
LAYER_4
 70
64
 62
7
  6
CONTINUOUS
  0
LAYER
  2
LAYER_5
 70
64
 62
7
  6
CONTINUOUS
  0
LAYER
  2
LAYER_6
 70
64
 62
7
  6
CONTINUOUS
  0
LAYER
  2
LAYER_7
 70
64
 62
7
  6
CONTINUOUS
  0
LAYER
  2
LAYER_8
 70
64
 62
7
  6
CONTINUOUS
  0
LAYER
  2
LAYER_9
 70
64
 62
7
  6
CONTINUOUS
  0
LAYER
  2
LAYER_10
 70
64
 62
7
  6
CONTINUOUS
  0
LAYER
  2
LAYER_11
 70
64
 62
7
  6
CONTINUOUS
  0
LAYER
  2
LAYER_12
 70
64
 62
7
  6
CONTINUOUS
  0
LAYER
  2
LAYER_13
 70
64
 62
7
  6
CONTINUOUS
  0
LAYER
  2
LAYER_14
 70
64
 62
7
  6
CONTINUOUS
  0
LAYER
  2
LAYER_15
 70
64
 62
7
  6
CONTINUOUS
  0
LAYER
  2
LAYER_16
 70
64
 62
7
  6
CONTINUOUS
  0
LAYER
  2
LAYER_17
 70
64
 62
7
  6
CONTINUOUS
  0
LAYER
  2
LAYER_18
 70
64
 62
7
  6
CONTINUOUS
  0
LAYER
  2
LAYER_19
 70
64
 62
7
  6
CONTINUOUS
  0
LAYER
  2
LAYER_20
 70
64
 62
7
  6
CONTINUOUS
  0
LAYER
  2
LAYER_21
 70
64
 62
7
  6
CONTINUOUS
  0
LAYER
  2
LAYER_22
 70
64
 62
7
  6
CONTINUOUS
  0
LAYER
  2
LAYER_23
 70
64
 62
7
  6
CONTINUOUS
  0
LAYER
  2
LAYER_24
 70
64
 62
7
  6
CONTINUOUS
  0
LAYER
  2
LAYER_25
 70
64
 62
7
  6
CONTINUOUS
  0
LAYER
  2
LAYER_26
 70
64
 62
7
  6
CONTINUOUS
  0
LAYER
  2
LAYER_27
 70
64
 62
7
  6
CONTINUOUS
  0
LAYER
  2
LAYER_28
 70
64
 62
7
  6
CONTINUOUS
  0
LAYER
  2
LAYER_29
 70
64
 62
7
  6
CONTINUOUS
  0
LAYER
  2
LAYER_30
 70
64
 62
7
  6
CONTINUOUS
  0
LAYER
  2
LAYER_31
 70
64
 62
7
  6
CONTINUOUS
  0
LAYER
  2
LAYER_32
 70
64
 62
7
  6
CONTINUOUS
  0
LAYER
  2
LAYER_33
 70
64
 62
7
  6
CONTINUOUS
  0
ENDTAB
  0
TABLE
  2
STYLE
 70
6
  0
STYLE
  2
STANDARD
 70
0
 40
0
 50
0
 71
0
 41
0
 42
0
  3
TXT
  4
BIGFONT
  0
ENDTAB
  0
ENDSEC
  0
SECTION
  2
BLOCKS
  0
BLOCK
  8
LAYER_4
  2
AIGNBL04020003
 70
64
 10
0
 20
0
 30
0
  3
AIGNBL04020003
  0
POLYLINE
  8
LAYER_4
 40
0.105834
 41
0.105834
 66
1
 10
0
 20
0
 30
0
 70
1
  0
VERTEX
  8
LAYER_4
 10
370.4
 20
222.482
 42
0.2067
  0
VERTEX
  8
LAYER_4
 10
370.516
 20
222.796
 42
0.2149
  0
VERTEX
  8
LAYER_4
 10
370.367
 20
223.11
 42
0.2183
  0
VERTEX
  8
LAYER_4
 10
369.871
 20
223.259
 42
0.1904
  0
VERTEX
  8
LAYER_4
 10
369.424
 20
223.077
 42
0.2266
  0
VERTEX
  8
LAYER_4
 10
369.309
 20
222.68
  0
VERTEX
  8
LAYER_4
 10
369.028
 20
222.68
 42
0.155
  0
VERTEX
  8
LAYER_4
 10
368.879
 20
223.077
 42
0.2102
  0
VERTEX
  8
LAYER_4
 10
368.482
 20
223.21
 42
0.1563
  0
VERTEX
  8
LAYER_4
 10
368.002
 20
223.061
 42
0.1977
  0
VERTEX
  8
LAYER_4
 10
367.903
 20
222.813
 42
0.1914
  0
VERTEX
  8
LAYER_4
 10
368.002
 20
222.565
 42
0.1956
  0
VERTEX
  8
LAYER_4
 10
368.498
 20
222.383
  0
VERTEX
  8
LAYER_4
 10
368.498
 20
222.019
 42
-0.1718
  0
VERTEX
  8
LAYER_4
 10
367.804
 20
222.3
 42
-0.1996
  0
VERTEX
  8
LAYER_4
 10
367.605
 20
222.813
 42
-0.1847
  0
VERTEX
  8
LAYER_4
 10
367.804
 20
223.342
 42
-0.2035
  0
VERTEX
  8
LAYER_4
 10
368.416
 20
223.573
 42
-0.1989
  0
VERTEX
  8
LAYER_4
 10
368.945
 20
223.392
 42
-0.1005
  0
VERTEX
  8
LAYER_4
 10
369.16
 20
223.077
 42
-0.1106
  0
VERTEX
  8
LAYER_4
 10
369.342
 20
223.408
 42
-0.1935
  0
VERTEX
  8
LAYER_4
 10
369.904
 20
223.64
 42
-0.1954
  0
VERTEX
  8
LAYER_4
 10
370.598
 20
223.375
 42
-0.1961
  0
VERTEX
  8
LAYER_4
 10
370.83
 20
222.796
 42
-0.1742
  0
VERTEX
  8
LAYER_4
 10
370.615
 20
222.201
 42
-0.2154
  0
VERTEX
  8
LAYER_4
 10
369.871
 20
221.953
  0
VERTEX
  8
LAYER_4
 10
369.871
 20
222.333
 42
0.2179
  0
SEQEND
  0
ENDBLK
  0
BLOCK
  8
LAYER_4
  2
AIGNBL04020004
 70
64
 10
0
 20
0
 30
0
  3
AIGNBL04020004
  0
POLYLINE
  8
LAYER_4
 40
0.105834
 41
0.105834
 66
1
 10
0
 20
0
 30
0
 70
1
  0
VERTEX
  8
LAYER_4
 10
370.417
 20
224.615
 42
0.2034
  0
VERTEX
  8
LAYER_4
 10
370.516
 20
224.896
 42
0.2032
  0
VERTEX
  8
LAYER_4
 10
370.384
 20
225.178
 42
0.1361
  0
VERTEX
  8
LAYER_4
 10
370.103
 20
225.331
 42
0.0659
  0
VERTEX
  8
LAYER_4
 10
369.722
 20
225.376
 42
0.1414
  0
VERTEX
  8
LAYER_4
 10
369.127
 20
225.211
 42
0.1926
  0
VERTEX
  8
LAYER_4
 10
369.028
 20
224.979
 42
0.2828
  0
VERTEX
  8
LAYER_4
 10
369.375
 20
224.5
  0
VERTEX
  8
LAYER_4
 10
369.375
 20
224.169
  0
VERTEX
  8
LAYER_4
 10
367.605
 20
224.268
  0
VERTEX
  8
LAYER_4
 10
367.605
 20
225.69
  0
VERTEX
  8
LAYER_4
 10
367.92
 20
225.69
  0
VERTEX
  8
LAYER_4
 10
367.92
 20
224.582
  0
VERTEX
  8
LAYER_4
 10
368.994
 20
224.516
 42
-0.2092
  0
VERTEX
  8
LAYER_4
 10
368.746
 20
225.062
 42
-0.1946
  0
VERTEX
  8
LAYER_4
 10
368.928
 20
225.492
 42
-0.2131
  0
VERTEX
  8
LAYER_4
 10
369.722
 20
225.756
 42
-0.1951
  0
VERTEX
  8
LAYER_4
 10
370.598
 20
225.442
 42
-0.1926
  0
VERTEX
  8
LAYER_4
 10
370.83
 20
224.88
 42
-0.175
  0
VERTEX
  8
LAYER_4
 10
370.632
 20
224.334
 42
-0.2022
  0
VERTEX
  8
LAYER_4
 10
369.92
 20
224.07
  0
VERTEX
  8
LAYER_4
 10
369.92
 20
224.45
 42
0.2017
  0
SEQEND
  0
ENDBLK
  0
BLOCK
  8
LAYER_4
  2
AIGNBL04020005
 70
64
 10
0
 20
0
 30
0
  3
AIGNBL04020005
  0
POLYLINE
  8
LAYER_4
 40
0.105834
 41
0.105834
 66
1
 10
0
 20
0
 30
0
 70
1
  0
VERTEX
  8
LAYER_4
 10
370.83
 20
226.682
  0
VERTEX
  8
LAYER_4
 10
367.92
 20
227.493
  0
VERTEX
  8
LAYER_4
 10
367.92
 20
226.269
  0
VERTEX
  8
LAYER_4
 10
367.605
 20
226.269
  0
VERTEX
  8
LAYER_4
 10
367.605
 20
227.84
  0
VERTEX
  8
LAYER_4
 10
367.953
 20
227.84
  0
VERTEX
  8
LAYER_4
 10
370.83
 20
227.063
  0
SEQEND
  0
ENDBLK
  0
BLOCK
  8
LAYER_4
  2
AIGNBL04020006
 70
64
 10
0
 20
0
 30
0
  3
AIGNBL04020006
  0
POLYLINE
  8
LAYER_4
 40
0.105834
 41
0.105834
 66
1
 10
0
 20
0
 30
0
 70
1
  0
VERTEX
  8
LAYER_4
 10
370.466
 20
228.849
  0
VERTEX
  8
LAYER_4
 10
370.83
 20
228.849
  0
VERTEX
  8
LAYER_4
 10
370.83
 20
228.468
  0
VERTEX
  8
LAYER_4
 10
370.466
 20
228.468
  0
SEQEND
  0
ENDBLK
  0
BLOCK
  8
LAYER_4
  2
AIGNBL04020007
 70
64
 10
0
 20
0
 30
0
  3
AIGNBL04020007
  0
POLYLINE
  8
LAYER_4
 40
0.105834
 41
0.105834
 66
1
 10
0
 20
0
 30
0
 70
1
  0
VERTEX
  8
LAYER_4
 10
370.417
 20
230.965
 42
0.2029
  0
VERTEX
  8
LAYER_4
 10
370.516
 20
231.246
 42
0.2032
  0
VERTEX
  8
LAYER_4
 10
370.384
 20
231.528
 42
0.1361
  0
VERTEX
  8
LAYER_4
 10
370.103
 20
231.681
 42
0.0653
  0
VERTEX
  8
LAYER_4
 10
369.722
 20
231.726
 42
0.1414
  0
VERTEX
  8
LAYER_4
 10
369.127
 20
231.561
 42
0.1927
  0
VERTEX
  8
LAYER_4
 10
369.028
 20
231.329
 42
0.2839
  0
VERTEX
  8
LAYER_4
 10
369.375
 20
230.85
  0
VERTEX
  8
LAYER_4
 10
369.375
 20
230.519
  0
VERTEX
  8
LAYER_4
 10
367.605
 20
230.618
  0
VERTEX
  8
LAYER_4
 10
367.605
 20
232.04
  0
VERTEX
  8
LAYER_4
 10
367.92
 20
232.04
  0
VERTEX
  8
LAYER_4
 10
367.92
 20
230.932
  0
VERTEX
  8
LAYER_4
 10
368.994
 20
230.866
 42
-0.2088
  0
VERTEX
  8
LAYER_4
 10
368.746
 20
231.412
 42
-0.1947
  0
VERTEX
  8
LAYER_4
 10
368.928
 20
231.842
 42
-0.2137
  0
VERTEX
  8
LAYER_4
 10
369.722
 20
232.106
 42
-0.1948
  0
VERTEX
  8
LAYER_4
 10
370.598
 20
231.792
 42
-0.1924
  0
VERTEX
  8
LAYER_4
 10
370.83
 20
231.23
 42
-0.175
  0
VERTEX
  8
LAYER_4
 10
370.632
 20
230.684
 42
-0.2021
  0
VERTEX
  8
LAYER_4
 10
369.92
 20
230.42
  0
VERTEX
  8
LAYER_4
 10
369.92
 20
230.8
 42
0.2009
  0
SEQEND
  0
ENDBLK
  0
BLOCK
  8
LAYER_4
  2
AIGNBL04020009
 70
64
 10
0
 20
0
 30
0
  3
AIGNBL04020009
  0
POLYLINE
  8
LAYER_4
 40
0.105834
 41
0.105834
 66
1
 10
0
 20
0
 30
0
 70
1
  0
VERTEX
  8
LAYER_4
 10
388.567
 20
224.995
 42
0.2023
  0
VERTEX
  8
LAYER_4
 10
388.683
 20
225.309
 42
0.2054
  0
VERTEX
  8
LAYER_4
 10
388.534
 20
225.623
 42
0.2181
  0
VERTEX
  8
LAYER_4
 10
388.038
 20
225.772
 42
0.1901
  0
VERTEX
  8
LAYER_4
 10
387.591
 20
225.59
 42
0.2262
  0
VERTEX
  8
LAYER_4
 10
387.475
 20
225.194
  0
VERTEX
  8
LAYER_4
 10
387.194
 20
225.194
 42
0.1543
  0
VERTEX
  8
LAYER_4
 10
387.045
 20
225.59
 42
0.2097
  0
VERTEX
  8
LAYER_4
 10
386.649
 20
225.723
 42
0.1563
  0
VERTEX
  8
LAYER_4
 10
386.169
 20
225.574
 42
0.1974
  0
VERTEX
  8
LAYER_4
 10
386.07
 20
225.326
 42
0.1933
  0
VERTEX
  8
LAYER_4
 10
386.169
 20
225.078
 42
0.1964
  0
VERTEX
  8
LAYER_4
 10
386.665
 20
224.896
  0
VERTEX
  8
LAYER_4
 10
386.665
 20
224.532
 42
-0.1718
  0
VERTEX
  8
LAYER_4
 10
385.971
 20
224.813
 42
-0.1992
  0
VERTEX
  8
LAYER_4
 10
385.772
 20
225.326
 42
-0.1847
  0
VERTEX
  8
LAYER_4
 10
385.971
 20
225.855
 42
-0.2016
  0
VERTEX
  8
LAYER_4
 10
386.582
 20
226.087
 42
-0.1995
  0
VERTEX
  8
LAYER_4
 10
387.112
 20
225.905
 42
-0.1011
  0
VERTEX
  8
LAYER_4
 10
387.327
 20
225.59
 42
-0.1078
  0
VERTEX
  8
LAYER_4
 10
387.509
 20
225.921
 42
-0.1931
  0
VERTEX
  8
LAYER_4
 10
388.071
 20
226.153
 42
-0.1979
  0
VERTEX
  8
LAYER_4
 10
388.765
 20
225.888
 42
-0.198
  0
VERTEX
  8
LAYER_4
 10
388.997
 20
225.309
 42
-0.1728
  0
VERTEX
  8
LAYER_4
 10
388.782
 20
224.714
 42
-0.2149
  0
VERTEX
  8
LAYER_4
 10
388.038
 20
224.466
  0
VERTEX
  8
LAYER_4
 10
388.038
 20
224.846
 42
0.2171
  0
SEQEND
  0
ENDBLK
  0
BLOCK
  8
LAYER_4
  2
AIGNBL0402000A
 70
64
 10
0
 20
0
 30
0
  3
AIGNBL0402000A
  0
POLYLINE
  8
LAYER_4
 40
0.105834
 41
0.105834
 66
1
 10
0
 20
0
 30
0
 70
1
  0
VERTEX
  8
LAYER_4
 10
386.153
 20
227.757
 42
0.1963
  0
VERTEX
  8
LAYER_4
 10
386.086
 20
227.591
 42
0.1963
  0
VERTEX
  8
LAYER_4
 10
386.186
 20
227.36
 42
0.1164
  0
VERTEX
  8
LAYER_4
 10
386.528
 20
227.158
 42
0.0683
  0
VERTEX
  8
LAYER_4
 10
387.294
 20
227.013
 42
-0.2124
  0
VERTEX
  8
LAYER_4
 10
386.913
 20
227.575
 42
-0.1998
  0
VERTEX
  8
LAYER_4
 10
387.112
 20
228.021
 42
-0.215
  0
VERTEX
  8
LAYER_4
 10
387.922
 20
228.286
 42
-0.1905
  0
VERTEX
  8
LAYER_4
 10
388.798
 20
228.005
 42
-0.1991
  0
VERTEX
  8
LAYER_4
 10
388.997
 20
227.492
 42
-0.2021
  0
VERTEX
  8
LAYER_4
 10
388.765
 20
226.979
 42
-0.1134
  0
VERTEX
  8
LAYER_4
 10
388.432
 20
226.775
 42
-0.0957
  0
VERTEX
  8
LAYER_4
 10
387.426
 20
226.632
 42
-0.1578
  0
VERTEX
  8
LAYER_4
 10
385.971
 20
227.112
 42
-0.1953
  0
VERTEX
  8
LAYER_4
 10
385.772
 20
227.608
 42
-0.1799
  0
VERTEX
  8
LAYER_4
 10
385.921
 20
228.005
 42
-0.1887
  0
VERTEX
  8
LAYER_4
 10
386.516
 20
228.253
  0
VERTEX
  8
LAYER_4
 10
386.516
 20
227.872
 42
0.1622
  0
SEQEND
  0
POLYLINE
  8
LAYER_4
 40
0.105834
 41
0.105834
 66
1
 10
0
 20
0
 30
0
 70
1
  0
VERTEX
  8
LAYER_4
 10
387.327
 20
227.244
 42
0.2023
  0
VERTEX
  8
LAYER_4
 10
387.856
 20
227.046
 42
0.193
  0
VERTEX
  8
LAYER_4
 10
388.6
 20
227.277
 42
0.1922
  0
VERTEX
  8
LAYER_4
 10
388.699
 20
227.509
 42
0.2013
  0
VERTEX
  8
LAYER_4
 10
388.583
 20
227.757
 42
0.1573
  0
VERTEX
  8
LAYER_4
 10
388.317
 20
227.874
 42
0.0435
  0
VERTEX
  8
LAYER_4
 10
387.922
 20
227.906
 42
0.1376
  0
VERTEX
  8
LAYER_4
 10
387.31
 20
227.74
 42
0.1943
  0
VERTEX
  8
LAYER_4
 10
387.211
 20
227.509
 42
0.2004
  0
SEQEND
  0
ENDBLK
  0
BLOCK
  8
LAYER_4
  2
AIGNBL0402000B
 70
64
 10
0
 20
0
 30
0
  3
AIGNBL0402000B
  0
POLYLINE
  8
LAYER_4
 40
0.105834
 41
0.105834
 66
1
 10
0
 20
0
 30
0
 70
1
  0
VERTEX
  8
LAYER_4
 10
388.997
 20
229.427
  0
VERTEX
  8
LAYER_4
 10
387.707
 20
229.427
  0
VERTEX
  8
LAYER_4
 10
386.434
 20
229.427
  0
VERTEX
  8
LAYER_4
 10
386.434
 20
228.931
  0
VERTEX
  8
LAYER_4
 10
386.235
 20
228.931
 42
0.1037
  0
VERTEX
  8
LAYER_4
 10
386.156
 20
229.328
 42
0.2247
  0
VERTEX
  8
LAYER_4
 10
385.772
 20
229.609
  0
VERTEX
  8
LAYER_4
 10
385.772
 20
229.807
  0
VERTEX
  8
LAYER_4
 10
388.997
 20
229.807
  0
SEQEND
  0
ENDBLK
  0
BLOCK
  8
LAYER_4
  2
AIGNBL0402000D
 70
64
 10
0
 20
0
 30
0
  3
AIGNBL0402000D
  0
POLYLINE
  8
LAYER_4
 40
0.105834
 41
0.105834
 66
1
 10
0
 20
0
 30
0
 70
1
  0
VERTEX
  8
LAYER_4
 10
265.92
 20
41.0761
  0
VERTEX
  8
LAYER_4
 10
265.92
 20
41.4565
  0
VERTEX
  8
LAYER_4
 10
265.92
 20
41.8368
  0
VERTEX
  8
LAYER_4
 10
264.812
 20
41.8368
  0
VERTEX
  8
LAYER_4
 10
264.812
 20
42.151
  0
VERTEX
  8
LAYER_4
 10
265.92
 20
44.3008
  0
VERTEX
  8
LAYER_4
 10
266.301
 20
44.3008
  0
VERTEX
  8
LAYER_4
 10
266.301
 20
42.151
  0
VERTEX
  8
LAYER_4
 10
266.648
 20
42.151
  0
VERTEX
  8
LAYER_4
 10
266.648
 20
41.8368
  0
VERTEX
  8
LAYER_4
 10
266.301
 20
41.8368
  0
VERTEX
  8
LAYER_4
 10
266.301
 20
41.0761
  0
SEQEND
  0
POLYLINE
  8
LAYER_4
 40
0.105834
 41
0.105834
 66
1
 10
0
 20
0
 30
0
 70
1
  0
VERTEX
  8
LAYER_4
 10
265.92
 20
42.151
  0
VERTEX
  8
LAYER_4
 10
265.92
 20
43.6062
  0
VERTEX
  8
LAYER_4
 10
265.176
 20
42.151
  0
SEQEND
  0
ENDBLK
  0
BLOCK
  8
LAYER_4
  2
AIGNBL0402000E
 70
64
 10
0
 20
0
 30
0
  3
AIGNBL0402000E
  0
POLYLINE
  8
LAYER_4
 40
0.105834
 41
0.105834
 66
1
 10
0
 20
0
 30
0
 70
1
  0
VERTEX
  8
LAYER_4
 10
268.682
 20
41.3903
  0
VERTEX
  8
LAYER_4
 10
268.682
 20
41.0761
  0
VERTEX
  8
LAYER_4
 10
266.995
 20
41.0761
  0
VERTEX
  8
LAYER_4
 10
266.995
 20
41.3407
 42
-0.0581
  0
VERTEX
  8
LAYER_4
 10
267.938
 20
42.6967
 42
0.1606
  0
VERTEX
  8
LAYER_4
 10
268.252
 20
43.4574
 42
0.1702
  0
VERTEX
  8
LAYER_4
 10
268.103
 20
43.8873
 42
0.2006
  0
VERTEX
  8
LAYER_4
 10
267.839
 20
43.9866
 42
0.2063
  0
VERTEX
  8
LAYER_4
 10
267.574
 20
43.8543
 42
0.1567
  0
VERTEX
  8
LAYER_4
 10
267.455
 20
43.5924
 42
0.0477
  0
VERTEX
  8
LAYER_4
 10
267.425
 20
43.2424
  0
VERTEX
  8
LAYER_4
 10
267.061
 20
43.2424
 42
-0.146
  0
VERTEX
  8
LAYER_4
 10
267.342
 20
44.1023
 42
-0.2023
  0
VERTEX
  8
LAYER_4
 10
267.872
 20
44.3008
 42
-0.1964
  0
VERTEX
  8
LAYER_4
 10
268.401
 20
44.0858
 42
-0.207
  0
VERTEX
  8
LAYER_4
 10
268.632
 20
43.4409
 42
-0.0981
  0
VERTEX
  8
LAYER_4
 10
268.547
 20
43.015
 42
-0.0874
  0
VERTEX
  8
LAYER_4
 10
268.186
 20
42.4487
 42
0.0389
  0
VERTEX
  8
LAYER_4
 10
267.392
 20
41.3903
  0
SEQEND
  0
ENDBLK
  0
BLOCK
  8
LAYER_4
  2
AIGNBL0402000F
 70
64
 10
0
 20
0
 30
0
  3
AIGNBL0402000F
  0
POLYLINE
  8
LAYER_4
 40
0.105834
 41
0.105834
 66
1
 10
0
 20
0
 30
0
 70
1
  0
VERTEX
  8
LAYER_4
 10
269.641
 20
41.4895
 42
0.198
  0
VERTEX
  8
LAYER_4
 10
269.922
 20
41.3903
 42
0.1838
  0
VERTEX
  8
LAYER_4
 10
270.203
 20
41.5226
 42
0.1393
  0
VERTEX
  8
LAYER_4
 10
270.36
 20
41.8134
 42
0.0609
  0
VERTEX
  8
LAYER_4
 10
270.402
 20
42.1841
 42
0.1404
  0
VERTEX
  8
LAYER_4
 10
270.236
 20
42.7794
 42
0.1913
  0
VERTEX
  8
LAYER_4
 10
270.005
 20
42.8786
 42
0.2833
  0
VERTEX
  8
LAYER_4
 10
269.525
 20
42.5313
  0
VERTEX
  8
LAYER_4
 10
269.195
 20
42.5313
  0
VERTEX
  8
LAYER_4
 10
269.294
 20
44.3008
  0
VERTEX
  8
LAYER_4
 10
270.716
 20
44.3008
  0
VERTEX
  8
LAYER_4
 10
270.716
 20
43.9866
  0
VERTEX
  8
LAYER_4
 10
269.608
 20
43.9866
  0
VERTEX
  8
LAYER_4
 10
269.542
 20
42.9117
 42
-0.2086
  0
VERTEX
  8
LAYER_4
 10
270.088
 20
43.1597
 42
-0.1944
  0
VERTEX
  8
LAYER_4
 10
270.517
 20
42.9778
 42
-0.214
  0
VERTEX
  8
LAYER_4
 10
270.782
 20
42.1841
 42
-0.1711
  0
VERTEX
  8
LAYER_4
 10
270.468
 20
41.3076
 42
-0.1938
  0
VERTEX
  8
LAYER_4
 10
269.906
 20
41.0761
 42
-0.1753
  0
VERTEX
  8
LAYER_4
 10
269.36
 20
41.2746
 42
-0.2019
  0
VERTEX
  8
LAYER_4
 10
269.095
 20
41.9856
  0
VERTEX
  8
LAYER_4
 10
269.476
 20
41.9856
 42
0.1657
  0
SEQEND
  0
ENDBLK
  0
BLOCK
  8
LAYER_4
  2
AIGNBL04020011
 70
64
 10
0
 20
0
 30
0
  3
AIGNBL04020011
  0
POLYLINE
  8
LAYER_4
 40
0.105834
 41
0.105834
 66
1
 10
0
 20
0
 30
0
 70
1
  0
VERTEX
  8
LAYER_4
 10
389.671
 20
68.2498
  0
VERTEX
  8
LAYER_4
 10
389.291
 20
68.2498
  0
VERTEX
  8
LAYER_4
 10
388.91
 20
68.2498
  0
VERTEX
  8
LAYER_4
 10
388.91
 20
67.1419
  0
VERTEX
  8
LAYER_4
 10
388.596
 20
67.1419
  0
VERTEX
  8
LAYER_4
 10
386.446
 20
68.2498
  0
VERTEX
  8
LAYER_4
 10
386.446
 20
68.6302
  0
VERTEX
  8
LAYER_4
 10
388.596
 20
68.6302
  0
VERTEX
  8
LAYER_4
 10
388.596
 20
68.9774
  0
VERTEX
  8
LAYER_4
 10
388.91
 20
68.9774
  0
VERTEX
  8
LAYER_4
 10
388.91
 20
68.6302
  0
VERTEX
  8
LAYER_4
 10
389.671
 20
68.6302
  0
SEQEND
  0
POLYLINE
  8
LAYER_4
 40
0.105834
 41
0.105834
 66
1
 10
0
 20
0
 30
0
 70
1
  0
VERTEX
  8
LAYER_4
 10
388.596
 20
68.2498
  0
VERTEX
  8
LAYER_4
 10
387.141
 20
68.2498
  0
VERTEX
  8
LAYER_4
 10
388.596
 20
67.5057
  0
SEQEND
  0
ENDBLK
  0
BLOCK
  8
LAYER_4
  2
AIGNBL04020012
 70
64
 10
0
 20
0
 30
0
  3
AIGNBL04020012
  0
POLYLINE
  8
LAYER_4
 40
0.105834
 41
0.105834
 66
1
 10
0
 20
0
 30
0
 70
1
  0
VERTEX
  8
LAYER_4
 10
388.017
 20
70.9949
 42
-0.1797
  0
VERTEX
  8
LAYER_4
 10
389.473
 20
70.5484
 42
-0.197
  0
VERTEX
  8
LAYER_4
 10
389.671
 20
70.0523
 42
-0.1799
  0
VERTEX
  8
LAYER_4
 10
389.522
 20
69.6554
 42
-0.1712
  0
VERTEX
  8
LAYER_4
 10
388.927
 20
69.3743
  0
VERTEX
  8
LAYER_4
 10
388.927
 20
69.7547
 42
0.1962
  0
VERTEX
  8
LAYER_4
 10
389.291
 20
69.9035
 42
0.1994
  0
VERTEX
  8
LAYER_4
 10
389.357
 20
70.0854
 42
0.2031
  0
VERTEX
  8
LAYER_4
 10
389.258
 20
70.3004
 42
0.1228
  0
VERTEX
  8
LAYER_4
 10
388.951
 20
70.4775
 42
0.0633
  0
VERTEX
  8
LAYER_4
 10
388.216
 20
70.6146
 42
-0.2591
  0
VERTEX
  8
LAYER_4
 10
388.596
 20
70.0523
 42
-0.1995
  0
VERTEX
  8
LAYER_4
 10
388.398
 20
69.6058
 42
-0.1185
  0
VERTEX
  8
LAYER_4
 10
388.093
 20
69.4226
 42
-0.083
  0
VERTEX
  8
LAYER_4
 10
387.521
 20
69.3413
 42
-0.1662
  0
VERTEX
  8
LAYER_4
 10
386.661
 20
69.6389
 42
-0.1862
  0
VERTEX
  8
LAYER_4
 10
386.446
 20
70.135
 42
-0.191
  0
VERTEX
  8
LAYER_4
 10
386.645
 20
70.6146
 42
-0.1065
  0
VERTEX
  8
LAYER_4
 10
387.007
 20
70.8426
 42
-0.0997
  0
SEQEND
  0
POLYLINE
  8
LAYER_4
 40
0.105834
 41
0.105834
 66
1
 10
0
 20
0
 30
0
 70
1
  0
VERTEX
  8
LAYER_4
 10
386.744
 20
70.1185
 42
0.2046
  0
VERTEX
  8
LAYER_4
 10
386.86
 20
69.9035
 42
0.1498
  0
VERTEX
  8
LAYER_4
 10
387.17
 20
69.754
  0
VERTEX
  8
LAYER_4
 10
387.521
 20
69.7216
 42
0.1963
  0
VERTEX
  8
LAYER_4
 10
388.199
 20
69.887
 42
0.1921
  0
VERTEX
  8
LAYER_4
 10
388.298
 20
70.1185
 42
0.1968
  0
VERTEX
  8
LAYER_4
 10
388.183
 20
70.3831
 42
0.214
  0
VERTEX
  8
LAYER_4
 10
387.587
 20
70.5815
 42
0.1441
  0
VERTEX
  8
LAYER_4
 10
386.843
 20
70.3665
 42
0.1964
  0
SEQEND
  0
ENDBLK
  0
BLOCK
  8
LAYER_4
  2
AIGNBL04020014
 70
64
 10
0
 20
0
 30
0
  3
AIGNBL04020014
  0
POLYLINE
  8
LAYER_4
 40
0.105834
 41
0.105834
 66
1
 10
0
 20
0
 30
0
 70
1
  0
VERTEX
  8
LAYER_4
 10
374.321
 20
68.2502
  0
VERTEX
  8
LAYER_4
 10
373.941
 20
68.2502
  0
VERTEX
  8
LAYER_4
 10
373.56
 20
68.2502
  0
VERTEX
  8
LAYER_4
 10
373.56
 20
67.1422
  0
VERTEX
  8
LAYER_4
 10
373.246
 20
67.1422
  0
VERTEX
  8
LAYER_4
 10
371.096
 20
68.2502
  0
VERTEX
  8
LAYER_4
 10
371.096
 20
68.6305
  0
VERTEX
  8
LAYER_4
 10
373.246
 20
68.6305
  0
VERTEX
  8
LAYER_4
 10
373.246
 20
68.9778
  0
VERTEX
  8
LAYER_4
 10
373.56
 20
68.9778
  0
VERTEX
  8
LAYER_4
 10
373.56
 20
68.6305
  0
VERTEX
  8
LAYER_4
 10
374.321
 20
68.6305
  0
SEQEND
  0
POLYLINE
  8
LAYER_4
 40
0.105834
 41
0.105834
 66
1
 10
0
 20
0
 30
0
 70
1
  0
VERTEX
  8
LAYER_4
 10
373.246
 20
68.2502
  0
VERTEX
  8
LAYER_4
 10
371.791
 20
68.2502
  0
VERTEX
  8
LAYER_4
 10
373.246
 20
67.506
  0
SEQEND
  0
ENDBLK
  0
BLOCK
  8
LAYER_4
  2
AIGNBL04020015
 70
64
 10
0
 20
0
 30
0
  3
AIGNBL04020015
  0
POLYLINE
  8
LAYER_4
 40
0.105834
 41
0.105834
 66
1
 10
0
 20
0
 30
0
 70
1
  0
VERTEX
  8
LAYER_4
 10
374.321
 20
70.3669
  0
VERTEX
  8
LAYER_4
 10
373.941
 20
70.3669
  0
VERTEX
  8
LAYER_4
 10
373.56
 20
70.3669
  0
VERTEX
  8
LAYER_4
 10
373.56
 20
69.2589
  0
VERTEX
  8
LAYER_4
 10
373.246
 20
69.2589
  0
VERTEX
  8
LAYER_4
 10
371.096
 20
70.3669
  0
VERTEX
  8
LAYER_4
 10
371.096
 20
70.7472
  0
VERTEX
  8
LAYER_4
 10
373.246
 20
70.7472
  0
VERTEX
  8
LAYER_4
 10
373.246
 20
71.0945
  0
VERTEX
  8
LAYER_4
 10
373.56
 20
71.0945
  0
VERTEX
  8
LAYER_4
 10
373.56
 20
70.7472
  0
VERTEX
  8
LAYER_4
 10
374.321
 20
70.7472
  0
SEQEND
  0
POLYLINE
  8
LAYER_4
 40
0.105834
 41
0.105834
 66
1
 10
0
 20
0
 30
0
 70
1
  0
VERTEX
  8
LAYER_4
 10
373.246
 20
70.3669
  0
VERTEX
  8
LAYER_4
 10
371.791
 20
70.3669
  0
VERTEX
  8
LAYER_4
 10
373.246
 20
69.6227
  0
SEQEND
  0
ENDBLK
  0
BLOCK
  8
LAYER_4
  2
AIGNBL0402001C
 70
64
 10
0
 20
0
 30
0
  3
AIGNBL0402001C
  0
POLYLINE
  8
LAYER_4
 40
0.105834
 41
0.105834
 66
1
 10
0
 20
0
 30
0
 70
1
  0
VERTEX
  8
LAYER_4
 10
51.3755
 20
404.087
 42
0.1978
  0
VERTEX
  8
LAYER_4
 10
52.4338
 20
404.55
 42
0.1006
  0
VERTEX
  8
LAYER_4
 10
52.6736
 20
404.918
 42
0.0712
  0
VERTEX
  8
LAYER_4
 10
52.8765
 20
405.724
 42
0.0306
  0
VERTEX
  8
LAYER_4
 10
52.9299
 20
406.667
 42
0.0349
  0
VERTEX
  8
LAYER_4
 10
52.8555
 20
407.749
 42
0.1371
  0
VERTEX
  8
LAYER_4
 10
52.4007
 20
408.849
 42
0.1891
  0
VERTEX
  8
LAYER_4
 10
51.3755
 20
409.28
  0
VERTEX
  8
LAYER_4
 10
51.0117
 20
409.28
  0
VERTEX
  8
LAYER_4
 10
51.0117
 20
404.087
  0
SEQEND
  0
POLYLINE
  8
LAYER_4
 40
0.105834
 41
0.105834
 66
1
 10
0
 20
0
 30
0
 70
1
  0
VERTEX
  8
LAYER_4
 10
53.0713
 20
409.347
 42
-0.0737
  0
VERTEX
  8
LAYER_4
 10
53.4041
 20
408.896
 42
-0.0697
  0
VERTEX
  8
LAYER_4
 10
53.6966
 20
408.09
 42
-0.0566
  0
VERTEX
  8
LAYER_4
 10
53.832
 20
406.701
 42
-0.0345
  0
VERTEX
  8
LAYER_4
 10
53.7573
 20
405.609
 42
-0.1401
  0
VERTEX
  8
LAYER_4
 10
53.1375
 20
404.154
 42
-0.1979
  0
VERTEX
  8
LAYER_4
 10
51.4508
 20
403.493
  0
VERTEX
  8
LAYER_4
 10
50.3263
 20
403.493
  0
VERTEX
  8
LAYER_4
 10
50.3263
 20
409.942
  0
VERTEX
  8
LAYER_4
 10
51.4508
 20
409.942
 42
-0.1885
  0
SEQEND
  0
POLYLINE
  8
LAYER_4
 40
0.105834
 41
0.105834
 66
1
 10
0
 20
0
 30
0
 70
1
  0
VERTEX
  8
LAYER_4
 10
51.4508
 20
404.121
 42
0.1978
  0
VERTEX
  8
LAYER_4
 10
52.5091
 20
404.584
 42
0.1009
  0
VERTEX
  8
LAYER_4
 10
52.7489
 20
404.952
 42
0.0713
  0
VERTEX
  8
LAYER_4
 10
52.9518
 20
405.757
 42
0.0306
  0
VERTEX
  8
LAYER_4
 10
53.0052
 20
406.701
 42
0.0349
  0
VERTEX
  8
LAYER_4
 10
52.9308
 20
407.783
 42
0.1365
  0
VERTEX
  8
LAYER_4
 10
52.476
 20
408.884
 42
0.1888
  0
VERTEX
  8
LAYER_4
 10
51.4508
 20
409.314
  0
VERTEX
  8
LAYER_4
 10
51.087
 20
409.314
  0
VERTEX
  8
LAYER_4
 10
51.087
 20
404.121
  0
SEQEND
  0
ENDBLK
  0
BLOCK
  8
LAYER_4
  2
AIGNBL0402001D
 70
64
 10
0
 20
0
 30
0
  3
AIGNBL0402001D
  0
POLYLINE
  8
LAYER_4
 40
0.105834
 41
0.105834
 66
1
 10
0
 20
0
 30
0
 70
1
  0
VERTEX
  8
LAYER_4
 10
56.6763
 20
406.866
  0
VERTEX
  8
LAYER_4
 10
58.1646
 20
403.493
  0
VERTEX
  8
LAYER_4
 10
57.4039
 20
403.493
  0
VERTEX
  8
LAYER_4
 10
56.2464
 20
406.138
  0
VERTEX
  8
LAYER_4
 10
55.0888
 20
403.493
  0
VERTEX
  8
LAYER_4
 10
54.3281
 20
403.493
  0
VERTEX
  8
LAYER_4
 10
55.8164
 20
406.866
  0
VERTEX
  8
LAYER_4
 10
54.4935
 20
409.942
  0
VERTEX
  8
LAYER_4
 10
55.2542
 20
409.942
  0
VERTEX
  8
LAYER_4
 10
56.2464
 20
407.561
  0
VERTEX
  8
LAYER_4
 10
57.2386
 20
409.942
  0
VERTEX
  8
LAYER_4
 10
57.9992
 20
409.942
  0
SEQEND
  0
ENDBLK
  0
BLOCK
  8
LAYER_4
  2
AIGNBL0402001E
 70
64
 10
0
 20
0
 30
0
  3
AIGNBL0402001E
  0
POLYLINE
  8
LAYER_4
 40
0.105834
 41
0.105834
 66
1
 10
0
 20
0
 30
0
 70
1
  0
VERTEX
  8
LAYER_4
 10
62.3649
 20
406.733
  0
VERTEX
  8
LAYER_4
 10
62.3649
 20
406.205
  0
VERTEX
  8
LAYER_4
 10
58.5946
 20
406.205
  0
VERTEX
  8
LAYER_4
 10
58.5946
 20
406.733
  0
SEQEND
  0
ENDBLK
  0
BLOCK
  8
LAYER_4
  2
AIGNBL0402001F
 70
64
 10
0
 20
0
 30
0
  3
AIGNBL0402001F
  0
POLYLINE
  8
LAYER_4
 40
0.105834
 41
0.105834
 66
1
 10
0
 20
0
 30
0
 70
1
  0
VERTEX
  8
LAYER_4
 10
63.1586
 20
409.942
  0
VERTEX
  8
LAYER_4
 10
66.3998
 20
409.942
  0
VERTEX
  8
LAYER_4
 10
66.3998
 20
409.314
  0
VERTEX
  8
LAYER_4
 10
63.7209
 20
404.121
  0
VERTEX
  8
LAYER_4
 10
66.499
 20
404.121
  0
VERTEX
  8
LAYER_4
 10
66.499
 20
403.493
  0
VERTEX
  8
LAYER_4
 10
62.9602
 20
403.493
  0
VERTEX
  8
LAYER_4
 10
62.9602
 20
404.121
  0
VERTEX
  8
LAYER_4
 10
65.6391
 20
409.314
  0
VERTEX
  8
LAYER_4
 10
63.1586
 20
409.314
  0
SEQEND
  0
ENDBLK
  0
BLOCK
  8
LAYER_4
  2
AIGNBL04020020
 70
64
 10
0
 20
0
 30
0
  3
AIGNBL04020020
  0
POLYLINE
  8
LAYER_4
 40
0.105834
 41
0.105834
 66
1
 10
0
 20
0
 30
0
 70
1
  0
VERTEX
  8
LAYER_4
 10
70.0048
 20
409.347
 42
-0.0737
  0
VERTEX
  8
LAYER_4
 10
70.3376
 20
408.896
 42
-0.0697
  0
VERTEX
  8
LAYER_4
 10
70.6301
 20
408.09
 42
-0.0566
  0
VERTEX
  8
LAYER_4
 10
70.7655
 20
406.701
 42
-0.0345
  0
VERTEX
  8
LAYER_4
 10
70.6907
 20
405.609
 42
-0.1401
  0
VERTEX
  8
LAYER_4
 10
70.0709
 20
404.154
 42
-0.2006
  0
VERTEX
  8
LAYER_4
 10
68.3842
 20
403.493
  0
VERTEX
  8
LAYER_4
 10
67.2597
 20
403.493
  0
VERTEX
  8
LAYER_4
 10
67.2597
 20
409.942
  0
VERTEX
  8
LAYER_4
 10
68.3842
 20
409.942
 42
-0.1885
  0
SEQEND
  0
POLYLINE
  8
LAYER_4
 40
0.105834
 41
0.105834
 66
1
 10
0
 20
0
 30
0
 70
1
  0
VERTEX
  8
LAYER_4
 10
68.3842
 20
404.121
 42
0.1976
  0
VERTEX
  8
LAYER_4
 10
69.4425
 20
404.584
 42
0.1009
  0
VERTEX
  8
LAYER_4
 10
69.6823
 20
404.952
 42
0.0711
  0
VERTEX
  8
LAYER_4
 10
69.8852
 20
405.757
 42
0.0306
  0
VERTEX
  8
LAYER_4
 10
69.9386
 20
406.701
 42
0.0346
  0
VERTEX
  8
LAYER_4
 10
69.8642
 20
407.783
 42
0.1363
  0
VERTEX
  8
LAYER_4
 10
69.4095
 20
408.884
 42
0.189
  0
VERTEX
  8
LAYER_4
 10
68.3842
 20
409.314
  0
VERTEX
  8
LAYER_4
 10
68.0204
 20
409.314
  0
VERTEX
  8
LAYER_4
 10
68.0204
 20
404.121
  0
SEQEND
  0
ENDBLK
  0
BLOCK
  8
LAYER_4
  2
AIGNBL04020021
 70
64
 10
0
 20
0
 30
0
  3
AIGNBL04020021
  0
POLYLINE
  8
LAYER_4
 40
0.105834
 41
0.105834
 66
1
 10
0
 20
0
 30
0
 70
1
  0
VERTEX
  8
LAYER_4
 10
72.5514
 20
404.319
 42
0.2071
  0
VERTEX
  8
LAYER_4
 10
73.1137
 20
404.121
 42
0.1965
  0
VERTEX
  8
LAYER_4
 10
73.6759
 20
404.386
 42
0.1014
  0
VERTEX
  8
LAYER_4
 10
73.914
 20
404.749
 42
0.1041
  0
VERTEX
  8
LAYER_4
 10
74.0728
 20
405.709
 42
0.0552
  0
VERTEX
  8
LAYER_4
 10
73.9977
 20
406.408
 42
0.1319
  0
VERTEX
  8
LAYER_4
 10
73.742
 20
406.898
 42
0.1885
  0
VERTEX
  8
LAYER_4
 10
73.279
 20
407.098
 42
0.3029
  0
VERTEX
  8
LAYER_4
 10
72.3199
 20
406.403
  0
VERTEX
  8
LAYER_4
 10
71.6584
 20
406.403
  0
VERTEX
  8
LAYER_4
 10
71.8569
 20
409.942
  0
VERTEX
  8
LAYER_4
 10
74.7012
 20
409.942
  0
VERTEX
  8
LAYER_4
 10
74.7012
 20
409.314
  0
VERTEX
  8
LAYER_4
 10
72.4853
 20
409.314
  0
VERTEX
  8
LAYER_4
 10
72.353
 20
407.164
 42
-0.2138
  0
VERTEX
  8
LAYER_4
 10
73.4444
 20
407.66
 42
-0.1965
  0
VERTEX
  8
LAYER_4
 10
74.3043
 20
407.296
 42
-0.2212
  0
VERTEX
  8
LAYER_4
 10
74.8335
 20
405.709
 42
-0.1708
  0
VERTEX
  8
LAYER_4
 10
74.2051
 20
403.955
 42
-0.1936
  0
VERTEX
  8
LAYER_4
 10
73.0806
 20
403.493
 42
-0.1724
  0
VERTEX
  8
LAYER_4
 10
71.9892
 20
403.89
 42
-0.2065
  0
VERTEX
  8
LAYER_4
 10
71.46
 20
405.311
  0
VERTEX
  8
LAYER_4
 10
72.2207
 20
405.311
 42
0.1632
  0
SEQEND
  0
ENDBLK
  0
BLOCK
  8
LAYER_4
  2
AIGNBL04020022
 70
64
 10
0
 20
0
 30
0
  3
AIGNBL04020022
  0
POLYLINE
  8
LAYER_4
 40
0.105834
 41
0.105834
 66
1
 10
0
 20
0
 30
0
 70
1
  0
VERTEX
  8
LAYER_4
 10
76.1564
 20
403.558
 42
0.139
  0
VERTEX
  8
LAYER_4
 10
78.0746
 20
405.742
 42
0.0332
  0
VERTEX
  8
LAYER_4
 10
76.9832
 20
406.602
 42
-0.0795
  0
VERTEX
  8
LAYER_4
 10
76.3548
 20
405.576
  0
VERTEX
  8
LAYER_4
 10
75.7595
 20
406.006
 42
0.0942
  0
VERTEX
  8
LAYER_4
 10
76.7874
 20
407.943
 42
0.0454
  0
VERTEX
  8
LAYER_4
 10
77.1816
 20
409.644
  0
VERTEX
  8
LAYER_4
 10
77.8762
 20
409.445
 42
-0.2784
  0
VERTEX
  8
LAYER_4
 10
77.9227
 20
409.307
 42
-0.2773
  0
VERTEX
  8
LAYER_4
 10
77.81
 20
409.214
  0
VERTEX
  8
LAYER_4
 10
77.6777
 20
408.586
  0
VERTEX
  8
LAYER_4
 10
78.9345
 20
408.586
  0
VERTEX
  8
LAYER_4
 10
79.0668
 20
408.718
  0
VERTEX
  8
LAYER_4
 10
79.5298
 20
408.321
 42
-0.2468
  0
VERTEX
  8
LAYER_4
 10
79.5548
 20
408.202
 42
-0.247
  0
VERTEX
  8
LAYER_4
 10
79.4637
 20
408.123
 42
-0.0696
  0
VERTEX
  8
LAYER_4
 10
78.7096
 20
405.495
 42
-0.1279
  0
VERTEX
  8
LAYER_4
 10
76.5863
 20
402.963
  0
SEQEND
  0
POLYLINE
  8
LAYER_4
 40
0.105834
 41
0.105834
 66
1
 10
0
 20
0
 30
0
 70
1
  0
VERTEX
  8
LAYER_4
 10
78.7692
 20
407.958
  0
VERTEX
  8
LAYER_4
 10
77.5124
 20
407.958
  0
VERTEX
  8
LAYER_4
 10
77.2478
 20
407.23
 42
-0.0451
  0
VERTEX
  8
LAYER_4
 10
78.3392
 20
406.403
 42
0.0516
  0
SEQEND
  0
POLYLINE
  8
LAYER_4
 40
0.105834
 41
0.105834
 66
1
 10
0
 20
0
 30
0
 70
1
  0
VERTEX
  8
LAYER_4
 10
82.8041
 20
404.948
 42
-0.0258
  0
VERTEX
  8
LAYER_4
 10
81.3819
 20
406.039
  0
VERTEX
  8
LAYER_4
 10
81.3819
 20
402.83
  0
VERTEX
  8
LAYER_4
 10
80.7205
 20
402.83
  0
VERTEX
  8
LAYER_4
 10
80.7205
 20
406.701
 42
-0.0359
  0
VERTEX
  8
LAYER_4
 10
79.596
 20
408.355
  0
VERTEX
  8
LAYER_4
 10
80.1252
 20
408.751
 42
0.0297
  0
VERTEX
  8
LAYER_4
 10
80.7205
 20
407.825
  0
VERTEX
  8
LAYER_4
 10
80.7205
 20
410.107
  0
VERTEX
  8
LAYER_4
 10
81.3489
 20
410.107
 42
-0.3359
  0
VERTEX
  8
LAYER_4
 10
81.4551
 20
410.023
 42
-0.3321
  0
VERTEX
  8
LAYER_4
 10
81.3819
 20
409.908
  0
VERTEX
  8
LAYER_4
 10
81.3819
 20
407.065
 42
0.101
  0
VERTEX
  8
LAYER_4
 10
81.6477
 20
406.743
 42
0.0579
  0
VERTEX
  8
LAYER_4
 10
83.3002
 20
405.609
  0
SEQEND
  0
ENDBLK
  0
BLOCK
  8
LAYER_4
  2
AIGNBL04020023
 70
64
 10
0
 20
0
 30
0
  3
AIGNBL04020023
  0
POLYLINE
  8
LAYER_4
 40
0.105834
 41
0.105834
 66
1
 10
0
 20
0
 30
0
 70
1
  0
VERTEX
  8
LAYER_4
 10
85.3507
 20
406.602
  0
VERTEX
  8
LAYER_4
 10
84.3916
 20
406.602
  0
VERTEX
  8
LAYER_4
 10
84.3916
 20
407.23
  0
VERTEX
  8
LAYER_4
 10
85.3507
 20
407.23
  0
VERTEX
  8
LAYER_4
 10
85.3507
 20
409.049
  0
VERTEX
  8
LAYER_4
 10
84.6892
 20
409.049
  0
VERTEX
  8
LAYER_4
 10
84.6892
 20
409.677
  0
VERTEX
  8
LAYER_4
 10
88.195
 20
409.677
  0
VERTEX
  8
LAYER_4
 10
88.195
 20
409.049
  0
VERTEX
  8
LAYER_4
 10
87.5666
 20
409.049
  0
VERTEX
  8
LAYER_4
 10
87.5666
 20
407.23
  0
VERTEX
  8
LAYER_4
 10
88.5257
 20
407.23
  0
VERTEX
  8
LAYER_4
 10
88.5257
 20
406.602
  0
VERTEX
  8
LAYER_4
 10
87.5666
 20
406.602
  0
VERTEX
  8
LAYER_4
 10
87.5666
 20
402.864
  0
VERTEX
  8
LAYER_4
 10
86.9051
 20
402.864
  0
VERTEX
  8
LAYER_4
 10
86.9051
 20
406.602
  0
VERTEX
  8
LAYER_4
 10
86.0122
 20
406.602
  0
VERTEX
  8
LAYER_4
 10
86.0122
 20
406.039
 42
-0.0781
  0
VERTEX
  8
LAYER_4
 10
85.6506
 20
403.739
 42
-0.0781
  0
VERTEX
  8
LAYER_4
 10
85.1523
 20
402.864
  0
VERTEX
  8
LAYER_4
 10
84.5239
 20
403.359
 42
0.1475
  0
VERTEX
  8
LAYER_4
 10
85.2036
 20
404.658
 42
0.0608
  0
VERTEX
  8
LAYER_4
 10
85.3507
 20
406.039
  0
SEQEND
  0
POLYLINE
  8
LAYER_4
 40
0.105834
 41
0.105834
 66
1
 10
0
 20
0
 30
0
 70
1
  0
VERTEX
  8
LAYER_4
 10
86.9051
 20
409.049
  0
VERTEX
  8
LAYER_4
 10
86.0122
 20
409.049
  0
VERTEX
  8
LAYER_4
 10
86.0122
 20
407.23
  0
VERTEX
  8
LAYER_4
 10
86.9051
 20
407.23
  0
SEQEND
  0
POLYLINE
  8
LAYER_4
 40
0.105834
 41
0.105834
 66
1
 10
0
 20
0
 30
0
 70
1
  0
VERTEX
  8
LAYER_4
 10
91.833
 20
405.542
  0
VERTEX
  8
LAYER_4
 10
91.8727
 20
405.489
  0
VERTEX
  8
LAYER_4
 10
91.8287
 20
405.438
 42
-0.1056
  0
VERTEX
  8
LAYER_4
 10
91.6677
 20
405.377
 42
-0.1598
  0
VERTEX
  8
LAYER_4
 10
88.5257
 20
402.963
  0
VERTEX
  8
LAYER_4
 10
88.1289
 20
403.691
 42
0.0846
  0
VERTEX
  8
LAYER_4
 10
90.2006
 20
404.894
 42
0.0794
  0
VERTEX
  8
LAYER_4
 10
91.1716
 20
406.071
  0
SEQEND
  0
POLYLINE
  8
LAYER_4
 40
0.105834
 41
0.105834
 66
1
 10
0
 20
0
 30
0
 70
1
  0
VERTEX
  8
LAYER_4
 10
88.3273
 20
405.874
 42
0.0836
  0
VERTEX
  8
LAYER_4
 10
90.2633
 20
407.133
 42
0.0775
  0
VERTEX
  8
LAYER_4
 10
90.7747
 20
407.858
  0
VERTEX
  8
LAYER_4
 10
91.4362
 20
407.328
  0
VERTEX
  8
LAYER_4
 10
91.4358
 20
407.262
  0
VERTEX
  8
LAYER_4
 10
91.3776
 20
407.229
 42
-0.0503
  0
VERTEX
  8
LAYER_4
 10
91.2708
 20
407.196
 42
-0.1277
  0
VERTEX
  8
LAYER_4
 10
88.7903
 20
405.146
  0
SEQEND
  0
POLYLINE
  8
LAYER_4
 40
0.105834
 41
0.105834
 66
1
 10
0
 20
0
 30
0
 70
1
  0
VERTEX
  8
LAYER_4
 10
88.3604
 20
407.924
 42
0.0805
  0
VERTEX
  8
LAYER_4
 10
90.1897
 20
409.304
 42
0.0528
  0
VERTEX
  8
LAYER_4
 10
90.5101
 20
409.777
  0
VERTEX
  8
LAYER_4
 10
91.1716
 20
409.28
  0
VERTEX
  8
LAYER_4
 10
91.1714
 20
409.214
  0
VERTEX
  8
LAYER_4
 10
91.113
 20
409.179
 42
-0.05
  0
VERTEX
  8
LAYER_4
 10
91.0062
 20
409.147
 42
-0.0578
  0
VERTEX
  8
LAYER_4
 10
90.59
 20
408.597
 42
-0.0845
  0
VERTEX
  8
LAYER_4
 10
88.7903
 20
407.263
  0
SEQEND
  0
ENDBLK
  0
BLOCK
  8
LAYER_4
  2
AIGNBL04020024
 70
64
 10
0
 20
0
 30
0
  3
AIGNBL04020024
  0
POLYLINE
  8
LAYER_4
 40
0.105834
 41
0.105834
 66
1
 10
0
 20
0
 30
0
 70
1
  0
VERTEX
  8
LAYER_4
 10
99.2084
 20
402.864
  0
VERTEX
  8
LAYER_4
 10
99.2084
 20
403.195
  0
VERTEX
  8
LAYER_4
 10
93.7844
 20
403.195
  0
VERTEX
  8
LAYER_4
 10
93.7844
 20
402.798
  0
VERTEX
  8
LAYER_4
 10
93.1229
 20
402.798
  0
VERTEX
  8
LAYER_4
 10
93.1229
 20
409.908
  0
VERTEX
  8
LAYER_4
 10
99.8698
 20
409.908
  0
VERTEX
  8
LAYER_4
 10
99.8698
 20
402.864
  0
SEQEND
  0
POLYLINE
  8
LAYER_4
 40
0.105834
 41
0.105834
 66
1
 10
0
 20
0
 30
0
 70
1
  0
VERTEX
  8
LAYER_4
 10
99.2084
 20
409.28
  0
VERTEX
  8
LAYER_4
 10
93.7844
 20
409.28
  0
VERTEX
  8
LAYER_4
 10
93.7844
 20
403.823
  0
VERTEX
  8
LAYER_4
 10
99.2084
 20
403.823
  0
SEQEND
  0
POLYLINE
  8
LAYER_4
 40
0.105834
 41
0.105834
 66
1
 10
0
 20
0
 30
0
 70
1
  0
VERTEX
  8
LAYER_4
 10
98.7784
 20
404.882
  0
VERTEX
  8
LAYER_4
 10
98.2492
 20
404.253
 42
0.0619
  0
VERTEX
  8
LAYER_4
 10
96.6617
 20
405.311
 42
-0.048
  0
VERTEX
  8
LAYER_4
 10
96.0338
 20
404.795
 42
-0.061
  0
VERTEX
  8
LAYER_4
 10
94.512
 20
404.021
  0
VERTEX
  8
LAYER_4
 10
94.082
 20
404.616
 42
0.06
  0
VERTEX
  8
LAYER_4
 10
96.0333
 20
405.675
 42
0.0239
  0
VERTEX
  8
LAYER_4
 10
94.3135
 20
406.469
  0
VERTEX
  8
LAYER_4
 10
94.7435
 20
406.999
 42
-0.0213
  0
VERTEX
  8
LAYER_4
 10
96.5294
 20
406.238
 42
0.0447
  0
VERTEX
  8
LAYER_4
 10
97.0329
 20
406.948
 42
0.0532
  0
VERTEX
  8
LAYER_4
 10
97.8854
 20
408.85
  0
VERTEX
  8
LAYER_4
 10
98.613
 20
408.552
  0
VERTEX
  8
LAYER_4
 10
98.7009
 20
408.519
 42
-0.297
  0
VERTEX
  8
LAYER_4
 10
98.6919
 20
408.424
 42
-0.0629
  0
VERTEX
  8
LAYER_4
 10
98.5138
 20
408.321
 42
-0.0267
  0
VERTEX
  8
LAYER_4
 10
97.9345
 20
407.058
 42
-0.0555
  0
VERTEX
  8
LAYER_4
 10
97.1578
 20
405.907
 42
-0.0504
  0
SEQEND
  0
POLYLINE
  8
LAYER_4
 40
0.105834
 41
0.105834
 66
1
 10
0
 20
0
 30
0
 70
1
  0
VERTEX
  8
LAYER_4
 10
95.0742
 20
408.619
 42
-0.076
  0
VERTEX
  8
LAYER_4
 10
95.8018
 20
407.462
  0
VERTEX
  8
LAYER_4
 10
95.2065
 20
407.098
 42
0.0738
  0
VERTEX
  8
LAYER_4
 10
94.512
 20
408.288
  0
SEQEND
  0
POLYLINE
  8
LAYER_4
 40
0.105834
 41
0.105834
 66
1
 10
0
 20
0
 30
0
 70
1
  0
VERTEX
  8
LAYER_4
 10
96.5294
 20
407.462
 42
0.0736
  0
VERTEX
  8
LAYER_4
 10
95.8349
 20
408.652
  0
VERTEX
  8
LAYER_4
 10
96.3971
 20
408.982
 42
-0.0841
  0
VERTEX
  8
LAYER_4
 10
97.1247
 20
407.825
  0
SEQEND
  0
ENDBLK
  0
BLOCK
  8
LAYER_4
  2
AIGNBL04010002
 70
64
 10
0
 20
0
 30
0
  3
AIGNBL04010002
  0
INSERT
  8
LAYER_4
  2
AIGNBL04020003
 10
0
 20
0
 30
0
  0
INSERT
  8
LAYER_4
  2
AIGNBL04020004
 10
0
 20
0
 30
0
  0
INSERT
  8
LAYER_4
  2
AIGNBL04020005
 10
0
 20
0
 30
0
  0
INSERT
  8
LAYER_4
  2
AIGNBL04020006
 10
0
 20
0
 30
0
  0
INSERT
  8
LAYER_4
  2
AIGNBL04020007
 10
0
 20
0
 30
0
  0
ENDBLK
  0
BLOCK
  8
LAYER_4
  2
AIGNBL04010008
 70
64
 10
0
 20
0
 30
0
  3
AIGNBL04010008
  0
INSERT
  8
LAYER_4
  2
AIGNBL04020009
 10
0
 20
0
 30
0
  0
INSERT
  8
LAYER_4
  2
AIGNBL0402000A
 10
0
 20
0
 30
0
  0
INSERT
  8
LAYER_4
  2
AIGNBL0402000B
 10
0
 20
0
 30
0
  0
ENDBLK
  0
BLOCK
  8
LAYER_4
  2
AIGNBL0401000C
 70
64
 10
0
 20
0
 30
0
  3
AIGNBL0401000C
  0
INSERT
  8
LAYER_4
  2
AIGNBL0402000D
 10
0
 20
0
 30
0
  0
INSERT
  8
LAYER_4
  2
AIGNBL0402000E
 10
0
 20
0
 30
0
  0
INSERT
  8
LAYER_4
  2
AIGNBL0402000F
 10
0
 20
0
 30
0
  0
ENDBLK
  0
BLOCK
  8
LAYER_4
  2
AIGNBL04010010
 70
64
 10
0
 20
0
 30
0
  3
AIGNBL04010010
  0
INSERT
  8
LAYER_4
  2
AIGNBL04020011
 10
0
 20
0
 30
0
  0
INSERT
  8
LAYER_4
  2
AIGNBL04020012
 10
0
 20
0
 30
0
  0
ENDBLK
  0
BLOCK
  8
LAYER_4
  2
AIGNBL04010013
 70
64
 10
0
 20
0
 30
0
  3
AIGNBL04010013
  0
INSERT
  8
LAYER_4
  2
AIGNBL04020014
 10
0
 20
0
 30
0
  0
INSERT
  8
LAYER_4
  2
AIGNBL04020015
 10
0
 20
0
 30
0
  0
ENDBLK
  0
BLOCK
  8
LAYER_4
  2
AIGNBL04010016
 70
64
 10
0
 20
0
 30
0
  3
AIGNBL04010016
  0
POLYLINE
  8
LAYER_4
 40
0.105834
 41
0.105834
 66
1
 10
0
 20
0
 30
0
  0
VERTEX
  8
LAYER_4
 10
354.495
 20
60.2024
  0
VERTEX
  8
LAYER_4
 10
354.495
 20
39.1596
  0
SEQEND
  0
POLYLINE
  8
LAYER_4
 40
0.105834
 41
0.105834
 66
1
 10
0
 20
0
 30
0
  0
VERTEX
  8
LAYER_4
 10
184.895
 20
39.1596
  0
VERTEX
  8
LAYER_4
 10
184.895
 20
60.2024
  0
SEQEND
  0
POLYLINE
  8
LAYER_4
 40
0.105834
 41
0.105834
 66
1
 10
0
 20
0
 30
0
  0
VERTEX
  8
LAYER_4
 10
354.495
 20
39.6595
  0
VERTEX
  8
LAYER_4
 10
269.695
 20
39.6595
  0
VERTEX
  8
LAYER_4
 10
184.895
 20
39.6595
  0
SEQEND
  0
POLYLINE
  8
LAYER_4
 40
0.105834
 41
0.105834
 66
1
 10
0
 20
0
 30
0
  0
VERTEX
  8
LAYER_4
 10
352.495
 20
39.0094
  0
VERTEX
  8
LAYER_4
 10
354.495
 20
39.6595
  0
VERTEX
  8
LAYER_4
 10
352.495
 20
40.3096
  0
SEQEND
  0
POLYLINE
  8
LAYER_4
 40
0.105834
 41
0.105834
 66
1
 10
0
 20
0
 30
0
  0
VERTEX
  8
LAYER_4
 10
186.895
 20
40.3096
  0
VERTEX
  8
LAYER_4
 10
184.895
 20
39.6595
  0
VERTEX
  8
LAYER_4
 10
186.895
 20
39.0094
  0
SEQEND
  0
ENDBLK
  0
BLOCK
  8
LAYER_4
  2
AIGNBL04010017
 70
64
 10
0
 20
0
 30
0
  3
AIGNBL04010017
  0
POLYLINE
  8
LAYER_4
 40
0.105834
 41
0.105834
 66
1
 10
0
 20
0
 30
0
  0
VERTEX
  8
LAYER_4
 10
354.596
 20
77.4242
  0
VERTEX
  8
LAYER_4
 10
390.926
 20
77.4242
  0
SEQEND
  0
POLYLINE
  8
LAYER_4
 40
0.105834
 41
0.105834
 66
1
 10
0
 20
0
 30
0
  0
VERTEX
  8
LAYER_4
 10
351.395
 20
58.104
  0
VERTEX
  8
LAYER_4
 10
390.926
 20
58.104
  0
SEQEND
  0
POLYLINE
  8
LAYER_4
 40
0.105834
 41
0.105834
 66
1
 10
0
 20
0
 30
0
  0
VERTEX
  8
LAYER_4
 10
390.426
 20
77.4242
  0
VERTEX
  8
LAYER_4
 10
390.426
 20
67.7641
  0
VERTEX
  8
LAYER_4
 10
390.426
 20
58.104
  0
SEQEND
  0
POLYLINE
  8
LAYER_4
 40
0.105834
 41
0.105834
 66
1
 10
0
 20
0
 30
0
  0
VERTEX
  8
LAYER_4
 10
391.076
 20
75.424
  0
VERTEX
  8
LAYER_4
 10
390.426
 20
77.4242
  0
VERTEX
  8
LAYER_4
 10
389.776
 20
75.424
  0
SEQEND
  0
POLYLINE
  8
LAYER_4
 40
0.105834
 41
0.105834
 66
1
 10
0
 20
0
 30
0
  0
VERTEX
  8
LAYER_4
 10
389.776
 20
60.1042
  0
VERTEX
  8
LAYER_4
 10
390.426
 20
58.104
  0
VERTEX
  8
LAYER_4
 10
391.076
 20
60.1042
  0
SEQEND
  0
ENDBLK
  0
BLOCK
  8
LAYER_4
  2
AIGNBL04010018
 70
64
 10
0
 20
0
 30
0
  3
AIGNBL04010018
  0
POLYLINE
  8
LAYER_4
 40
0.105834
 41
0.105834
 66
1
 10
0
 20
0
 30
0
  0
VERTEX
  8
LAYER_4
 10
354.596
 20
77.4242
  0
VERTEX
  8
LAYER_4
 10
375.648
 20
77.4242
  0
SEQEND
  0
POLYLINE
  8
LAYER_4
 40
0.105834
 41
0.105834
 66
1
 10
0
 20
0
 30
0
  0
VERTEX
  8
LAYER_4
 10
354.398
 20
60.1042
  0
VERTEX
  8
LAYER_4
 10
375.648
 20
60.1042
  0
SEQEND
  0
POLYLINE
  8
LAYER_4
 40
0.105834
 41
0.105834
 66
1
 10
0
 20
0
 30
0
  0
VERTEX
  8
LAYER_4
 10
375.148
 20
77.4242
  0
VERTEX
  8
LAYER_4
 10
375.148
 20
68.7642
  0
VERTEX
  8
LAYER_4
 10
375.148
 20
60.1042
  0
SEQEND
  0
POLYLINE
  8
LAYER_4
 40
0.105834
 41
0.105834
 66
1
 10
0
 20
0
 30
0
  0
VERTEX
  8
LAYER_4
 10
375.798
 20
75.424
  0
VERTEX
  8
LAYER_4
 10
375.148
 20
77.4242
  0
VERTEX
  8
LAYER_4
 10
374.498
 20
75.424
  0
SEQEND
  0
POLYLINE
  8
LAYER_4
 40
0.105834
 41
0.105834
 66
1
 10
0
 20
0
 30
0
  0
VERTEX
  8
LAYER_4
 10
374.498
 20
62.1041
  0
VERTEX
  8
LAYER_4
 10
375.148
 20
60.1042
  0
VERTEX
  8
LAYER_4
 10
375.798
 20
62.1041
  0
SEQEND
  0
ENDBLK
  0
BLOCK
  8
LAYER_4
  2
AIGNBL04010019
 70
64
 10
0
 20
0
 30
0
  3
AIGNBL04010019
  0
POLYLINE
  8
LAYER_4
 40
0.105834
 41
0.105834
 66
1
 10
0
 20
0
 30
0
  0
VERTEX
  8
LAYER_4
 10
353.595
 20
302.15
  0
VERTEX
  8
LAYER_4
 10
372.474
 20
302.15
  0
SEQEND
  0
POLYLINE
  8
LAYER_4
 40
0.105834
 41
0.105834
 66
1
 10
0
 20
0
 30
0
  0
VERTEX
  8
LAYER_4
 10
354.344
 20
159.15
  0
VERTEX
  8
LAYER_4
 10
372.474
 20
159.15
  0
SEQEND
  0
POLYLINE
  8
LAYER_4
 40
0.105834
 41
0.105834
 66
1
 10
0
 20
0
 30
0
  0
VERTEX
  8
LAYER_4
 10
371.973
 20
302.15
  0
VERTEX
  8
LAYER_4
 10
371.973
 20
230.65
  0
VERTEX
  8
LAYER_4
 10
371.973
 20
159.15
  0
SEQEND
  0
POLYLINE
  8
LAYER_4
 40
0.105834
 41
0.105834
 66
1
 10
0
 20
0
 30
0
  0
VERTEX
  8
LAYER_4
 10
372.624
 20
300.15
  0
VERTEX
  8
LAYER_4
 10
371.973
 20
302.15
  0
VERTEX
  8
LAYER_4
 10
371.324
 20
300.15
  0
SEQEND
  0
POLYLINE
  8
LAYER_4
 40
0.105834
 41
0.105834
 66
1
 10
0
 20
0
 30
0
  0
VERTEX
  8
LAYER_4
 10
371.324
 20
161.15
  0
VERTEX
  8
LAYER_4
 10
371.973
 20
159.15
  0
VERTEX
  8
LAYER_4
 10
372.624
 20
161.15
  0
SEQEND
  0
ENDBLK
  0
BLOCK
  8
LAYER_4
  2
AIGNBL0401001A
 70
64
 10
0
 20
0
 30
0
  3
AIGNBL0401001A
  0
POLYLINE
  8
LAYER_4
 40
0.105834
 41
0.105834
 66
1
 10
0
 20
0
 30
0
  0
VERTEX
  8
LAYER_4
 10
354.344
 20
159.15
  0
VERTEX
  8
LAYER_4
 10
390.401
 20
159.15
  0
SEQEND
  0
POLYLINE
  8
LAYER_4
 40
0.105834
 41
0.105834
 66
1
 10
0
 20
0
 30
0
  0
VERTEX
  8
LAYER_4
 10
340.595
 20
303.43
  0
VERTEX
  8
LAYER_4
 10
390.401
 20
303.43
  0
SEQEND
  0
POLYLINE
  8
LAYER_4
 40
0.105834
 41
0.105834
 66
1
 10
0
 20
0
 30
0
  0
VERTEX
  8
LAYER_4
 10
389.901
 20
159.15
  0
VERTEX
  8
LAYER_4
 10
389.901
 20
231.29
  0
VERTEX
  8
LAYER_4
 10
389.901
 20
303.43
  0
SEQEND
  0
POLYLINE
  8
LAYER_4
 40
0.105834
 41
0.105834
 66
1
 10
0
 20
0
 30
0
  0
VERTEX
  8
LAYER_4
 10
389.251
 20
161.15
  0
VERTEX
  8
LAYER_4
 10
389.901
 20
159.15
  0
VERTEX
  8
LAYER_4
 10
390.551
 20
161.15
  0
SEQEND
  0
POLYLINE
  8
LAYER_4
 40
0.105834
 41
0.105834
 66
1
 10
0
 20
0
 30
0
  0
VERTEX
  8
LAYER_4
 10
390.551
 20
301.43
  0
VERTEX
  8
LAYER_4
 10
389.901
 20
303.43
  0
VERTEX
  8
LAYER_4
 10
389.251
 20
301.43
  0
SEQEND
  0
ENDBLK
  0
BLOCK
  8
LAYER_4
  2
AIGNBL0401001B
 70
64
 10
0
 20
0
 30
0
  3
AIGNBL0401001B
  0
INSERT
  8
LAYER_4
  2
AIGNBL0402001C
 10
0
 20
0
 30
0
  0
INSERT
  8
LAYER_4
  2
AIGNBL0402001D
 10
0
 20
0
 30
0
  0
INSERT
  8
LAYER_4
  2
AIGNBL0402001E
 10
0
 20
0
 30
0
  0
INSERT
  8
LAYER_4
  2
AIGNBL0402001F
 10
0
 20
0
 30
0
  0
INSERT
  8
LAYER_4
  2
AIGNBL04020020
 10
0
 20
0
 30
0
  0
INSERT
  8
LAYER_4
  2
AIGNBL04020021
 10
0
 20
0
 30
0
  0
INSERT
  8
LAYER_4
  2
AIGNBL04020022
 10
0
 20
0
 30
0
  0
INSERT
  8
LAYER_4
  2
AIGNBL04020023
 10
0
 20
0
 30
0
  0
INSERT
  8
LAYER_4
  2
AIGNBL04020024
 10
0
 20
0
 30
0
  0
ENDBLK
  0
ENDSEC
  0
SECTION
  2
ENTITIES
  0
INSERT
  8
LAYER_4
  2
AIGNBL04010002
 10
0
 20
0
 30
0
  0
INSERT
  8
LAYER_4
  2
AIGNBL04010008
 10
0
 20
0
 30
0
  0
INSERT
  8
LAYER_4
  2
AIGNBL0401000C
 10
0
 20
0
 30
0
  0
INSERT
  8
LAYER_4
  2
AIGNBL04010010
 10
0
 20
0
 30
0
  0
INSERT
  8
LAYER_4
  2
AIGNBL04010013
 10
0
 20
0
 30
0
  0
INSERT
  8
LAYER_4
  2
AIGNBL04010016
 10
0
 20
0
 30
0
  0
INSERT
  8
LAYER_4
  2
AIGNBL04010017
 10
0
 20
0
 30
0
  0
INSERT
  8
LAYER_4
  2
AIGNBL04010018
 10
0
 20
0
 30
0
  0
INSERT
  8
LAYER_4
  2
AIGNBL04010019
 10
0
 20
0
 30
0
  0
INSERT
  8
LAYER_4
  2
AIGNBL0401001A
 10
0
 20
0
 30
0
  0
POLYLINE
  8
LAYER_4
 40
0.105834
 41
0.105834
 66
1
 10
0
 20
0
 30
0
  0
VERTEX
  8
LAYER_4
 10
185.347
 20
159.34
  0
VERTEX
  8
LAYER_4
 10
184.895
 20
167.95
  0
SEQEND
  0
POLYLINE
  8
LAYER_4
 40
0.105834
 41
0.105834
 66
1
 10
0
 20
0
 30
0
  0
VERTEX
  8
LAYER_4
 10
185.095
 20
302.15
  0
VERTEX
  8
LAYER_4
 10
185.095
 20
167.95
  0
SEQEND
  0
POLYLINE
  8
LAYER_4
 40
0.105834
 41
0.105834
 66
1
 10
0
 20
0
 30
0
  0
VERTEX
  8
LAYER_4
 10
185.495
 20
301.75
  0
VERTEX
  8
LAYER_4
 10
185.495
 20
301.55
  0
SEQEND
  0
POLYLINE
  8
LAYER_4
 40
0.105834
 41
0.105834
 66
1
 10
0
 20
0
 30
0
  0
VERTEX
  8
LAYER_4
 10
185.751
 20
301.75
  0
VERTEX
  8
LAYER_4
 10
185.751
 20
302.15
  0
SEQEND
  0
POLYLINE
  8
LAYER_4
 40
0.105834
 41
0.105834
 66
1
 10
0
 20
0
 30
0
  0
VERTEX
  8
LAYER_4
 10
185.895
 20
301.55
  0
VERTEX
  8
LAYER_4
 10
185.895
 20
167.95
  0
SEQEND
  0
POLYLINE
  8
LAYER_4
 40
0.105834
 41
0.105834
 66
1
 10
0
 20
0
 30
0
  0
VERTEX
  8
LAYER_4
 10
186.295
 20
301.55
  0
VERTEX
  8
LAYER_4
 10
186.295
 20
302.15
  0
SEQEND
  0
POLYLINE
  8
LAYER_4
 40
0.105834
 41
0.105834
 66
1
 10
0
 20
0
 30
0
  0
VERTEX
  8
LAYER_4
 10
188.895
 20
168.35
  0
VERTEX
  8
LAYER_4
 10
188.895
 20
168.55
  0
SEQEND
  0
POLYLINE
  8
LAYER_4
 40
0.105834
 41
0.105834
 66
1
 10
0
 20
0
 30
0
  0
VERTEX
  8
LAYER_4
 10
189.295
 20
167.95
  0
VERTEX
  8
LAYER_4
 10
189.295
 20
168.55
  0
SEQEND
  0
POLYLINE
  8
LAYER_4
 40
0.105834
 41
0.105834
 66
1
 10
0
 20
0
 30
0
  0
VERTEX
  8
LAYER_4
 10
259.31
 20
158.87
  0
VERTEX
  8
LAYER_4
 10
261.68
 20
158.87
  0
SEQEND
  0
POLYLINE
  8
LAYER_4
 40
0.105834
 41
0.105834
 66
1
 10
0
 20
0
 30
0
  0
VERTEX
  8
LAYER_4
 10
270.01
 20
158.87
  0
VERTEX
  8
LAYER_4
 10
270.981
 20
158.87
  0
SEQEND
  0
POLYLINE
  8
LAYER_4
 40
0.105834
 41
0.105834
 66
1
 10
0
 20
0
 30
0
  0
VERTEX
  8
LAYER_4
 10
276.01
 20
158.87
  0
VERTEX
  8
LAYER_4
 10
276.981
 20
158.87
  0
SEQEND
  0
POLYLINE
  8
LAYER_4
 40
0.105834
 41
0.105834
 66
1
 10
0
 20
0
 30
0
  0
VERTEX
  8
LAYER_4
 10
282.01
 20
158.87
  0
VERTEX
  8
LAYER_4
 10
282.981
 20
158.87
  0
SEQEND
  0
POLYLINE
  8
LAYER_4
 40
0.105834
 41
0.105834
 66
1
 10
0
 20
0
 30
0
  0
VERTEX
  8
LAYER_4
 10
288.01
 20
158.87
  0
VERTEX
  8
LAYER_4
 10
288.981
 20
158.87
  0
SEQEND
  0
POLYLINE
  8
LAYER_4
 40
0.105834
 41
0.105834
 66
1
 10
0
 20
0
 30
0
  0
VERTEX
  8
LAYER_4
 10
288.99
 20
159.047
  0
VERTEX
  8
LAYER_4
 10
288.001
 20
159.047
  0
SEQEND
  0
POLYLINE
  8
LAYER_4
 40
0.105834
 41
0.105834
 66
1
 10
0
 20
0
 30
0
  0
VERTEX
  8
LAYER_4
 10
282.99
 20
159.047
  0
VERTEX
  8
LAYER_4
 10
282.001
 20
159.047
  0
SEQEND
  0
POLYLINE
  8
LAYER_4
 40
0.105834
 41
0.105834
 66
1
 10
0
 20
0
 30
0
  0
VERTEX
  8
LAYER_4
 10
276.99
 20
159.047
  0
VERTEX
  8
LAYER_4
 10
276.001
 20
159.047
  0
SEQEND
  0
POLYLINE
  8
LAYER_4
 40
0.105834
 41
0.105834
 66
1
 10
0
 20
0
 30
0
  0
VERTEX
  8
LAYER_4
 10
270.99
 20
159.047
  0
VERTEX
  8
LAYER_4
 10
270.001
 20
159.047
  0
SEQEND
  0
POLYLINE
  8
LAYER_4
 40
0.105834
 41
0.105834
 66
1
 10
0
 20
0
 30
0
  0
VERTEX
  8
LAYER_4
 10
261.69
 20
159.047
  0
VERTEX
  8
LAYER_4
 10
259.301
 20
159.047
  0
SEQEND
  0
POLYLINE
  8
LAYER_4
 40
0.105834
 41
0.105834
 66
1
 10
0
 20
0
 30
0
  0
VERTEX
  8
LAYER_4
 10
288.993
 20
159.103
  0
VERTEX
  8
LAYER_4
 10
287.998
 20
159.103
  0
SEQEND
  0
POLYLINE
  8
LAYER_4
 40
0.105834
 41
0.105834
 66
1
 10
0
 20
0
 30
0
  0
VERTEX
  8
LAYER_4
 10
282.993
 20
159.103
  0
VERTEX
  8
LAYER_4
 10
281.998
 20
159.103
  0
SEQEND
  0
POLYLINE
  8
LAYER_4
 40
0.105834
 41
0.105834
 66
1
 10
0
 20
0
 30
0
  0
VERTEX
  8
LAYER_4
 10
276.993
 20
159.103
  0
VERTEX
  8
LAYER_4
 10
275.998
 20
159.103
  0
SEQEND
  0
POLYLINE
  8
LAYER_4
 40
0.105834
 41
0.105834
 66
1
 10
0
 20
0
 30
0
  0
VERTEX
  8
LAYER_4
 10
270.993
 20
159.103
  0
VERTEX
  8
LAYER_4
 10
269.998
 20
159.103
  0
SEQEND
  0
POLYLINE
  8
LAYER_4
 40
0.105834
 41
0.105834
 66
1
 10
0
 20
0
 30
0
  0
VERTEX
  8
LAYER_4
 10
261.693
 20
159.103
  0
VERTEX
  8
LAYER_4
 10
259.298
 20
159.103
  0
SEQEND
  0
POLYLINE
  8
LAYER_4
 40
0.105834
 41
0.105834
 66
1
 10
0
 20
0
 30
0
  0
VERTEX
  8
LAYER_4
 10
353.844
 20
159.15
  0
VERTEX
  8
LAYER_4
 10
324.495
 20
159.15
  0
SEQEND
  0
POLYLINE
  8
LAYER_4
 40
0.105834
 41
0.105834
 66
1
 10
0
 20
0
 30
0
  0
VERTEX
  8
LAYER_4
 10
302.495
 20
159.15
  0
VERTEX
  8
LAYER_4
 10
185.546
 20
159.15
  0
SEQEND
  0
POLYLINE
  8
LAYER_4
 40
0.105834
 41
0.105834
 66
1
 10
0
 20
0
 30
0
  0
VERTEX
  8
LAYER_4
 10
353.845
 20
159.347
  0
VERTEX
  8
LAYER_4
 10
324.506
 20
159.347
  0
SEQEND
  0
POLYLINE
  8
LAYER_4
 40
0.105834
 41
0.105834
 66
1
 10
0
 20
0
 30
0
  0
VERTEX
  8
LAYER_4
 10
302.488
 20
159.347
  0
VERTEX
  8
LAYER_4
 10
185.546
 20
159.348
  0
SEQEND
  0
POLYLINE
  8
LAYER_4
 40
0.105834
 41
0.105834
 66
1
 10
0
 20
0
 30
0
  0
VERTEX
  8
LAYER_4
 10
327.568
 20
165.11
  0
VERTEX
  8
LAYER_4
 10
327.407
 20
165.11
  0
SEQEND
  0
POLYLINE
  8
LAYER_4
 40
0.105834
 41
0.105834
 66
1
 10
0
 20
0
 30
0
  0
VERTEX
  8
LAYER_4
 10
324.767
 20
165.11
  0
VERTEX
  8
LAYER_4
 10
324.608
 20
165.11
  0
SEQEND
  0
POLYLINE
  8
LAYER_4
 40
0.105834
 41
0.105834
 66
1
 10
0
 20
0
 30
0
  0
VERTEX
  8
LAYER_4
 10
184.895
 20
167.95
  0
VERTEX
  8
LAYER_4
 10
354.495
 20
167.95
  0
SEQEND
  0
POLYLINE
  8
LAYER_4
 40
0.105834
 41
0.105834
 66
1
 10
0
 20
0
 30
0
  0
VERTEX
  8
LAYER_4
 10
350.495
 20
168.35
  0
VERTEX
  8
LAYER_4
 10
350.095
 20
168.35
  0
SEQEND
  0
POLYLINE
  8
LAYER_4
 40
0.105834
 41
0.105834
 66
1
 10
0
 20
0
 30
0
  0
VERTEX
  8
LAYER_4
 10
189.295
 20
168.35
  0
VERTEX
  8
LAYER_4
 10
188.895
 20
168.35
  0
SEQEND
  0
POLYLINE
  8
LAYER_4
 40
0.105834
 41
0.105834
 66
1
 10
0
 20
0
 30
0
  0
VERTEX
  8
LAYER_4
 10
350.495
 20
168.55
  0
VERTEX
  8
LAYER_4
 10
350.095
 20
168.55
  0
SEQEND
  0
POLYLINE
  8
LAYER_4
 40
0.105834
 41
0.105834
 66
1
 10
0
 20
0
 30
0
  0
VERTEX
  8
LAYER_4
 10
189.295
 20
168.55
  0
VERTEX
  8
LAYER_4
 10
188.895
 20
168.55
  0
SEQEND
  0
POLYLINE
  8
LAYER_4
 40
0.105834
 41
0.105834
 66
1
 10
0
 20
0
 30
0
  0
VERTEX
  8
LAYER_4
 10
222.335
 20
302.15
  0
VERTEX
  8
LAYER_4
 10
222.335
 20
302.67
  0
SEQEND
  0
POLYLINE
  8
LAYER_4
 40
0.105834
 41
0.105834
 66
1
 10
0
 20
0
 30
0
  0
VERTEX
  8
LAYER_4
 10
225.935
 20
302.15
  0
VERTEX
  8
LAYER_4
 10
225.935
 20
302.67
  0
SEQEND
  0
POLYLINE
  8
LAYER_4
 40
0.105834
 41
0.105834
 66
1
 10
0
 20
0
 30
0
  0
VERTEX
  8
LAYER_4
 10
228.775
 20
302.15
  0
VERTEX
  8
LAYER_4
 10
228.775
 20
302.47
  0
SEQEND
  0
POLYLINE
  8
LAYER_4
 40
0.105834
 41
0.105834
 66
1
 10
0
 20
0
 30
0
  0
VERTEX
  8
LAYER_4
 10
229.575
 20
302.15
  0
VERTEX
  8
LAYER_4
 10
229.575
 20
302.47
  0
SEQEND
  0
POLYLINE
  8
LAYER_4
 40
0.105834
 41
0.105834
 66
1
 10
0
 20
0
 30
0
  0
VERTEX
  8
LAYER_4
 10
232.115
 20
302.47
  0
VERTEX
  8
LAYER_4
 10
232.115
 20
302.15
  0
SEQEND
  0
POLYLINE
  8
LAYER_4
 40
0.105834
 41
0.105834
 66
1
 10
0
 20
0
 30
0
  0
VERTEX
  8
LAYER_4
 10
188.495
 20
167.95
  0
VERTEX
  8
LAYER_4
 10
188.895
 20
168.35
  0
SEQEND
  0
POLYLINE
  8
LAYER_4
 40
0.105834
 41
0.105834
 66
1
 10
0
 20
0
 30
0
  0
VERTEX
  8
LAYER_4
 10
259.31
 20
158.87
  0
VERTEX
  8
LAYER_4
 10
259.295
 20
159.15
  0
SEQEND
  0
POLYLINE
  8
LAYER_4
 40
0.105834
 41
0.105834
 66
1
 10
0
 20
0
 30
0
  0
VERTEX
  8
LAYER_4
 10
258.875
 20
302.47
  0
VERTEX
  8
LAYER_4
 10
258.875
 20
302.15
  0
SEQEND
  0
POLYLINE
  8
LAYER_4
 40
0.105834
 41
0.105834
 66
1
 10
0
 20
0
 30
0
  0
VERTEX
  8
LAYER_4
 10
261.815
 20
302.15
  0
VERTEX
  8
LAYER_4
 10
261.815
 20
302.47
  0
SEQEND
  0
POLYLINE
  8
LAYER_4
 40
0.105834
 41
0.105834
 66
1
 10
0
 20
0
 30
0
  0
VERTEX
  8
LAYER_4
 10
262.615
 20
302.47
  0
VERTEX
  8
LAYER_4
 10
262.615
 20
302.15
  0
SEQEND
  0
POLYLINE
  8
LAYER_4
 40
0.105834
 41
0.105834
 66
1
 10
0
 20
0
 30
0
  0
VERTEX
  8
LAYER_4
 10
270.01
 20
158.87
  0
VERTEX
  8
LAYER_4
 10
269.995
 20
159.15
  0
SEQEND
  0
POLYLINE
  8
LAYER_4
 40
0.105834
 41
0.105834
 66
1
 10
0
 20
0
 30
0
  0
VERTEX
  8
LAYER_4
 10
261.68
 20
158.87
  0
VERTEX
  8
LAYER_4
 10
261.695
 20
159.15
  0
SEQEND
  0
POLYLINE
  8
LAYER_4
 40
0.105834
 41
0.105834
 66
1
 10
0
 20
0
 30
0
  0
VERTEX
  8
LAYER_4
 10
276.01
 20
158.87
  0
VERTEX
  8
LAYER_4
 10
275.995
 20
159.15
  0
SEQEND
  0
POLYLINE
  8
LAYER_4
 40
0.105834
 41
0.105834
 66
1
 10
0
 20
0
 30
0
  0
VERTEX
  8
LAYER_4
 10
270.981
 20
158.87
  0
VERTEX
  8
LAYER_4
 10
270.995
 20
159.15
  0
SEQEND
  0
POLYLINE
  8
LAYER_4
 40
0.105834
 41
0.105834
 66
1
 10
0
 20
0
 30
0
  0
VERTEX
  8
LAYER_4
 10
282.01
 20
158.87
  0
VERTEX
  8
LAYER_4
 10
281.995
 20
159.15
  0
SEQEND
  0
POLYLINE
  8
LAYER_4
 40
0.105834
 41
0.105834
 66
1
 10
0
 20
0
 30
0
  0
VERTEX
  8
LAYER_4
 10
288.01
 20
158.87
  0
VERTEX
  8
LAYER_4
 10
287.995
 20
159.15
  0
SEQEND
  0
POLYLINE
  8
LAYER_4
 40
0.105834
 41
0.105834
 66
1
 10
0
 20
0
 30
0
  0
VERTEX
  8
LAYER_4
 10
276.981
 20
158.87
  0
VERTEX
  8
LAYER_4
 10
276.995
 20
159.15
  0
SEQEND
  0
POLYLINE
  8
LAYER_4
 40
0.105834
 41
0.105834
 66
1
 10
0
 20
0
 30
0
  0
VERTEX
  8
LAYER_4
 10
282.981
 20
158.87
  0
VERTEX
  8
LAYER_4
 10
282.995
 20
159.15
  0
SEQEND
  0
POLYLINE
  8
LAYER_4
 40
0.105834
 41
0.105834
 66
1
 10
0
 20
0
 30
0
  0
VERTEX
  8
LAYER_4
 10
288.981
 20
158.87
  0
VERTEX
  8
LAYER_4
 10
288.995
 20
159.15
  0
SEQEND
  0
POLYLINE
  8
LAYER_4
 40
0.105834
 41
0.105834
 66
1
 10
0
 20
0
 30
0
  0
VERTEX
  8
LAYER_4
 10
350.495
 20
168.35
  0
VERTEX
  8
LAYER_4
 10
350.895
 20
167.95
  0
SEQEND
  0
POLYLINE
  8
LAYER_4
 40
0.105834
 41
0.105834
 66
1
 10
0
 20
0
 30
0
  0
VERTEX
  8
LAYER_4
 10
321.295
 20
302.15
  0
VERTEX
  8
LAYER_4
 10
321.295
 20
302.39
  0
SEQEND
  0
POLYLINE
  8
LAYER_4
 40
0.105834
 41
0.105834
 66
1
 10
0
 20
0
 30
0
  0
VERTEX
  8
LAYER_4
 10
321.695
 20
302.15
  0
VERTEX
  8
LAYER_4
 10
321.695
 20
302.47
  0
SEQEND
  0
POLYLINE
  8
LAYER_4
 40
0.105834
 41
0.105834
 66
1
 10
0
 20
0
 30
0
  0
VERTEX
  8
LAYER_4
 10
324.608
 20
165.11
  0
VERTEX
  8
LAYER_4
 10
324.296
 20
159.164
  0
SEQEND
  0
POLYLINE
  8
LAYER_4
 40
0.105834
 41
0.105834
 66
1
 10
0
 20
0
 30
0
  0
VERTEX
  8
LAYER_4
 10
324.916
 20
167.95
  0
VERTEX
  8
LAYER_4
 10
324.767
 20
165.11
  0
SEQEND
  0
POLYLINE
  8
LAYER_4
 40
0.105834
 41
0.105834
 66
1
 10
0
 20
0
 30
0
  0
VERTEX
  8
LAYER_4
 10
324.495
 20
159.15
  0
VERTEX
  8
LAYER_4
 10
324.957
 20
167.95
  0
SEQEND
  0
POLYLINE
  8
LAYER_4
 40
0.105834
 41
0.105834
 66
1
 10
0
 20
0
 30
0
  0
VERTEX
  8
LAYER_4
 10
327.407
 20
165.11
  0
VERTEX
  8
LAYER_4
 10
327.096
 20
159.164
  0
SEQEND
  0
POLYLINE
  8
LAYER_4
 40
0.105834
 41
0.105834
 66
1
 10
0
 20
0
 30
0
  0
VERTEX
  8
LAYER_4
 10
327.716
 20
167.95
  0
VERTEX
  8
LAYER_4
 10
327.568
 20
165.11
  0
SEQEND
  0
POLYLINE
  8
LAYER_4
 40
0.105834
 41
0.105834
 66
1
 10
0
 20
0
 30
0
  0
VERTEX
  8
LAYER_4
 10
333.695
 20
302.15
  0
VERTEX
  8
LAYER_4
 10
333.695
 20
302.47
  0
SEQEND
  0
POLYLINE
  8
LAYER_4
 40
0.105834
 41
0.105834
 66
1
 10
0
 20
0
 30
0
  0
VERTEX
  8
LAYER_4
 10
334.095
 20
302.39
  0
VERTEX
  8
LAYER_4
 10
334.095
 20
302.15
  0
SEQEND
  0
POLYLINE
  8
LAYER_4
 40
0.105834
 41
0.105834
 66
1
 10
0
 20
0
 30
0
  0
VERTEX
  8
LAYER_4
 10
185.095
 20
301.55
  0
VERTEX
  8
LAYER_4
 10
186.295
 20
301.55
  0
SEQEND
  0
POLYLINE
  8
LAYER_4
 40
0.105834
 41
0.105834
 66
1
 10
0
 20
0
 30
0
  0
VERTEX
  8
LAYER_4
 10
353.095
 20
301.55
  0
VERTEX
  8
LAYER_4
 10
354.295
 20
301.55
  0
SEQEND
  0
POLYLINE
  8
LAYER_4
 40
0.105834
 41
0.105834
 66
1
 10
0
 20
0
 30
0
  0
VERTEX
  8
LAYER_4
 10
185.495
 20
301.75
  0
VERTEX
  8
LAYER_4
 10
353.895
 20
301.75
  0
SEQEND
  0
POLYLINE
  8
LAYER_4
 40
0.105834
 41
0.105834
 66
1
 10
0
 20
0
 30
0
  0
VERTEX
  8
LAYER_4
 10
185.095
 20
302.15
  0
VERTEX
  8
LAYER_4
 10
354.295
 20
302.15
  0
SEQEND
  0
POLYLINE
  8
LAYER_4
 40
0.105834
 41
0.105834
 66
1
 10
0
 20
0
 30
0
  0
VERTEX
  8
LAYER_4
 10
321.295
 20
302.39
  0
VERTEX
  8
LAYER_4
 10
334.095
 20
302.39
  0
SEQEND
  0
POLYLINE
  8
LAYER_4
 40
0.105834
 41
0.105834
 66
1
 10
0
 20
0
 30
0
  0
VERTEX
  8
LAYER_4
 10
228.775
 20
302.47
  0
VERTEX
  8
LAYER_4
 10
262.615
 20
302.47
  0
SEQEND
  0
POLYLINE
  8
LAYER_4
 40
0.105834
 41
0.105834
 66
1
 10
0
 20
0
 30
0
  0
VERTEX
  8
LAYER_4
 10
321.375
 20
302.47
  0
VERTEX
  8
LAYER_4
 10
334.015
 20
302.47
  0
SEQEND
  0
POLYLINE
  8
LAYER_4
 40
0.105834
 41
0.105834
 66
1
 10
0
 20
0
 30
0
  0
VERTEX
  8
LAYER_4
 10
222.335
 20
302.67
  0
VERTEX
  8
LAYER_4
 10
225.935
 20
302.67
  0
SEQEND
  0
POLYLINE
  8
LAYER_4
 40
0.105834
 41
0.105834
 66
1
 10
0
 20
0
 30
0
  0
VERTEX
  8
LAYER_4
 10
350.095
 20
167.95
  0
VERTEX
  8
LAYER_4
 10
350.095
 20
168.55
  0
SEQEND
  0
POLYLINE
  8
LAYER_4
 40
0.105834
 41
0.105834
 66
1
 10
0
 20
0
 30
0
  0
VERTEX
  8
LAYER_4
 10
350.495
 20
168.35
  0
VERTEX
  8
LAYER_4
 10
350.495
 20
168.55
  0
SEQEND
  0
POLYLINE
  8
LAYER_4
 40
0.105834
 41
0.105834
 66
1
 10
0
 20
0
 30
0
  0
VERTEX
  8
LAYER_4
 10
353.095
 20
302.15
  0
VERTEX
  8
LAYER_4
 10
353.095
 20
301.55
  0
SEQEND
  0
POLYLINE
  8
LAYER_4
 40
0.105834
 41
0.105834
 66
1
 10
0
 20
0
 30
0
  0
VERTEX
  8
LAYER_4
 10
353.495
 20
167.95
  0
VERTEX
  8
LAYER_4
 10
353.495
 20
301.55
  0
SEQEND
  0
POLYLINE
  8
LAYER_4
 40
0.105834
 41
0.105834
 66
1
 10
0
 20
0
 30
0
  0
VERTEX
  8
LAYER_4
 10
353.64
 20
301.75
  0
VERTEX
  8
LAYER_4
 10
353.64
 20
302.15
  0
SEQEND
  0
POLYLINE
  8
LAYER_4
 40
0.105834
 41
0.105834
 66
1
 10
0
 20
0
 30
0
  0
VERTEX
  8
LAYER_4
 10
353.844
 20
159.15
  0
VERTEX
  8
LAYER_4
 10
353.844
 20
159.347
  0
SEQEND
  0
POLYLINE
  8
LAYER_4
 40
0.105834
 41
0.105834
 66
1
 10
0
 20
0
 30
0
  0
VERTEX
  8
LAYER_4
 10
353.895
 20
301.75
  0
VERTEX
  8
LAYER_4
 10
353.895
 20
301.55
  0
SEQEND
  0
POLYLINE
  8
LAYER_4
 40
0.105834
 41
0.105834
 66
1
 10
0
 20
0
 30
0
  0
VERTEX
  8
LAYER_4
 10
354.295
 20
167.95
  0
VERTEX
  8
LAYER_4
 10
354.295
 20
302.15
  0
SEQEND
  0
POLYLINE
  8
LAYER_4
 40
0.105834
 41
0.105834
 66
1
 10
0
 20
0
 30
0
  0
VERTEX
  8
LAYER_4
 10
354.044
 20
159.34
  0
VERTEX
  8
LAYER_4
 10
354.495
 20
167.95
  0
SEQEND
  0
POLYLINE
  8
LAYER_4
 40
0.105834
 41
0.105834
 66
1
 10
0
 20
0
 30
0
  0
VERTEX
  8
LAYER_4
 10
476.703
 20
159.15
  0
VERTEX
  8
LAYER_4
 10
462.534
 20
159.15
  0
SEQEND
  0
POLYLINE
  8
LAYER_4
 40
0.105834
 41
0.105834
 66
1
 10
0
 20
0
 30
0
  0
VERTEX
  8
LAYER_4
 10
476.668
 20
159.34
  0
VERTEX
  8
LAYER_4
 10
462.533
 20
159.34
  0
SEQEND
  0
POLYLINE
  8
LAYER_4
 40
0.105834
 41
0.105834
 66
1
 10
0
 20
0
 30
0
  0
VERTEX
  8
LAYER_4
 10
462.183
 20
167.95
  0
VERTEX
  8
LAYER_4
 10
479.503
 20
167.95
  0
SEQEND
  0
POLYLINE
  8
LAYER_4
 40
0.105834
 41
0.105834
 66
1
 10
0
 20
0
 30
0
  0
VERTEX
  8
LAYER_4
 10
479.503
 20
168.95
  0
VERTEX
  8
LAYER_4
 10
480.703
 20
168.95
  0
SEQEND
  0
POLYLINE
  8
LAYER_4
 40
0.105834
 41
0.105834
 66
1
 10
0
 20
0
 30
0
  0
VERTEX
  8
LAYER_4
 10
479.503
 20
169.63
  0
VERTEX
  8
LAYER_4
 10
479.103
 20
169.63
  0
SEQEND
  0
POLYLINE
  8
LAYER_4
 40
0.105834
 41
0.105834
 66
1
 10
0
 20
0
 30
0
  0
VERTEX
  8
LAYER_4
 10
481.103
 20
169.95
  0
VERTEX
  8
LAYER_4
 10
481.503
 20
169.95
  0
SEQEND
  0
POLYLINE
  8
LAYER_4
 40
0.105834
 41
0.105834
 66
1
 10
0
 20
0
 30
0
  0
VERTEX
  8
LAYER_4
 10
477.223
 20
175.95
  0
VERTEX
  8
LAYER_4
 10
477.266
 20
175.95
  0
SEQEND
  0
POLYLINE
  8
LAYER_4
 40
0.105834
 41
0.105834
 66
1
 10
0
 20
0
 30
0
  0
VERTEX
  8
LAYER_4
 10
481.103
 20
177.95
  0
VERTEX
  8
LAYER_4
 10
481.503
 20
177.95
  0
SEQEND
  0
POLYLINE
  8
LAYER_4
 40
0.105834
 41
0.105834
 66
1
 10
0
 20
0
 30
0
  0
VERTEX
  8
LAYER_4
 10
479.503
 20
178.95
  0
VERTEX
  8
LAYER_4
 10
480.703
 20
178.95
  0
SEQEND
  0
POLYLINE
  8
LAYER_4
 40
0.105834
 41
0.105834
 66
1
 10
0
 20
0
 30
0
  0
VERTEX
  8
LAYER_4
 10
465.003
 20
183.55
  0
VERTEX
  8
LAYER_4
 10
466.003
 20
183.55
  0
SEQEND
  0
POLYLINE
  8
LAYER_4
 40
0.105834
 41
0.105834
 66
1
 10
0
 20
0
 30
0
  0
VERTEX
  8
LAYER_4
 10
468.203
 20
183.55
  0
VERTEX
  8
LAYER_4
 10
469.203
 20
183.55
  0
SEQEND
  0
POLYLINE
  8
LAYER_4
 40
0.105834
 41
0.105834
 66
1
 10
0
 20
0
 30
0
  0
VERTEX
  8
LAYER_4
 10
471.403
 20
183.55
  0
VERTEX
  8
LAYER_4
 10
472.403
 20
183.55
  0
SEQEND
  0
POLYLINE
  8
LAYER_4
 40
0.105834
 41
0.105834
 66
1
 10
0
 20
0
 30
0
  0
VERTEX
  8
LAYER_4
 10
465.783
 20
183.69
  0
VERTEX
  8
LAYER_4
 10
466.183
 20
183.69
  0
SEQEND
  0
POLYLINE
  8
LAYER_4
 40
0.105834
 41
0.105834
 66
1
 10
0
 20
0
 30
0
  0
VERTEX
  8
LAYER_4
 10
472.663
 20
183.69
  0
VERTEX
  8
LAYER_4
 10
472.707
 20
183.69
  0
SEQEND
  0
POLYLINE
  8
LAYER_4
 40
0.105834
 41
0.105834
 66
1
 10
0
 20
0
 30
0
  0
VERTEX
  8
LAYER_4
 10
466.183
 20
183.75
  0
VERTEX
  8
LAYER_4
 10
466.35
 20
183.75
  0
SEQEND
  0
POLYLINE
  8
LAYER_4
 40
0.105834
 41
0.105834
 66
1
 10
0
 20
0
 30
0
  0
VERTEX
  8
LAYER_4
 10
472.403
 20
184.35
  0
VERTEX
  8
LAYER_4
 10
471.403
 20
184.35
  0
SEQEND
  0
POLYLINE
  8
LAYER_4
 40
0.105834
 41
0.105834
 66
1
 10
0
 20
0
 30
0
  0
VERTEX
  8
LAYER_4
 10
466.003
 20
184.35
  0
VERTEX
  8
LAYER_4
 10
465.003
 20
184.35
  0
SEQEND
  0
POLYLINE
  8
LAYER_4
 40
0.105834
 41
0.105834
 66
1
 10
0
 20
0
 30
0
  0
VERTEX
  8
LAYER_4
 10
468.203
 20
184.35
  0
VERTEX
  8
LAYER_4
 10
469.203
 20
184.35
  0
SEQEND
  0
POLYLINE
  8
LAYER_4
 40
0.105834
 41
0.105834
 66
1
 10
0
 20
0
 30
0
  0
VERTEX
  8
LAYER_4
 10
465.003
 20
185.55
  0
VERTEX
  8
LAYER_4
 10
466.003
 20
185.55
  0
SEQEND
  0
POLYLINE
  8
LAYER_4
 40
0.105834
 41
0.105834
 66
1
 10
0
 20
0
 30
0
  0
VERTEX
  8
LAYER_4
 10
468.203
 20
185.55
  0
VERTEX
  8
LAYER_4
 10
469.203
 20
185.55
  0
SEQEND
  0
POLYLINE
  8
LAYER_4
 40
0.105834
 41
0.105834
 66
1
 10
0
 20
0
 30
0
  0
VERTEX
  8
LAYER_4
 10
471.403
 20
185.55
  0
VERTEX
  8
LAYER_4
 10
472.403
 20
185.55
  0
SEQEND
  0
POLYLINE
  8
LAYER_4
 40
0.105834
 41
0.105834
 66
1
 10
0
 20
0
 30
0
  0
VERTEX
  8
LAYER_4
 10
466.183
 20
185.75
  0
VERTEX
  8
LAYER_4
 10
466.35
 20
185.75
  0
SEQEND
  0
POLYLINE
  8
LAYER_4
 40
0.105834
 41
0.105834
 66
1
 10
0
 20
0
 30
0
  0
VERTEX
  8
LAYER_4
 10
464.604
 20
185.95
  0
VERTEX
  8
LAYER_4
 10
464.983
 20
185.95
  0
SEQEND
  0
POLYLINE
  8
LAYER_4
 40
0.105834
 41
0.105834
 66
1
 10
0
 20
0
 30
0
  0
VERTEX
  8
LAYER_4
 10
472.403
 20
186.35
  0
VERTEX
  8
LAYER_4
 10
471.403
 20
186.35
  0
SEQEND
  0
POLYLINE
  8
LAYER_4
 40
0.105834
 41
0.105834
 66
1
 10
0
 20
0
 30
0
  0
VERTEX
  8
LAYER_4
 10
466.003
 20
186.35
  0
VERTEX
  8
LAYER_4
 10
465.003
 20
186.35
  0
SEQEND
  0
POLYLINE
  8
LAYER_4
 40
0.105834
 41
0.105834
 66
1
 10
0
 20
0
 30
0
  0
VERTEX
  8
LAYER_4
 10
468.203
 20
186.35
  0
VERTEX
  8
LAYER_4
 10
469.203
 20
186.35
  0
SEQEND
  0
POLYLINE
  8
LAYER_4
 40
0.105834
 41
0.105834
 66
1
 10
0
 20
0
 30
0
  0
VERTEX
  8
LAYER_4
 10
478.423
 20
300.87
  0
VERTEX
  8
LAYER_4
 10
478.295
 20
300.76
  0
SEQEND
  0
POLYLINE
  8
LAYER_4
 40
0.105834
 41
0.105834
 66
1
 10
0
 20
0
 30
0
  0
VERTEX
  8
LAYER_4
 10
465.003
 20
187.55
  0
VERTEX
  8
LAYER_4
 10
466.003
 20
187.55
  0
SEQEND
  0
POLYLINE
  8
LAYER_4
 40
0.105834
 41
0.105834
 66
1
 10
0
 20
0
 30
0
  0
VERTEX
  8
LAYER_4
 10
468.203
 20
187.55
  0
VERTEX
  8
LAYER_4
 10
469.203
 20
187.55
  0
SEQEND
  0
POLYLINE
  8
LAYER_4
 40
0.105834
 41
0.105834
 66
1
 10
0
 20
0
 30
0
  0
VERTEX
  8
LAYER_4
 10
471.403
 20
187.55
  0
VERTEX
  8
LAYER_4
 10
472.403
 20
187.55
  0
SEQEND
  0
POLYLINE
  8
LAYER_4
 40
0.105834
 41
0.105834
 66
1
 10
0
 20
0
 30
0
  0
VERTEX
  8
LAYER_4
 10
472.403
 20
188.35
  0
VERTEX
  8
LAYER_4
 10
471.403
 20
188.35
  0
SEQEND
  0
POLYLINE
  8
LAYER_4
 40
0.105834
 41
0.105834
 66
1
 10
0
 20
0
 30
0
  0
VERTEX
  8
LAYER_4
 10
469.203
 20
188.35
  0
VERTEX
  8
LAYER_4
 10
468.203
 20
188.35
  0
SEQEND
  0
POLYLINE
  8
LAYER_4
 40
0.105834
 41
0.105834
 66
1
 10
0
 20
0
 30
0
  0
VERTEX
  8
LAYER_4
 10
466.003
 20
188.35
  0
VERTEX
  8
LAYER_4
 10
465.003
 20
188.35
  0
SEQEND
  0
POLYLINE
  8
LAYER_4
 40
0.105834
 41
0.105834
 66
1
 10
0
 20
0
 30
0
  0
VERTEX
  8
LAYER_4
 10
465.003
 20
189.55
  0
VERTEX
  8
LAYER_4
 10
466.003
 20
189.55
  0
SEQEND
  0
POLYLINE
  8
LAYER_4
 40
0.105834
 41
0.105834
 66
1
 10
0
 20
0
 30
0
  0
VERTEX
  8
LAYER_4
 10
468.203
 20
189.55
  0
VERTEX
  8
LAYER_4
 10
469.203
 20
189.55
  0
SEQEND
  0
POLYLINE
  8
LAYER_4
 40
0.105834
 41
0.105834
 66
1
 10
0
 20
0
 30
0
  0
VERTEX
  8
LAYER_4
 10
471.403
 20
189.55
  0
VERTEX
  8
LAYER_4
 10
472.403
 20
189.55
  0
SEQEND
  0
POLYLINE
  8
LAYER_4
 40
0.105834
 41
0.105834
 66
1
 10
0
 20
0
 30
0
  0
VERTEX
  8
LAYER_4
 10
472.403
 20
190.35
  0
VERTEX
  8
LAYER_4
 10
471.403
 20
190.35
  0
SEQEND
  0
POLYLINE
  8
LAYER_4
 40
0.105834
 41
0.105834
 66
1
 10
0
 20
0
 30
0
  0
VERTEX
  8
LAYER_4
 10
469.203
 20
190.35
  0
VERTEX
  8
LAYER_4
 10
468.203
 20
190.35
  0
SEQEND
  0
POLYLINE
  8
LAYER_4
 40
0.105834
 41
0.105834
 66
1
 10
0
 20
0
 30
0
  0
VERTEX
  8
LAYER_4
 10
466.003
 20
190.35
  0
VERTEX
  8
LAYER_4
 10
465.003
 20
190.35
  0
SEQEND
  0
POLYLINE
  8
LAYER_4
 40
0.105834
 41
0.105834
 66
1
 10
0
 20
0
 30
0
  0
VERTEX
  8
LAYER_4
 10
465.003
 20
191.55
  0
VERTEX
  8
LAYER_4
 10
466.003
 20
191.55
  0
SEQEND
  0
POLYLINE
  8
LAYER_4
 40
0.105834
 41
0.105834
 66
1
 10
0
 20
0
 30
0
  0
VERTEX
  8
LAYER_4
 10
468.203
 20
191.55
  0
VERTEX
  8
LAYER_4
 10
469.203
 20
191.55
  0
SEQEND
  0
POLYLINE
  8
LAYER_4
 40
0.105834
 41
0.105834
 66
1
 10
0
 20
0
 30
0
  0
VERTEX
  8
LAYER_4
 10
471.403
 20
191.55
  0
VERTEX
  8
LAYER_4
 10
472.403
 20
191.55
  0
SEQEND
  0
POLYLINE
  8
LAYER_4
 40
0.105834
 41
0.105834
 66
1
 10
0
 20
0
 30
0
  0
VERTEX
  8
LAYER_4
 10
472.403
 20
192.35
  0
VERTEX
  8
LAYER_4
 10
471.403
 20
192.35
  0
SEQEND
  0
POLYLINE
  8
LAYER_4
 40
0.105834
 41
0.105834
 66
1
 10
0
 20
0
 30
0
  0
VERTEX
  8
LAYER_4
 10
469.203
 20
192.35
  0
VERTEX
  8
LAYER_4
 10
468.203
 20
192.35
  0
SEQEND
  0
POLYLINE
  8
LAYER_4
 40
0.105834
 41
0.105834
 66
1
 10
0
 20
0
 30
0
  0
VERTEX
  8
LAYER_4
 10
466.003
 20
192.35
  0
VERTEX
  8
LAYER_4
 10
465.003
 20
192.35
  0
SEQEND
  0
POLYLINE
  8
LAYER_4
 40
0.105834
 41
0.105834
 66
1
 10
0
 20
0
 30
0
  0
VERTEX
  8
LAYER_4
 10
465.003
 20
193.55
  0
VERTEX
  8
LAYER_4
 10
466.003
 20
193.55
  0
SEQEND
  0
POLYLINE
  8
LAYER_4
 40
0.105834
 41
0.105834
 66
1
 10
0
 20
0
 30
0
  0
VERTEX
  8
LAYER_4
 10
468.203
 20
193.55
  0
VERTEX
  8
LAYER_4
 10
469.203
 20
193.55
  0
SEQEND
  0
POLYLINE
  8
LAYER_4
 40
0.105834
 41
0.105834
 66
1
 10
0
 20
0
 30
0
  0
VERTEX
  8
LAYER_4
 10
471.403
 20
193.55
  0
VERTEX
  8
LAYER_4
 10
472.403
 20
193.55
  0
SEQEND
  0
POLYLINE
  8
LAYER_4
 40
0.105834
 41
0.105834
 66
1
 10
0
 20
0
 30
0
  0
VERTEX
  8
LAYER_4
 10
472.403
 20
194.35
  0
VERTEX
  8
LAYER_4
 10
471.403
 20
194.35
  0
SEQEND
  0
POLYLINE
  8
LAYER_4
 40
0.105834
 41
0.105834
 66
1
 10
0
 20
0
 30
0
  0
VERTEX
  8
LAYER_4
 10
469.203
 20
194.35
  0
VERTEX
  8
LAYER_4
 10
468.203
 20
194.35
  0
SEQEND
  0
POLYLINE
  8
LAYER_4
 40
0.105834
 41
0.105834
 66
1
 10
0
 20
0
 30
0
  0
VERTEX
  8
LAYER_4
 10
466.003
 20
194.35
  0
VERTEX
  8
LAYER_4
 10
465.003
 20
194.35
  0
SEQEND
  0
POLYLINE
  8
LAYER_4
 40
0.105834
 41
0.105834
 66
1
 10
0
 20
0
 30
0
  0
VERTEX
  8
LAYER_4
 10
465.003
 20
195.55
  0
VERTEX
  8
LAYER_4
 10
466.003
 20
195.55
  0
SEQEND
  0
POLYLINE
  8
LAYER_4
 40
0.105834
 41
0.105834
 66
1
 10
0
 20
0
 30
0
  0
VERTEX
  8
LAYER_4
 10
468.203
 20
195.55
  0
VERTEX
  8
LAYER_4
 10
469.203
 20
195.55
  0
SEQEND
  0
POLYLINE
  8
LAYER_4
 40
0.105834
 41
0.105834
 66
1
 10
0
 20
0
 30
0
  0
VERTEX
  8
LAYER_4
 10
471.403
 20
195.55
  0
VERTEX
  8
LAYER_4
 10
472.403
 20
195.55
  0
SEQEND
  0
POLYLINE
  8
LAYER_4
 40
0.105834
 41
0.105834
 66
1
 10
0
 20
0
 30
0
  0
VERTEX
  8
LAYER_4
 10
472.403
 20
196.35
  0
VERTEX
  8
LAYER_4
 10
471.403
 20
196.35
  0
SEQEND
  0
POLYLINE
  8
LAYER_4
 40
0.105834
 41
0.105834
 66
1
 10
0
 20
0
 30
0
  0
VERTEX
  8
LAYER_4
 10
469.203
 20
196.35
  0
VERTEX
  8
LAYER_4
 10
468.203
 20
196.35
  0
SEQEND
  0
POLYLINE
  8
LAYER_4
 40
0.105834
 41
0.105834
 66
1
 10
0
 20
0
 30
0
  0
VERTEX
  8
LAYER_4
 10
466.003
 20
196.35
  0
VERTEX
  8
LAYER_4
 10
465.003
 20
196.35
  0
SEQEND
  0
POLYLINE
  8
LAYER_4
 40
0.105834
 41
0.105834
 66
1
 10
0
 20
0
 30
0
  0
VERTEX
  8
LAYER_4
 10
465.003
 20
197.55
  0
VERTEX
  8
LAYER_4
 10
466.003
 20
197.55
  0
SEQEND
  0
POLYLINE
  8
LAYER_4
 40
0.105834
 41
0.105834
 66
1
 10
0
 20
0
 30
0
  0
VERTEX
  8
LAYER_4
 10
468.203
 20
197.55
  0
VERTEX
  8
LAYER_4
 10
469.203
 20
197.55
  0
SEQEND
  0
POLYLINE
  8
LAYER_4
 40
0.105834
 41
0.105834
 66
1
 10
0
 20
0
 30
0
  0
VERTEX
  8
LAYER_4
 10
471.403
 20
197.55
  0
VERTEX
  8
LAYER_4
 10
472.403
 20
197.55
  0
SEQEND
  0
POLYLINE
  8
LAYER_4
 40
0.105834
 41
0.105834
 66
1
 10
0
 20
0
 30
0
  0
VERTEX
  8
LAYER_4
 10
472.403
 20
198.35
  0
VERTEX
  8
LAYER_4
 10
471.403
 20
198.35
  0
SEQEND
  0
POLYLINE
  8
LAYER_4
 40
0.105834
 41
0.105834
 66
1
 10
0
 20
0
 30
0
  0
VERTEX
  8
LAYER_4
 10
469.203
 20
198.35
  0
VERTEX
  8
LAYER_4
 10
468.203
 20
198.35
  0
SEQEND
  0
POLYLINE
  8
LAYER_4
 40
0.105834
 41
0.105834
 66
1
 10
0
 20
0
 30
0
  0
VERTEX
  8
LAYER_4
 10
466.003
 20
198.35
  0
VERTEX
  8
LAYER_4
 10
465.003
 20
198.35
  0
SEQEND
  0
POLYLINE
  8
LAYER_4
 40
0.105834
 41
0.105834
 66
1
 10
0
 20
0
 30
0
  0
VERTEX
  8
LAYER_4
 10
465.003
 20
199.55
  0
VERTEX
  8
LAYER_4
 10
466.003
 20
199.55
  0
SEQEND
  0
POLYLINE
  8
LAYER_4
 40
0.105834
 41
0.105834
 66
1
 10
0
 20
0
 30
0
  0
VERTEX
  8
LAYER_4
 10
468.203
 20
199.55
  0
VERTEX
  8
LAYER_4
 10
469.203
 20
199.55
  0
SEQEND
  0
POLYLINE
  8
LAYER_4
 40
0.105834
 41
0.105834
 66
1
 10
0
 20
0
 30
0
  0
VERTEX
  8
LAYER_4
 10
471.403
 20
199.55
  0
VERTEX
  8
LAYER_4
 10
472.403
 20
199.55
  0
SEQEND
  0
POLYLINE
  8
LAYER_4
 40
0.105834
 41
0.105834
 66
1
 10
0
 20
0
 30
0
  0
VERTEX
  8
LAYER_4
 10
472.403
 20
200.35
  0
VERTEX
  8
LAYER_4
 10
471.403
 20
200.35
  0
SEQEND
  0
POLYLINE
  8
LAYER_4
 40
0.105834
 41
0.105834
 66
1
 10
0
 20
0
 30
0
  0
VERTEX
  8
LAYER_4
 10
469.203
 20
200.35
  0
VERTEX
  8
LAYER_4
 10
468.203
 20
200.35
  0
SEQEND
  0
POLYLINE
  8
LAYER_4
 40
0.105834
 41
0.105834
 66
1
 10
0
 20
0
 30
0
  0
VERTEX
  8
LAYER_4
 10
466.003
 20
200.35
  0
VERTEX
  8
LAYER_4
 10
465.003
 20
200.35
  0
SEQEND
  0
POLYLINE
  8
LAYER_4
 40
0.105834
 41
0.105834
 66
1
 10
0
 20
0
 30
0
  0
VERTEX
  8
LAYER_4
 10
465.003
 20
201.55
  0
VERTEX
  8
LAYER_4
 10
466.003
 20
201.55
  0
SEQEND
  0
POLYLINE
  8
LAYER_4
 40
0.105834
 41
0.105834
 66
1
 10
0
 20
0
 30
0
  0
VERTEX
  8
LAYER_4
 10
468.203
 20
201.55
  0
VERTEX
  8
LAYER_4
 10
469.203
 20
201.55
  0
SEQEND
  0
POLYLINE
  8
LAYER_4
 40
0.105834
 41
0.105834
 66
1
 10
0
 20
0
 30
0
  0
VERTEX
  8
LAYER_4
 10
471.403
 20
201.55
  0
VERTEX
  8
LAYER_4
 10
472.403
 20
201.55
  0
SEQEND
  0
POLYLINE
  8
LAYER_4
 40
0.105834
 41
0.105834
 66
1
 10
0
 20
0
 30
0
  0
VERTEX
  8
LAYER_4
 10
472.403
 20
202.35
  0
VERTEX
  8
LAYER_4
 10
471.403
 20
202.35
  0
SEQEND
  0
POLYLINE
  8
LAYER_4
 40
0.105834
 41
0.105834
 66
1
 10
0
 20
0
 30
0
  0
VERTEX
  8
LAYER_4
 10
469.203
 20
202.35
  0
VERTEX
  8
LAYER_4
 10
468.203
 20
202.35
  0
SEQEND
  0
POLYLINE
  8
LAYER_4
 40
0.105834
 41
0.105834
 66
1
 10
0
 20
0
 30
0
  0
VERTEX
  8
LAYER_4
 10
466.003
 20
202.35
  0
VERTEX
  8
LAYER_4
 10
465.003
 20
202.35
  0
SEQEND
  0
POLYLINE
  8
LAYER_4
 40
0.105834
 41
0.105834
 66
1
 10
0
 20
0
 30
0
  0
VERTEX
  8
LAYER_4
 10
465.003
 20
203.55
  0
VERTEX
  8
LAYER_4
 10
466.003
 20
203.55
  0
SEQEND
  0
POLYLINE
  8
LAYER_4
 40
0.105834
 41
0.105834
 66
1
 10
0
 20
0
 30
0
  0
VERTEX
  8
LAYER_4
 10
468.203
 20
203.55
  0
VERTEX
  8
LAYER_4
 10
469.203
 20
203.55
  0
SEQEND
  0
POLYLINE
  8
LAYER_4
 40
0.105834
 41
0.105834
 66
1
 10
0
 20
0
 30
0
  0
VERTEX
  8
LAYER_4
 10
471.403
 20
203.55
  0
VERTEX
  8
LAYER_4
 10
472.403
 20
203.55
  0
SEQEND
  0
POLYLINE
  8
LAYER_4
 40
0.105834
 41
0.105834
 66
1
 10
0
 20
0
 30
0
  0
VERTEX
  8
LAYER_4
 10
466.304
 20
203.95
  0
VERTEX
  8
LAYER_4
 10
466.403
 20
203.95
  0
SEQEND
  0
POLYLINE
  8
LAYER_4
 40
0.105834
 41
0.105834
 66
1
 10
0
 20
0
 30
0
  0
VERTEX
  8
LAYER_4
 10
465.576
 20
185.55
  0
VERTEX
  8
LAYER_4
 10
464.983
 20
185.95
  0
SEQEND
  0
POLYLINE
  8
LAYER_4
 40
0.105834
 41
0.105834
 66
1
 10
0
 20
0
 30
0
  0
VERTEX
  8
LAYER_4
 10
472.403
 20
204.35
  0
VERTEX
  8
LAYER_4
 10
471.403
 20
204.35
  0
SEQEND
  0
POLYLINE
  8
LAYER_4
 40
0.105834
 41
0.105834
 66
1
 10
0
 20
0
 30
0
  0
VERTEX
  8
LAYER_4
 10
469.203
 20
204.35
  0
VERTEX
  8
LAYER_4
 10
468.203
 20
204.35
  0
SEQEND
  0
POLYLINE
  8
LAYER_4
 40
0.105834
 41
0.105834
 66
1
 10
0
 20
0
 30
0
  0
VERTEX
  8
LAYER_4
 10
466.003
 20
204.35
  0
VERTEX
  8
LAYER_4
 10
465.003
 20
204.35
  0
SEQEND
  0
POLYLINE
  8
LAYER_4
 40
0.105834
 41
0.105834
 66
1
 10
0
 20
0
 30
0
  0
VERTEX
  8
LAYER_4
 10
465.003
 20
205.55
  0
VERTEX
  8
LAYER_4
 10
466.003
 20
205.55
  0
SEQEND
  0
POLYLINE
  8
LAYER_4
 40
0.105834
 41
0.105834
 66
1
 10
0
 20
0
 30
0
  0
VERTEX
  8
LAYER_4
 10
468.203
 20
205.55
  0
VERTEX
  8
LAYER_4
 10
469.203
 20
205.55
  0
SEQEND
  0
POLYLINE
  8
LAYER_4
 40
0.105834
 41
0.105834
 66
1
 10
0
 20
0
 30
0
  0
VERTEX
  8
LAYER_4
 10
471.403
 20
205.55
  0
VERTEX
  8
LAYER_4
 10
472.403
 20
205.55
  0
SEQEND
  0
POLYLINE
  8
LAYER_4
 40
0.105834
 41
0.105834
 66
1
 10
0
 20
0
 30
0
  0
VERTEX
  8
LAYER_4
 10
472.403
 20
206.35
  0
VERTEX
  8
LAYER_4
 10
471.403
 20
206.35
  0
SEQEND
  0
POLYLINE
  8
LAYER_4
 40
0.105834
 41
0.105834
 66
1
 10
0
 20
0
 30
0
  0
VERTEX
  8
LAYER_4
 10
469.203
 20
206.35
  0
VERTEX
  8
LAYER_4
 10
468.203
 20
206.35
  0
SEQEND
  0
POLYLINE
  8
LAYER_4
 40
0.105834
 41
0.105834
 66
1
 10
0
 20
0
 30
0
  0
VERTEX
  8
LAYER_4
 10
466.003
 20
206.35
  0
VERTEX
  8
LAYER_4
 10
465.003
 20
206.35
  0
SEQEND
  0
POLYLINE
  8
LAYER_4
 40
0.105834
 41
0.105834
 66
1
 10
0
 20
0
 30
0
  0
VERTEX
  8
LAYER_4
 10
465.003
 20
207.55
  0
VERTEX
  8
LAYER_4
 10
466.003
 20
207.55
  0
SEQEND
  0
POLYLINE
  8
LAYER_4
 40
0.105834
 41
0.105834
 66
1
 10
0
 20
0
 30
0
  0
VERTEX
  8
LAYER_4
 10
468.203
 20
207.55
  0
VERTEX
  8
LAYER_4
 10
469.203
 20
207.55
  0
SEQEND
  0
POLYLINE
  8
LAYER_4
 40
0.105834
 41
0.105834
 66
1
 10
0
 20
0
 30
0
  0
VERTEX
  8
LAYER_4
 10
471.403
 20
207.55
  0
VERTEX
  8
LAYER_4
 10
472.403
 20
207.55
  0
SEQEND
  0
POLYLINE
  8
LAYER_4
 40
0.105834
 41
0.105834
 66
1
 10
0
 20
0
 30
0
  0
VERTEX
  8
LAYER_4
 10
472.403
 20
208.35
  0
VERTEX
  8
LAYER_4
 10
471.403
 20
208.35
  0
SEQEND
  0
POLYLINE
  8
LAYER_4
 40
0.105834
 41
0.105834
 66
1
 10
0
 20
0
 30
0
  0
VERTEX
  8
LAYER_4
 10
469.203
 20
208.35
  0
VERTEX
  8
LAYER_4
 10
468.203
 20
208.35
  0
SEQEND
  0
POLYLINE
  8
LAYER_4
 40
0.105834
 41
0.105834
 66
1
 10
0
 20
0
 30
0
  0
VERTEX
  8
LAYER_4
 10
466.003
 20
208.35
  0
VERTEX
  8
LAYER_4
 10
465.003
 20
208.35
  0
SEQEND
  0
POLYLINE
  8
LAYER_4
 40
0.105834
 41
0.105834
 66
1
 10
0
 20
0
 30
0
  0
VERTEX
  8
LAYER_4
 10
465.003
 20
209.55
  0
VERTEX
  8
LAYER_4
 10
466.003
 20
209.55
  0
SEQEND
  0
POLYLINE
  8
LAYER_4
 40
0.105834
 41
0.105834
 66
1
 10
0
 20
0
 30
0
  0
VERTEX
  8
LAYER_4
 10
468.203
 20
209.55
  0
VERTEX
  8
LAYER_4
 10
469.203
 20
209.55
  0
SEQEND
  0
POLYLINE
  8
LAYER_4
 40
0.105834
 41
0.105834
 66
1
 10
0
 20
0
 30
0
  0
VERTEX
  8
LAYER_4
 10
471.403
 20
209.55
  0
VERTEX
  8
LAYER_4
 10
472.403
 20
209.55
  0
SEQEND
  0
POLYLINE
  8
LAYER_4
 40
0.105834
 41
0.105834
 66
1
 10
0
 20
0
 30
0
  0
VERTEX
  8
LAYER_4
 10
476.636
 20
275.481
  0
VERTEX
  8
LAYER_4
 10
477.372
 20
276.218
  0
SEQEND
  0
POLYLINE
  8
LAYER_4
 40
0.105834
 41
0.105834
 66
1
 10
0
 20
0
 30
0
  0
VERTEX
  8
LAYER_4
 10
472.403
 20
210.35
  0
VERTEX
  8
LAYER_4
 10
471.403
 20
210.35
  0
SEQEND
  0
POLYLINE
  8
LAYER_4
 40
0.105834
 41
0.105834
 66
1
 10
0
 20
0
 30
0
  0
VERTEX
  8
LAYER_4
 10
469.203
 20
210.35
  0
VERTEX
  8
LAYER_4
 10
468.203
 20
210.35
  0
SEQEND
  0
POLYLINE
  8
LAYER_4
 40
0.105834
 41
0.105834
 66
1
 10
0
 20
0
 30
0
  0
VERTEX
  8
LAYER_4
 10
466.003
 20
210.35
  0
VERTEX
  8
LAYER_4
 10
465.003
 20
210.35
  0
SEQEND
  0
POLYLINE
  8
LAYER_4
 40
0.105834
 41
0.105834
 66
1
 10
0
 20
0
 30
0
  0
VERTEX
  8
LAYER_4
 10
465.003
 20
211.55
  0
VERTEX
  8
LAYER_4
 10
466.003
 20
211.55
  0
SEQEND
  0
POLYLINE
  8
LAYER_4
 40
0.105834
 41
0.105834
 66
1
 10
0
 20
0
 30
0
  0
VERTEX
  8
LAYER_4
 10
468.203
 20
211.55
  0
VERTEX
  8
LAYER_4
 10
469.203
 20
211.55
  0
SEQEND
  0
POLYLINE
  8
LAYER_4
 40
0.105834
 41
0.105834
 66
1
 10
0
 20
0
 30
0
  0
VERTEX
  8
LAYER_4
 10
471.403
 20
211.55
  0
VERTEX
  8
LAYER_4
 10
472.403
 20
211.55
  0
SEQEND
  0
POLYLINE
  8
LAYER_4
 40
0.105834
 41
0.105834
 66
1
 10
0
 20
0
 30
0
  0
VERTEX
  8
LAYER_4
 10
472.403
 20
212.35
  0
VERTEX
  8
LAYER_4
 10
471.403
 20
212.35
  0
SEQEND
  0
POLYLINE
  8
LAYER_4
 40
0.105834
 41
0.105834
 66
1
 10
0
 20
0
 30
0
  0
VERTEX
  8
LAYER_4
 10
469.203
 20
212.35
  0
VERTEX
  8
LAYER_4
 10
468.203
 20
212.35
  0
SEQEND
  0
POLYLINE
  8
LAYER_4
 40
0.105834
 41
0.105834
 66
1
 10
0
 20
0
 30
0
  0
VERTEX
  8
LAYER_4
 10
466.003
 20
212.35
  0
VERTEX
  8
LAYER_4
 10
465.003
 20
212.35
  0
SEQEND
  0
POLYLINE
  8
LAYER_4
 40
0.105834
 41
0.105834
 66
1
 10
0
 20
0
 30
0
  0
VERTEX
  8
LAYER_4
 10
465.003
 20
213.55
  0
VERTEX
  8
LAYER_4
 10
466.003
 20
213.55
  0
SEQEND
  0
POLYLINE
  8
LAYER_4
 40
0.105834
 41
0.105834
 66
1
 10
0
 20
0
 30
0
  0
VERTEX
  8
LAYER_4
 10
468.203
 20
213.55
  0
VERTEX
  8
LAYER_4
 10
469.203
 20
213.55
  0
SEQEND
  0
POLYLINE
  8
LAYER_4
 40
0.105834
 41
0.105834
 66
1
 10
0
 20
0
 30
0
  0
VERTEX
  8
LAYER_4
 10
471.403
 20
213.55
  0
VERTEX
  8
LAYER_4
 10
472.403
 20
213.55
  0
SEQEND
  0
POLYLINE
  8
LAYER_4
 40
0.105834
 41
0.105834
 66
1
 10
0
 20
0
 30
0
  0
VERTEX
  8
LAYER_4
 10
472.403
 20
214.35
  0
VERTEX
  8
LAYER_4
 10
471.403
 20
214.35
  0
SEQEND
  0
POLYLINE
  8
LAYER_4
 40
0.105834
 41
0.105834
 66
1
 10
0
 20
0
 30
0
  0
VERTEX
  8
LAYER_4
 10
469.203
 20
214.35
  0
VERTEX
  8
LAYER_4
 10
468.203
 20
214.35
  0
SEQEND
  0
POLYLINE
  8
LAYER_4
 40
0.105834
 41
0.105834
 66
1
 10
0
 20
0
 30
0
  0
VERTEX
  8
LAYER_4
 10
466.003
 20
214.35
  0
VERTEX
  8
LAYER_4
 10
465.003
 20
214.35
  0
SEQEND
  0
POLYLINE
  8
LAYER_4
 40
0.105834
 41
0.105834
 66
1
 10
0
 20
0
 30
0
  0
VERTEX
  8
LAYER_4
 10
465.003
 20
215.55
  0
VERTEX
  8
LAYER_4
 10
466.003
 20
215.55
  0
SEQEND
  0
POLYLINE
  8
LAYER_4
 40
0.105834
 41
0.105834
 66
1
 10
0
 20
0
 30
0
  0
VERTEX
  8
LAYER_4
 10
468.203
 20
215.55
  0
VERTEX
  8
LAYER_4
 10
469.203
 20
215.55
  0
SEQEND
  0
POLYLINE
  8
LAYER_4
 40
0.105834
 41
0.105834
 66
1
 10
0
 20
0
 30
0
  0
VERTEX
  8
LAYER_4
 10
471.403
 20
215.55
  0
VERTEX
  8
LAYER_4
 10
472.403
 20
215.55
  0
SEQEND
  0
POLYLINE
  8
LAYER_4
 40
0.105834
 41
0.105834
 66
1
 10
0
 20
0
 30
0
  0
VERTEX
  8
LAYER_4
 10
472.403
 20
216.35
  0
VERTEX
  8
LAYER_4
 10
471.403
 20
216.35
  0
SEQEND
  0
POLYLINE
  8
LAYER_4
 40
0.105834
 41
0.105834
 66
1
 10
0
 20
0
 30
0
  0
VERTEX
  8
LAYER_4
 10
469.203
 20
216.35
  0
VERTEX
  8
LAYER_4
 10
468.203
 20
216.35
  0
SEQEND
  0
POLYLINE
  8
LAYER_4
 40
0.105834
 41
0.105834
 66
1
 10
0
 20
0
 30
0
  0
VERTEX
  8
LAYER_4
 10
466.003
 20
216.35
  0
VERTEX
  8
LAYER_4
 10
465.003
 20
216.35
  0
SEQEND
  0
POLYLINE
  8
LAYER_4
 40
0.105834
 41
0.105834
 66
1
 10
0
 20
0
 30
0
  0
VERTEX
  8
LAYER_4
 10
465.003
 20
217.55
  0
VERTEX
  8
LAYER_4
 10
466.003
 20
217.55
  0
SEQEND
  0
POLYLINE
  8
LAYER_4
 40
0.105834
 41
0.105834
 66
1
 10
0
 20
0
 30
0
  0
VERTEX
  8
LAYER_4
 10
468.203
 20
217.55
  0
VERTEX
  8
LAYER_4
 10
469.203
 20
217.55
  0
SEQEND
  0
POLYLINE
  8
LAYER_4
 40
0.105834
 41
0.105834
 66
1
 10
0
 20
0
 30
0
  0
VERTEX
  8
LAYER_4
 10
471.403
 20
217.55
  0
VERTEX
  8
LAYER_4
 10
472.403
 20
217.55
  0
SEQEND
  0
POLYLINE
  8
LAYER_4
 40
0.105834
 41
0.105834
 66
1
 10
0
 20
0
 30
0
  0
VERTEX
  8
LAYER_4
 10
472.403
 20
218.35
  0
VERTEX
  8
LAYER_4
 10
471.403
 20
218.35
  0
SEQEND
  0
POLYLINE
  8
LAYER_4
 40
0.105834
 41
0.105834
 66
1
 10
0
 20
0
 30
0
  0
VERTEX
  8
LAYER_4
 10
469.203
 20
218.35
  0
VERTEX
  8
LAYER_4
 10
468.203
 20
218.35
  0
SEQEND
  0
POLYLINE
  8
LAYER_4
 40
0.105834
 41
0.105834
 66
1
 10
0
 20
0
 30
0
  0
VERTEX
  8
LAYER_4
 10
466.003
 20
218.35
  0
VERTEX
  8
LAYER_4
 10
465.003
 20
218.35
  0
SEQEND
  0
POLYLINE
  8
LAYER_4
 40
0.105834
 41
0.105834
 66
1
 10
0
 20
0
 30
0
  0
VERTEX
  8
LAYER_4
 10
465.003
 20
219.55
  0
VERTEX
  8
LAYER_4
 10
466.003
 20
219.55
  0
SEQEND
  0
POLYLINE
  8
LAYER_4
 40
0.105834
 41
0.105834
 66
1
 10
0
 20
0
 30
0
  0
VERTEX
  8
LAYER_4
 10
468.203
 20
219.55
  0
VERTEX
  8
LAYER_4
 10
469.203
 20
219.55
  0
SEQEND
  0
POLYLINE
  8
LAYER_4
 40
0.105834
 41
0.105834
 66
1
 10
0
 20
0
 30
0
  0
VERTEX
  8
LAYER_4
 10
471.403
 20
219.55
  0
VERTEX
  8
LAYER_4
 10
472.403
 20
219.55
  0
SEQEND
  0
POLYLINE
  8
LAYER_4
 40
0.105834
 41
0.105834
 66
1
 10
0
 20
0
 30
0
  0
VERTEX
  8
LAYER_4
 10
472.403
 20
220.35
  0
VERTEX
  8
LAYER_4
 10
471.403
 20
220.35
  0
SEQEND
  0
POLYLINE
  8
LAYER_4
 40
0.105834
 41
0.105834
 66
1
 10
0
 20
0
 30
0
  0
VERTEX
  8
LAYER_4
 10
469.203
 20
220.35
  0
VERTEX
  8
LAYER_4
 10
468.203
 20
220.35
  0
SEQEND
  0
POLYLINE
  8
LAYER_4
 40
0.105834
 41
0.105834
 66
1
 10
0
 20
0
 30
0
  0
VERTEX
  8
LAYER_4
 10
466.003
 20
220.35
  0
VERTEX
  8
LAYER_4
 10
465.003
 20
220.35
  0
SEQEND
  0
POLYLINE
  8
LAYER_4
 40
0.105834
 41
0.105834
 66
1
 10
0
 20
0
 30
0
  0
VERTEX
  8
LAYER_4
 10
465.003
 20
221.55
  0
VERTEX
  8
LAYER_4
 10
466.003
 20
221.55
  0
SEQEND
  0
POLYLINE
  8
LAYER_4
 40
0.105834
 41
0.105834
 66
1
 10
0
 20
0
 30
0
  0
VERTEX
  8
LAYER_4
 10
468.203
 20
221.55
  0
VERTEX
  8
LAYER_4
 10
469.203
 20
221.55
  0
SEQEND
  0
POLYLINE
  8
LAYER_4
 40
0.105834
 41
0.105834
 66
1
 10
0
 20
0
 30
0
  0
VERTEX
  8
LAYER_4
 10
471.403
 20
221.55
  0
VERTEX
  8
LAYER_4
 10
472.403
 20
221.55
  0
SEQEND
  0
POLYLINE
  8
LAYER_4
 40
0.105834
 41
0.105834
 66
1
 10
0
 20
0
 30
0
  0
VERTEX
  8
LAYER_4
 10
472.403
 20
222.35
  0
VERTEX
  8
LAYER_4
 10
471.403
 20
222.35
  0
SEQEND
  0
POLYLINE
  8
LAYER_4
 40
0.105834
 41
0.105834
 66
1
 10
0
 20
0
 30
0
  0
VERTEX
  8
LAYER_4
 10
469.203
 20
222.35
  0
VERTEX
  8
LAYER_4
 10
468.203
 20
222.35
  0
SEQEND
  0
POLYLINE
  8
LAYER_4
 40
0.105834
 41
0.105834
 66
1
 10
0
 20
0
 30
0
  0
VERTEX
  8
LAYER_4
 10
466.003
 20
222.35
  0
VERTEX
  8
LAYER_4
 10
465.003
 20
222.35
  0
SEQEND
  0
POLYLINE
  8
LAYER_4
 40
0.105834
 41
0.105834
 66
1
 10
0
 20
0
 30
0
  0
VERTEX
  8
LAYER_4
 10
462.333
 20
159.347
  0
VERTEX
  8
LAYER_4
 10
462.183
 20
167.95
  0
SEQEND
  0
POLYLINE
  8
LAYER_4
 40
0.105834
 41
0.105834
 66
1
 10
0
 20
0
 30
0
  0
VERTEX
  8
LAYER_4
 10
462.303
 20
167.95
  0
VERTEX
  8
LAYER_4
 10
462.303
 20
301.75
  0
SEQEND
  0
POLYLINE
  8
LAYER_4
 40
0.105834
 41
0.105834
 66
1
 10
0
 20
0
 30
0
  0
VERTEX
  8
LAYER_4
 10
462.534
 20
159.15
  0
VERTEX
  8
LAYER_4
 10
462.534
 20
159.34
  0
SEQEND
  0
POLYLINE
  8
LAYER_4
 40
0.105834
 41
0.105834
 66
1
 10
0
 20
0
 30
0
  0
VERTEX
  8
LAYER_4
 10
462.703
 20
301.75
  0
VERTEX
  8
LAYER_4
 10
462.703
 20
301.55
  0
SEQEND
  0
POLYLINE
  8
LAYER_4
 40
0.105834
 41
0.105834
 66
1
 10
0
 20
0
 30
0
  0
VERTEX
  8
LAYER_4
 10
463.103
 20
167.95
  0
VERTEX
  8
LAYER_4
 10
463.103
 20
301.55
  0
SEQEND
  0
POLYLINE
  8
LAYER_4
 40
0.105834
 41
0.105834
 66
1
 10
0
 20
0
 30
0
  0
VERTEX
  8
LAYER_4
 10
463.177
 20
301.75
  0
VERTEX
  8
LAYER_4
 10
463.177
 20
302.15
  0
SEQEND
  0
POLYLINE
  8
LAYER_4
 40
0.105834
 41
0.105834
 66
1
 10
0
 20
0
 30
0
  0
VERTEX
  8
LAYER_4
 10
463.503
 20
302.15
  0
VERTEX
  8
LAYER_4
 10
463.503
 20
301.55
  0
SEQEND
  0
POLYLINE
  8
LAYER_4
 40
0.105834
 41
0.105834
 66
1
 10
0
 20
0
 30
0
  0
VERTEX
  8
LAYER_4
 10
477.223
 20
235.55
  0
VERTEX
  8
LAYER_4
 10
477.506
 20
235.833
  0
SEQEND
  0
POLYLINE
  8
LAYER_4
 40
0.105834
 41
0.105834
 66
1
 10
0
 20
0
 30
0
  0
VERTEX
  8
LAYER_4
 10
469.006
 20
159.103
  0
VERTEX
  8
LAYER_4
 10
469.003
 20
159.15
  0
SEQEND
  0
POLYLINE
  8
LAYER_4
 40
0.105834
 41
0.105834
 66
1
 10
0
 20
0
 30
0
  0
VERTEX
  8
LAYER_4
 10
464.703
 20
193.686
  0
VERTEX
  8
LAYER_4
 10
464.703
 20
194.215
  0
SEQEND
  0
POLYLINE
  8
LAYER_4
 40
0.105834
 41
0.105834
 66
1
 10
0
 20
0
 30
0
  0
VERTEX
  8
LAYER_4
 10
464.703
 20
195.686
  0
VERTEX
  8
LAYER_4
 10
464.703
 20
196.215
  0
SEQEND
  0
POLYLINE
  8
LAYER_4
 40
0.105834
 41
0.105834
 66
1
 10
0
 20
0
 30
0
  0
VERTEX
  8
LAYER_4
 10
464.703
 20
197.686
  0
VERTEX
  8
LAYER_4
 10
464.703
 20
198.215
  0
SEQEND
  0
POLYLINE
  8
LAYER_4
 40
0.105834
 41
0.105834
 66
1
 10
0
 20
0
 30
0
  0
VERTEX
  8
LAYER_4
 10
464.703
 20
199.686
  0
VERTEX
  8
LAYER_4
 10
464.703
 20
200.215
  0
SEQEND
  0
POLYLINE
  8
LAYER_4
 40
0.105834
 41
0.105834
 66
1
 10
0
 20
0
 30
0
  0
VERTEX
  8
LAYER_4
 10
465.323
 20
302.15
  0
VERTEX
  8
LAYER_4
 10
465.323
 20
302.47
  0
SEQEND
  0
POLYLINE
  8
LAYER_4
 40
0.105834
 41
0.105834
 66
1
 10
0
 20
0
 30
0
  0
VERTEX
  8
LAYER_4
 10
465.503
 20
222.35
  0
VERTEX
  8
LAYER_4
 10
465.503
 20
221.55
  0
SEQEND
  0
POLYLINE
  8
LAYER_4
 40
0.105834
 41
0.105834
 66
1
 10
0
 20
0
 30
0
  0
VERTEX
  8
LAYER_4
 10
465.503
 20
220.35
  0
VERTEX
  8
LAYER_4
 10
465.503
 20
219.55
  0
SEQEND
  0
POLYLINE
  8
LAYER_4
 40
0.105834
 41
0.105834
 66
1
 10
0
 20
0
 30
0
  0
VERTEX
  8
LAYER_4
 10
465.503
 20
218.35
  0
VERTEX
  8
LAYER_4
 10
465.503
 20
217.55
  0
SEQEND
  0
POLYLINE
  8
LAYER_4
 40
0.105834
 41
0.105834
 66
1
 10
0
 20
0
 30
0
  0
VERTEX
  8
LAYER_4
 10
465.503
 20
216.35
  0
VERTEX
  8
LAYER_4
 10
465.503
 20
215.55
  0
SEQEND
  0
POLYLINE
  8
LAYER_4
 40
0.105834
 41
0.105834
 66
1
 10
0
 20
0
 30
0
  0
VERTEX
  8
LAYER_4
 10
465.503
 20
214.35
  0
VERTEX
  8
LAYER_4
 10
465.503
 20
213.55
  0
SEQEND
  0
POLYLINE
  8
LAYER_4
 40
0.105834
 41
0.105834
 66
1
 10
0
 20
0
 30
0
  0
VERTEX
  8
LAYER_4
 10
465.503
 20
212.35
  0
VERTEX
  8
LAYER_4
 10
465.503
 20
211.55
  0
SEQEND
  0
POLYLINE
  8
LAYER_4
 40
0.105834
 41
0.105834
 66
1
 10
0
 20
0
 30
0
  0
VERTEX
  8
LAYER_4
 10
465.503
 20
210.35
  0
VERTEX
  8
LAYER_4
 10
465.503
 20
209.55
  0
SEQEND
  0
POLYLINE
  8
LAYER_4
 40
0.105834
 41
0.105834
 66
1
 10
0
 20
0
 30
0
  0
VERTEX
  8
LAYER_4
 10
465.503
 20
208.35
  0
VERTEX
  8
LAYER_4
 10
465.503
 20
207.55
  0
SEQEND
  0
POLYLINE
  8
LAYER_4
 40
0.105834
 41
0.105834
 66
1
 10
0
 20
0
 30
0
  0
VERTEX
  8
LAYER_4
 10
465.503
 20
206.35
  0
VERTEX
  8
LAYER_4
 10
465.503
 20
205.55
  0
SEQEND
  0
POLYLINE
  8
LAYER_4
 40
0.105834
 41
0.105834
 66
1
 10
0
 20
0
 30
0
  0
VERTEX
  8
LAYER_4
 10
465.583
 20
302.15
  0
VERTEX
  8
LAYER_4
 10
465.583
 20
302.39
  0
SEQEND
  0
POLYLINE
  8
LAYER_4
 40
0.105834
 41
0.105834
 66
1
 10
0
 20
0
 30
0
  0
VERTEX
  8
LAYER_4
 10
465.983
 20
302.15
  0
VERTEX
  8
LAYER_4
 10
465.983
 20
302.47
  0
SEQEND
  0
POLYLINE
  8
LAYER_4
 40
0.105834
 41
0.105834
 66
1
 10
0
 20
0
 30
0
  0
VERTEX
  8
LAYER_4
 10
466.183
 20
183.593
  0
VERTEX
  8
LAYER_4
 10
466.183
 20
184.307
  0
SEQEND
  0
POLYLINE
  8
LAYER_4
 40
0.105834
 41
0.105834
 66
1
 10
0
 20
0
 30
0
  0
VERTEX
  8
LAYER_4
 10
466.183
 20
185.593
  0
VERTEX
  8
LAYER_4
 10
466.183
 20
185.75
  0
SEQEND
  0
POLYLINE
  8
LAYER_4
 40
0.105834
 41
0.105834
 66
1
 10
0
 20
0
 30
0
  0
VERTEX
  8
LAYER_4
 10
468.023
 20
203.758
  0
VERTEX
  8
LAYER_4
 10
468.023
 20
204.307
  0
SEQEND
  0
POLYLINE
  8
LAYER_4
 40
0.105834
 41
0.105834
 66
1
 10
0
 20
0
 30
0
  0
VERTEX
  8
LAYER_4
 10
468.023
 20
205.593
  0
VERTEX
  8
LAYER_4
 10
468.023
 20
206.307
  0
SEQEND
  0
POLYLINE
  8
LAYER_4
 40
0.105834
 41
0.105834
 66
1
 10
0
 20
0
 30
0
  0
VERTEX
  8
LAYER_4
 10
468.023
 20
207.593
  0
VERTEX
  8
LAYER_4
 10
468.023
 20
208.307
  0
SEQEND
  0
POLYLINE
  8
LAYER_4
 40
0.105834
 41
0.105834
 66
1
 10
0
 20
0
 30
0
  0
VERTEX
  8
LAYER_4
 10
468.023
 20
209.593
  0
VERTEX
  8
LAYER_4
 10
468.023
 20
210.307
  0
SEQEND
  0
POLYLINE
  8
LAYER_4
 40
0.105834
 41
0.105834
 66
1
 10
0
 20
0
 30
0
  0
VERTEX
  8
LAYER_4
 10
468.023
 20
211.593
  0
VERTEX
  8
LAYER_4
 10
468.023
 20
212.307
  0
SEQEND
  0
POLYLINE
  8
LAYER_4
 40
0.105834
 41
0.105834
 66
1
 10
0
 20
0
 30
0
  0
VERTEX
  8
LAYER_4
 10
468.023
 20
213.593
  0
VERTEX
  8
LAYER_4
 10
468.023
 20
214.307
  0
SEQEND
  0
POLYLINE
  8
LAYER_4
 40
0.105834
 41
0.105834
 66
1
 10
0
 20
0
 30
0
  0
VERTEX
  8
LAYER_4
 10
468.023
 20
215.593
  0
VERTEX
  8
LAYER_4
 10
468.023
 20
216.307
  0
SEQEND
  0
POLYLINE
  8
LAYER_4
 40
0.105834
 41
0.105834
 66
1
 10
0
 20
0
 30
0
  0
VERTEX
  8
LAYER_4
 10
468.023
 20
217.593
  0
VERTEX
  8
LAYER_4
 10
468.023
 20
218.307
  0
SEQEND
  0
POLYLINE
  8
LAYER_4
 40
0.105834
 41
0.105834
 66
1
 10
0
 20
0
 30
0
  0
VERTEX
  8
LAYER_4
 10
468.023
 20
219.593
  0
VERTEX
  8
LAYER_4
 10
468.023
 20
220.307
  0
SEQEND
  0
POLYLINE
  8
LAYER_4
 40
0.105834
 41
0.105834
 66
1
 10
0
 20
0
 30
0
  0
VERTEX
  8
LAYER_4
 10
468.023
 20
221.593
  0
VERTEX
  8
LAYER_4
 10
468.023
 20
222.307
  0
SEQEND
  0
POLYLINE
  8
LAYER_4
 40
0.105834
 41
0.105834
 66
1
 10
0
 20
0
 30
0
  0
VERTEX
  8
LAYER_4
 10
468.303
 20
202.35
  0
VERTEX
  8
LAYER_4
 10
468.303
 20
201.55
  0
SEQEND
  0
POLYLINE
  8
LAYER_4
 40
0.105834
 41
0.105834
 66
1
 10
0
 20
0
 30
0
  0
VERTEX
  8
LAYER_4
 10
468.303
 20
200.35
  0
VERTEX
  8
LAYER_4
 10
468.303
 20
199.55
  0
SEQEND
  0
POLYLINE
  8
LAYER_4
 40
0.105834
 41
0.105834
 66
1
 10
0
 20
0
 30
0
  0
VERTEX
  8
LAYER_4
 10
468.303
 20
198.35
  0
VERTEX
  8
LAYER_4
 10
468.303
 20
197.55
  0
SEQEND
  0
POLYLINE
  8
LAYER_4
 40
0.105834
 41
0.105834
 66
1
 10
0
 20
0
 30
0
  0
VERTEX
  8
LAYER_4
 10
468.303
 20
196.35
  0
VERTEX
  8
LAYER_4
 10
468.303
 20
195.55
  0
SEQEND
  0
POLYLINE
  8
LAYER_4
 40
0.105834
 41
0.105834
 66
1
 10
0
 20
0
 30
0
  0
VERTEX
  8
LAYER_4
 10
468.303
 20
194.35
  0
VERTEX
  8
LAYER_4
 10
468.303
 20
193.55
  0
SEQEND
  0
POLYLINE
  8
LAYER_4
 40
0.105834
 41
0.105834
 66
1
 10
0
 20
0
 30
0
  0
VERTEX
  8
LAYER_4
 10
468.303
 20
192.35
  0
VERTEX
  8
LAYER_4
 10
468.303
 20
191.95
  0
SEQEND
  0
POLYLINE
  8
LAYER_4
 40
0.105834
 41
0.105834
 66
1
 10
0
 20
0
 30
0
  0
VERTEX
  8
LAYER_4
 10
470.503
 20
302.15
  0
VERTEX
  8
LAYER_4
 10
470.503
 20
303.43
  0
SEQEND
  0
POLYLINE
  8
LAYER_4
 40
0.105834
 41
0.105834
 66
1
 10
0
 20
0
 30
0
  0
VERTEX
  8
LAYER_4
 10
472.023
 20
222.35
  0
VERTEX
  8
LAYER_4
 10
472.023
 20
221.55
  0
SEQEND
  0
POLYLINE
  8
LAYER_4
 40
0.105834
 41
0.105834
 66
1
 10
0
 20
0
 30
0
  0
VERTEX
  8
LAYER_4
 10
472.023
 20
220.35
  0
VERTEX
  8
LAYER_4
 10
472.023
 20
219.55
  0
SEQEND
  0
POLYLINE
  8
LAYER_4
 40
0.105834
 41
0.105834
 66
1
 10
0
 20
0
 30
0
  0
VERTEX
  8
LAYER_4
 10
472.023
 20
218.35
  0
VERTEX
  8
LAYER_4
 10
472.023
 20
217.55
  0
SEQEND
  0
POLYLINE
  8
LAYER_4
 40
0.105834
 41
0.105834
 66
1
 10
0
 20
0
 30
0
  0
VERTEX
  8
LAYER_4
 10
472.023
 20
216.35
  0
VERTEX
  8
LAYER_4
 10
472.023
 20
215.55
  0
SEQEND
  0
POLYLINE
  8
LAYER_4
 40
0.105834
 41
0.105834
 66
1
 10
0
 20
0
 30
0
  0
VERTEX
  8
LAYER_4
 10
472.023
 20
214.35
  0
VERTEX
  8
LAYER_4
 10
472.023
 20
213.55
  0
SEQEND
  0
POLYLINE
  8
LAYER_4
 40
0.105834
 41
0.105834
 66
1
 10
0
 20
0
 30
0
  0
VERTEX
  8
LAYER_4
 10
472.023
 20
212.35
  0
VERTEX
  8
LAYER_4
 10
472.023
 20
211.55
  0
SEQEND
  0
POLYLINE
  8
LAYER_4
 40
0.105834
 41
0.105834
 66
1
 10
0
 20
0
 30
0
  0
VERTEX
  8
LAYER_4
 10
472.023
 20
210.35
  0
VERTEX
  8
LAYER_4
 10
472.023
 20
209.55
  0
SEQEND
  0
POLYLINE
  8
LAYER_4
 40
0.105834
 41
0.105834
 66
1
 10
0
 20
0
 30
0
  0
VERTEX
  8
LAYER_4
 10
472.023
 20
208.35
  0
VERTEX
  8
LAYER_4
 10
472.023
 20
207.55
  0
SEQEND
  0
POLYLINE
  8
LAYER_4
 40
0.105834
 41
0.105834
 66
1
 10
0
 20
0
 30
0
  0
VERTEX
  8
LAYER_4
 10
472.023
 20
206.35
  0
VERTEX
  8
LAYER_4
 10
472.023
 20
205.55
  0
SEQEND
  0
POLYLINE
  8
LAYER_4
 40
0.105834
 41
0.105834
 66
1
 10
0
 20
0
 30
0
  0
VERTEX
  8
LAYER_4
 10
472.023
 20
204.35
  0
VERTEX
  8
LAYER_4
 10
472.023
 20
203.55
  0
SEQEND
  0
POLYLINE
  8
LAYER_4
 40
0.105834
 41
0.105834
 66
1
 10
0
 20
0
 30
0
  0
VERTEX
  8
LAYER_4
 10
472.023
 20
202.35
  0
VERTEX
  8
LAYER_4
 10
472.023
 20
201.55
  0
SEQEND
  0
POLYLINE
  8
LAYER_4
 40
0.105834
 41
0.105834
 66
1
 10
0
 20
0
 30
0
  0
VERTEX
  8
LAYER_4
 10
472.023
 20
200.35
  0
VERTEX
  8
LAYER_4
 10
472.023
 20
199.55
  0
SEQEND
  0
POLYLINE
  8
LAYER_4
 40
0.105834
 41
0.105834
 66
1
 10
0
 20
0
 30
0
  0
VERTEX
  8
LAYER_4
 10
472.023
 20
198.35
  0
VERTEX
  8
LAYER_4
 10
472.023
 20
197.55
  0
SEQEND
  0
POLYLINE
  8
LAYER_4
 40
0.105834
 41
0.105834
 66
1
 10
0
 20
0
 30
0
  0
VERTEX
  8
LAYER_4
 10
472.023
 20
196.35
  0
VERTEX
  8
LAYER_4
 10
472.023
 20
195.55
  0
SEQEND
  0
POLYLINE
  8
LAYER_4
 40
0.105834
 41
0.105834
 66
1
 10
0
 20
0
 30
0
  0
VERTEX
  8
LAYER_4
 10
472.023
 20
194.35
  0
VERTEX
  8
LAYER_4
 10
472.023
 20
193.55
  0
SEQEND
  0
POLYLINE
  8
LAYER_4
 40
0.105834
 41
0.105834
 66
1
 10
0
 20
0
 30
0
  0
VERTEX
  8
LAYER_4
 10
472.023
 20
192.35
  0
VERTEX
  8
LAYER_4
 10
472.023
 20
191.55
  0
SEQEND
  0
POLYLINE
  8
LAYER_4
 40
0.105834
 41
0.105834
 66
1
 10
0
 20
0
 30
0
  0
VERTEX
  8
LAYER_4
 10
472.663
 20
184.254
  0
VERTEX
  8
LAYER_4
 10
472.663
 20
183.69
  0
SEQEND
  0
POLYLINE
  8
LAYER_4
 40
0.105834
 41
0.105834
 66
1
 10
0
 20
0
 30
0
  0
VERTEX
  8
LAYER_4
 10
473.103
 20
302.15
  0
VERTEX
  8
LAYER_4
 10
473.103
 20
300.75
  0
SEQEND
  0
POLYLINE
  8
LAYER_4
 40
0.105834
 41
0.105834
 66
1
 10
0
 20
0
 30
0
  0
VERTEX
  8
LAYER_4
 10
473.703
 20
167.95
  0
VERTEX
  8
LAYER_4
 10
473.703
 20
300.75
  0
SEQEND
  0
POLYLINE
  8
LAYER_4
 40
0.105834
 41
0.105834
 66
1
 10
0
 20
0
 30
0
  0
VERTEX
  8
LAYER_4
 10
474.303
 20
167.95
  0
VERTEX
  8
LAYER_4
 10
474.303
 20
300.75
  0
SEQEND
  0
POLYLINE
  8
LAYER_4
 40
0.105834
 41
0.105834
 66
1
 10
0
 20
0
 30
0
  0
VERTEX
  8
LAYER_4
 10
474.503
 20
167.95
  0
VERTEX
  8
LAYER_4
 10
474.503
 20
300.75
  0
SEQEND
  0
POLYLINE
  8
LAYER_4
 40
0.105834
 41
0.105834
 66
1
 10
0
 20
0
 30
0
  0
VERTEX
  8
LAYER_4
 10
474.663
 20
302.07
  0
VERTEX
  8
LAYER_4
 10
474.663
 20
303.43
  0
SEQEND
  0
POLYLINE
  8
LAYER_4
 40
0.105834
 41
0.105834
 66
1
 10
0
 20
0
 30
0
  0
VERTEX
  8
LAYER_4
 10
474.783
 20
302.39
  0
VERTEX
  8
LAYER_4
 10
474.783
 20
302.07
  0
SEQEND
  0
POLYLINE
  8
LAYER_4
 40
0.105834
 41
0.105834
 66
1
 10
0
 20
0
 30
0
  0
VERTEX
  8
LAYER_4
 10
475.183
 20
302.07
  0
VERTEX
  8
LAYER_4
 10
475.183
 20
301.75
  0
SEQEND
  0
POLYLINE
  8
LAYER_4
 40
0.105834
 41
0.105834
 66
1
 10
0
 20
0
 30
0
  0
VERTEX
  8
LAYER_4
 10
475.583
 20
302.07
  0
VERTEX
  8
LAYER_4
 10
475.583
 20
301.75
  0
SEQEND
  0
POLYLINE
  8
LAYER_4
 40
0.105834
 41
0.105834
 66
1
 10
0
 20
0
 30
0
  0
VERTEX
  8
LAYER_4
 10
470.003
 20
159.15
  0
VERTEX
  8
LAYER_4
 10
470.001
 20
159.103
  0
SEQEND
  0
POLYLINE
  8
LAYER_4
 40
0.105834
 41
0.105834
 66
1
 10
0
 20
0
 30
0
  0
VERTEX
  8
LAYER_4
 10
476.084
 20
301.75
  0
VERTEX
  8
LAYER_4
 10
476.084
 20
302.47
  0
SEQEND
  0
POLYLINE
  8
LAYER_4
 40
0.105834
 41
0.105834
 66
1
 10
0
 20
0
 30
0
  0
VERTEX
  8
LAYER_4
 10
476.824
 20
175.817
  0
VERTEX
  8
LAYER_4
 10
476.824
 20
176.884
  0
SEQEND
  0
POLYLINE
  8
LAYER_4
 40
0.105834
 41
0.105834
 66
1
 10
0
 20
0
 30
0
  0
VERTEX
  8
LAYER_4
 10
476.824
 20
191.615
  0
VERTEX
  8
LAYER_4
 10
476.824
 20
193.086
  0
SEQEND
  0
POLYLINE
  8
LAYER_4
 40
0.105834
 41
0.105834
 66
1
 10
0
 20
0
 30
0
  0
VERTEX
  8
LAYER_4
 10
476.824
 20
235.215
  0
VERTEX
  8
LAYER_4
 10
476.824
 20
236.686
  0
SEQEND
  0
POLYLINE
  8
LAYER_4
 40
0.105834
 41
0.105834
 66
1
 10
0
 20
0
 30
0
  0
VERTEX
  8
LAYER_4
 10
476.883
 20
301.75
  0
VERTEX
  8
LAYER_4
 10
476.883
 20
302.47
  0
SEQEND
  0
POLYLINE
  8
LAYER_4
 40
0.105834
 41
0.105834
 66
1
 10
0
 20
0
 30
0
  0
VERTEX
  8
LAYER_4
 10
477.103
 20
302.07
  0
VERTEX
  8
LAYER_4
 10
477.103
 20
301.75
  0
SEQEND
  0
POLYLINE
  8
LAYER_4
 40
0.105834
 41
0.105834
 66
1
 10
0
 20
0
 30
0
  0
VERTEX
  8
LAYER_4
 10
477.203
 20
301.75
  0
VERTEX
  8
LAYER_4
 10
477.203
 20
302.07
  0
SEQEND
  0
POLYLINE
  8
LAYER_4
 40
0.105834
 41
0.105834
 66
1
 10
0
 20
0
 30
0
  0
VERTEX
  8
LAYER_4
 10
477.223
 20
236.617
  0
VERTEX
  8
LAYER_4
 10
477.223
 20
235.283
  0
SEQEND
  0
POLYLINE
  8
LAYER_4
 40
0.105834
 41
0.105834
 66
1
 10
0
 20
0
 30
0
  0
VERTEX
  8
LAYER_4
 10
477.223
 20
193.017
  0
VERTEX
  8
LAYER_4
 10
477.223
 20
191.683
  0
SEQEND
  0
POLYLINE
  8
LAYER_4
 40
0.105834
 41
0.105834
 66
1
 10
0
 20
0
 30
0
  0
VERTEX
  8
LAYER_4
 10
477.223
 20
176.785
  0
VERTEX
  8
LAYER_4
 10
477.223
 20
175.916
  0
SEQEND
  0
POLYLINE
  8
LAYER_4
 40
0.105834
 41
0.105834
 66
1
 10
0
 20
0
 30
0
  0
VERTEX
  8
LAYER_4
 10
477.423
 20
235.75
  0
VERTEX
  8
LAYER_4
 10
477.423
 20
235.424
  0
SEQEND
  0
POLYLINE
  8
LAYER_4
 40
0.105834
 41
0.105834
 66
1
 10
0
 20
0
 30
0
  0
VERTEX
  8
LAYER_4
 10
477.423
 20
192.876
  0
VERTEX
  8
LAYER_4
 10
477.423
 20
191.824
  0
SEQEND
  0
POLYLINE
  8
LAYER_4
 40
0.105834
 41
0.105834
 66
1
 10
0
 20
0
 30
0
  0
VERTEX
  8
LAYER_4
 10
477.423
 20
176.495
  0
VERTEX
  8
LAYER_4
 10
477.423
 20
176.35
  0
SEQEND
  0
POLYLINE
  8
LAYER_4
 40
0.105834
 41
0.105834
 66
1
 10
0
 20
0
 30
0
  0
VERTEX
  8
LAYER_4
 10
477.603
 20
301.75
  0
VERTEX
  8
LAYER_4
 10
477.603
 20
302.07
  0
SEQEND
  0
POLYLINE
  8
LAYER_4
 40
0.105834
 41
0.105834
 66
1
 10
0
 20
0
 30
0
  0
VERTEX
  8
LAYER_4
 10
478.423
 20
301.75
  0
VERTEX
  8
LAYER_4
 10
478.423
 20
300.87
  0
SEQEND
  0
POLYLINE
  8
LAYER_4
 40
0.105834
 41
0.105834
 66
1
 10
0
 20
0
 30
0
  0
VERTEX
  8
LAYER_4
 10
479.023
 20
300.298
  0
VERTEX
  8
LAYER_4
 10
479.023
 20
301.27
  0
SEQEND
  0
POLYLINE
  8
LAYER_4
 40
0.105834
 41
0.105834
 66
1
 10
0
 20
0
 30
0
  0
VERTEX
  8
LAYER_4
 10
479.103
 20
168.75
  0
VERTEX
  8
LAYER_4
 10
479.103
 20
299.95
  0
SEQEND
  0
POLYLINE
  8
LAYER_4
 40
0.105834
 41
0.105834
 66
1
 10
0
 20
0
 30
0
  0
VERTEX
  8
LAYER_4
 10
479.503
 20
301.27
  0
VERTEX
  8
LAYER_4
 10
479.503
 20
168.43
  0
SEQEND
  0
POLYLINE
  8
LAYER_4
 40
0.105834
 41
0.105834
 66
1
 10
0
 20
0
 30
0
  0
VERTEX
  8
LAYER_4
 10
480.703
 20
283.35
  0
VERTEX
  8
LAYER_4
 10
480.703
 20
273.35
  0
SEQEND
  0
POLYLINE
  8
LAYER_4
 40
0.105834
 41
0.105834
 66
1
 10
0
 20
0
 30
0
  0
VERTEX
  8
LAYER_4
 10
480.703
 20
178.95
  0
VERTEX
  8
LAYER_4
 10
480.703
 20
168.95
  0
SEQEND
  0
POLYLINE
  8
LAYER_4
 40
0.105834
 41
0.105834
 66
1
 10
0
 20
0
 30
0
  0
VERTEX
  8
LAYER_4
 10
481.103
 20
282.95
  0
VERTEX
  8
LAYER_4
 10
481.103
 20
273.75
  0
SEQEND
  0
POLYLINE
  8
LAYER_4
 40
0.105834
 41
0.105834
 66
1
 10
0
 20
0
 30
0
  0
VERTEX
  8
LAYER_4
 10
481.103
 20
178.55
  0
VERTEX
  8
LAYER_4
 10
481.103
 20
169.35
  0
SEQEND
  0
POLYLINE
  8
LAYER_4
 40
0.105834
 41
0.105834
 66
1
 10
0
 20
0
 30
0
  0
VERTEX
  8
LAYER_4
 10
479.369
 20
160.257
  0
VERTEX
  8
LAYER_4
 10
479.503
 20
167.95
  0
SEQEND
  0
POLYLINE
  8
LAYER_4
 40
0.105834
 41
0.105834
 66
1
 10
0
 20
0
 30
0
  0
VERTEX
  8
LAYER_4
 10
481.503
 20
282.35
  0
VERTEX
  8
LAYER_4
 10
481.503
 20
274.35
  0
SEQEND
  0
POLYLINE
  8
LAYER_4
 40
0.105834
 41
0.105834
 66
1
 10
0
 20
0
 30
0
  0
VERTEX
  8
LAYER_4
 10
481.503
 20
177.95
  0
VERTEX
  8
LAYER_4
 10
481.503
 20
169.95
  0
SEQEND
  0
POLYLINE
  8
LAYER_4
 40
0.105834
 41
0.105834
 66
1
 10
0
 20
0
 30
0
  0
VERTEX
  8
LAYER_4
 10
465.576
 20
183.55
  0
VERTEX
  8
LAYER_4
 10
465.783
 20
183.69
  0
SEQEND
  0
POLYLINE
  8
LAYER_4
 40
0.105834
 41
0.105834
 66
1
 10
0
 20
0
 30
0
  0
VERTEX
  8
LAYER_4
 10
479.503
 20
273.35
  0
VERTEX
  8
LAYER_4
 10
480.703
 20
273.35
  0
SEQEND
  0
POLYLINE
  8
LAYER_4
 40
0.105834
 41
0.105834
 66
1
 10
0
 20
0
 30
0
  0
VERTEX
  8
LAYER_4
 10
481.103
 20
274.35
  0
VERTEX
  8
LAYER_4
 10
481.503
 20
274.35
  0
SEQEND
  0
POLYLINE
  8
LAYER_4
 40
0.105834
 41
0.105834
 66
1
 10
0
 20
0
 30
0
  0
VERTEX
  8
LAYER_4
 10
481.103
 20
282.35
  0
VERTEX
  8
LAYER_4
 10
481.503
 20
282.35
  0
SEQEND
  0
POLYLINE
  8
LAYER_4
 40
0.105834
 41
0.105834
 66
1
 10
0
 20
0
 30
0
  0
VERTEX
  8
LAYER_4
 10
479.503
 20
283.35
  0
VERTEX
  8
LAYER_4
 10
480.703
 20
283.35
  0
SEQEND
  0
POLYLINE
  8
LAYER_4
 40
0.105834
 41
0.105834
 66
1
 10
0
 20
0
 30
0
  0
VERTEX
  8
LAYER_4
 10
477.223
 20
176.25
  0
VERTEX
  8
LAYER_4
 10
477.423
 20
176.35
  0
SEQEND
  0
POLYLINE
  8
LAYER_4
 40
0.105834
 41
0.105834
 66
1
 10
0
 20
0
 30
0
  0
VERTEX
  8
LAYER_4
 10
476.668
 20
159.34
  0
VERTEX
  8
LAYER_4
 10
479.17
 20
160.25
  0
SEQEND
  0
POLYLINE
  8
LAYER_4
 40
0.105834
 41
0.105834
 66
1
 10
0
 20
0
 30
0
  0
VERTEX
  8
LAYER_4
 10
476.703
 20
159.15
  0
VERTEX
  8
LAYER_4
 10
479.238
 20
160.073
  0
SEQEND
  0
POLYLINE
  8
LAYER_4
 40
0.105834
 41
0.105834
 66
1
 10
0
 20
0
 30
0
  0
VERTEX
  8
LAYER_4
 10
479.503
 20
300.55
  0
VERTEX
  8
LAYER_4
 10
478.832
 20
300.55
  0
SEQEND
  0
POLYLINE
  8
LAYER_4
 40
0.105834
 41
0.105834
 66
1
 10
0
 20
0
 30
0
  0
VERTEX
  8
LAYER_4
 10
473.103
 20
300.75
  0
VERTEX
  8
LAYER_4
 10
478.303
 20
300.75
  0
SEQEND
  0
POLYLINE
  8
LAYER_4
 40
0.105834
 41
0.105834
 66
1
 10
0
 20
0
 30
0
  0
VERTEX
  8
LAYER_4
 10
479.023
 20
301.27
  0
VERTEX
  8
LAYER_4
 10
473.103
 20
301.27
  0
SEQEND
  0
POLYLINE
  8
LAYER_4
 40
0.105834
 41
0.105834
 66
1
 10
0
 20
0
 30
0
  0
VERTEX
  8
LAYER_4
 10
462.303
 20
301.55
  0
VERTEX
  8
LAYER_4
 10
463.503
 20
301.55
  0
SEQEND
  0
POLYLINE
  8
LAYER_4
 40
0.105834
 41
0.105834
 66
1
 10
0
 20
0
 30
0
  0
VERTEX
  8
LAYER_4
 10
479.023
 20
301.75
  0
VERTEX
  8
LAYER_4
 10
473.103
 20
301.75
  0
SEQEND
  0
POLYLINE
  8
LAYER_4
 40
0.105834
 41
0.105834
 66
1
 10
0
 20
0
 30
0
  0
VERTEX
  8
LAYER_4
 10
462.703
 20
301.75
  0
VERTEX
  8
LAYER_4
 10
463.503
 20
301.75
  0
SEQEND
  0
POLYLINE
  8
LAYER_4
 40
0.105834
 41
0.105834
 66
1
 10
0
 20
0
 30
0
  0
VERTEX
  8
LAYER_4
 10
473.103
 20
302.07
  0
VERTEX
  8
LAYER_4
 10
477.203
 20
302.07
  0
SEQEND
  0
POLYLINE
  8
LAYER_4
 40
0.035278
 41
0.035278
 62
40
 66
1
 10
0
 20
0
 30
0
  0
VERTEX
  8
LAYER_4
 10
414.503
 20
302.15
  0
VERTEX
  8
LAYER_4
 10
414.103
 20
302.15
  0
SEQEND
  0
POLYLINE
  8
LAYER_4
 40
0.105834
 41
0.105834
 66
1
 10
0
 20
0
 30
0
  0
VERTEX
  8
LAYER_4
 10
462.703
 20
302.15
  0
VERTEX
  8
LAYER_4
 10
474.663
 20
302.15
  0
SEQEND
  0
POLYLINE
  8
LAYER_4
 40
0.105834
 41
0.105834
 66
1
 10
0
 20
0
 30
0
  0
VERTEX
  8
LAYER_4
 10
474.783
 20
302.39
  0
VERTEX
  8
LAYER_4
 10
474.663
 20
302.39
  0
SEQEND
  0
POLYLINE
  8
LAYER_4
 40
0.105834
 41
0.105834
 66
1
 10
0
 20
0
 30
0
  0
VERTEX
  8
LAYER_4
 10
465.583
 20
302.39
  0
VERTEX
  8
LAYER_4
 10
470.503
 20
302.39
  0
SEQEND
  0
POLYLINE
  8
LAYER_4
 40
0.105834
 41
0.105834
 66
1
 10
0
 20
0
 30
0
  0
VERTEX
  8
LAYER_4
 10
465.003
 20
302.47
  0
VERTEX
  8
LAYER_4
 10
465.609
 20
302.47
  0
SEQEND
  0
POLYLINE
  8
LAYER_4
 40
0.105834
 41
0.105834
 66
1
 10
0
 20
0
 30
0
  0
VERTEX
  8
LAYER_4
 10
465.663
 20
302.47
  0
VERTEX
  8
LAYER_4
 10
470.503
 20
302.47
  0
SEQEND
  0
POLYLINE
  8
LAYER_4
 40
0.105834
 41
0.105834
 66
1
 10
0
 20
0
 30
0
  0
VERTEX
  8
LAYER_4
 10
474.663
 20
302.47
  0
VERTEX
  8
LAYER_4
 10
477.203
 20
302.47
  0
SEQEND
  0
POLYLINE
  8
LAYER_4
 40
0.105834
 41
0.105834
 66
1
 10
0
 20
0
 30
0
  0
VERTEX
  8
LAYER_4
 10
474.663
 20
303.43
  0
VERTEX
  8
LAYER_4
 10
470.503
 20
303.43
  0
SEQEND
  0
POLYLINE
  8
LAYER_4
 40
0.105834
 41
0.105834
 66
1
 10
0
 20
0
 30
0
  0
VERTEX
  8
LAYER_4
 10
184.895
 20
370.296
  0
VERTEX
  8
LAYER_4
 10
184.895
 20
386.618
  0
SEQEND
  0
POLYLINE
  8
LAYER_4
 40
0.105834
 41
0.105834
 66
1
 10
0
 20
0
 30
0
  0
VERTEX
  8
LAYER_4
 10
186.27
 20
386.092
  0
VERTEX
  8
LAYER_4
 10
186.305
 20
384.24
  0
SEQEND
  0
POLYLINE
  8
LAYER_4
 40
0.105834
 41
0.105834
 66
1
 10
0
 20
0
 30
0
  0
VERTEX
  8
LAYER_4
 10
185.095
 20
370.817
  0
VERTEX
  8
LAYER_4
 10
185.095
 20
381.417
  0
SEQEND
  0
POLYLINE
  8
LAYER_4
 40
0.105834
 41
0.105834
 66
1
 10
0
 20
0
 30
0
  0
VERTEX
  8
LAYER_4
 10
185.495
 20
381.417
  0
VERTEX
  8
LAYER_4
 10
185.495
 20
380.816
  0
SEQEND
  0
POLYLINE
  8
LAYER_4
 40
0.105834
 41
0.105834
 66
1
 10
0
 20
0
 30
0
  0
VERTEX
  8
LAYER_4
 10
185.495
 20
370.817
  0
VERTEX
  8
LAYER_4
 10
185.495
 20
371.217
  0
SEQEND
  0
POLYLINE
  8
LAYER_4
 40
0.105834
 41
0.105834
 66
1
 10
0
 20
0
 30
0
  0
VERTEX
  8
LAYER_4
 10
185.896
 20
370.577
  0
VERTEX
  8
LAYER_4
 10
185.896
 20
371.304
  0
SEQEND
  0
POLYLINE
  8
LAYER_4
 40
0.105834
 41
0.105834
 66
1
 10
0
 20
0
 30
0
  0
VERTEX
  8
LAYER_4
 10
185.896
 20
380.816
  0
VERTEX
  8
LAYER_4
 10
185.896
 20
381.616
  0
SEQEND
  0
POLYLINE
  8
LAYER_4
 40
0.105834
 41
0.105834
 66
1
 10
0
 20
0
 30
0
  0
VERTEX
  8
LAYER_4
 10
185.896
 20
382.016
  0
VERTEX
  8
LAYER_4
 10
185.896
 20
386.216
  0
SEQEND
  0
POLYLINE
  8
LAYER_4
 40
0.105834
 41
0.105834
 66
1
 10
0
 20
0
 30
0
  0
VERTEX
  8
LAYER_4
 10
186.295
 20
370.016
  0
VERTEX
  8
LAYER_4
 10
186.295
 20
370.89
  0
SEQEND
  0
POLYLINE
  8
LAYER_4
 40
0.105834
 41
0.105834
 66
1
 10
0
 20
0
 30
0
  0
VERTEX
  8
LAYER_4
 10
186.305
 20
371.033
  0
VERTEX
  8
LAYER_4
 10
186.305
 20
371.549
  0
SEQEND
  0
POLYLINE
  8
LAYER_4
 40
0.105834
 41
0.105834
 66
1
 10
0
 20
0
 30
0
  0
VERTEX
  8
LAYER_4
 10
186.305
 20
380.816
  0
VERTEX
  8
LAYER_4
 10
186.305
 20
381.616
  0
SEQEND
  0
POLYLINE
  8
LAYER_4
 40
0.105834
 41
0.105834
 66
1
 10
0
 20
0
 30
0
  0
VERTEX
  8
LAYER_4
 10
186.305
 20
382.016
  0
VERTEX
  8
LAYER_4
 10
186.305
 20
384.24
  0
SEQEND
  0
POLYLINE
  8
LAYER_4
 40
0.105834
 41
0.105834
 66
1
 10
0
 20
0
 30
0
  0
VERTEX
  8
LAYER_4
 10
186.495
 20
382.216
  0
VERTEX
  8
LAYER_4
 10
186.495
 20
386.816
  0
SEQEND
  0
POLYLINE
  8
LAYER_4
 40
0.105834
 41
0.105834
 66
1
 10
0
 20
0
 30
0
  0
VERTEX
  8
LAYER_4
 10
186.895
 20
386.816
  0
VERTEX
  8
LAYER_4
 10
186.895
 20
386.815
  0
SEQEND
  0
POLYLINE
  8
LAYER_4
 40
0.105834
 41
0.105834
 66
1
 10
0
 20
0
 30
0
  0
VERTEX
  8
LAYER_4
 10
186.895
 20
386.736
  0
VERTEX
  8
LAYER_4
 10
186.895
 20
380.816
  0
SEQEND
  0
POLYLINE
  8
LAYER_4
 40
0.105834
 41
0.105834
 66
1
 10
0
 20
0
 30
0
  0
VERTEX
  8
LAYER_4
 10
186.895
 20
371.25
  0
VERTEX
  8
LAYER_4
 10
186.895
 20
371.903
  0
SEQEND
  0
POLYLINE
  8
LAYER_4
 40
0.105834
 41
0.105834
 66
1
 10
0
 20
0
 30
0
  0
VERTEX
  8
LAYER_4
 10
187.375
 20
386.736
  0
VERTEX
  8
LAYER_4
 10
187.375
 20
380.816
  0
SEQEND
  0
POLYLINE
  8
LAYER_4
 40
0.105834
 41
0.105834
 66
1
 10
0
 20
0
 30
0
  0
VERTEX
  8
LAYER_4
 10
187.375
 20
372.191
  0
VERTEX
  8
LAYER_4
 10
187.375
 20
371.538
  0
SEQEND
  0
POLYLINE
  8
LAYER_4
 40
0.105834
 41
0.105834
 66
1
 10
0
 20
0
 30
0
  0
VERTEX
  8
LAYER_4
 10
187.495
 20
387.217
  0
VERTEX
  8
LAYER_4
 10
187.495
 20
388.416
  0
SEQEND
  0
POLYLINE
  8
LAYER_4
 40
0.105834
 41
0.105834
 66
1
 10
0
 20
0
 30
0
  0
VERTEX
  8
LAYER_4
 10
187.695
 20
386.136
  0
VERTEX
  8
LAYER_4
 10
187.695
 20
386.618
  0
SEQEND
  0
POLYLINE
  8
LAYER_4
 40
0.105834
 41
0.105834
 66
1
 10
0
 20
0
 30
0
  0
VERTEX
  8
LAYER_4
 10
187.775
 20
387.217
  0
VERTEX
  8
LAYER_4
 10
187.775
 20
386.136
  0
SEQEND
  0
POLYLINE
  8
LAYER_4
 40
0.105834
 41
0.105834
 66
1
 10
0
 20
0
 30
0
  0
VERTEX
  8
LAYER_4
 10
188.295
 20
380.016
  0
VERTEX
  8
LAYER_4
 10
188.295
 20
373.196
  0
SEQEND
  0
POLYLINE
  8
LAYER_4
 40
0.105834
 41
0.105834
 66
1
 10
0
 20
0
 30
0
  0
VERTEX
  8
LAYER_4
 10
188.495
 20
388.816
  0
VERTEX
  8
LAYER_4
 10
188.495
 20
389.216
  0
SEQEND
  0
POLYLINE
  8
LAYER_4
 40
0.105834
 41
0.105834
 66
1
 10
0
 20
0
 30
0
  0
VERTEX
  8
LAYER_4
 10
185.913
 20
370.902
  0
VERTEX
  8
LAYER_4
 10
185.896
 20
370.577
  0
SEQEND
  0
POLYLINE
  8
LAYER_4
 40
0.105834
 41
0.105834
 66
1
 10
0
 20
0
 30
0
  0
VERTEX
  8
LAYER_4
 10
193.795
 20
382.868
  0
VERTEX
  8
LAYER_4
 10
193.795
 20
376.221
  0
SEQEND
  0
POLYLINE
  8
LAYER_4
 40
0.105834
 41
0.105834
 66
1
 10
0
 20
0
 30
0
  0
VERTEX
  8
LAYER_4
 10
193.995
 20
377.1
  0
VERTEX
  8
LAYER_4
 10
193.995
 20
381.988
  0
SEQEND
  0
POLYLINE
  8
LAYER_4
 40
0.105834
 41
0.105834
 66
1
 10
0
 20
0
 30
0
  0
VERTEX
  8
LAYER_4
 10
194.235
 20
376.861
  0
VERTEX
  8
LAYER_4
 10
194.235
 20
382.868
  0
SEQEND
  0
POLYLINE
  8
LAYER_4
 40
0.105834
 41
0.105834
 66
1
 10
0
 20
0
 30
0
  0
VERTEX
  8
LAYER_4
 10
194.395
 20
376.82
  0
VERTEX
  8
LAYER_4
 10
194.395
 20
382.268
  0
SEQEND
  0
POLYLINE
  8
LAYER_4
 40
0.105834
 41
0.105834
 66
1
 10
0
 20
0
 30
0
  0
VERTEX
  8
LAYER_4
 10
194.575
 20
376.221
  0
VERTEX
  8
LAYER_4
 10
194.575
 20
376.661
  0
SEQEND
  0
POLYLINE
  8
LAYER_4
 40
0.105834
 41
0.105834
 66
1
 10
0
 20
0
 30
0
  0
VERTEX
  8
LAYER_4
 10
194.675
 20
376.42
  0
VERTEX
  8
LAYER_4
 10
194.675
 20
376.82
  0
SEQEND
  0
POLYLINE
  8
LAYER_4
 40
0.105834
 41
0.105834
 66
1
 10
0
 20
0
 30
0
  0
VERTEX
  8
LAYER_4
 10
194.675
 20
377.1
  0
VERTEX
  8
LAYER_4
 10
194.675
 20
377.66
  0
SEQEND
  0
POLYLINE
  8
LAYER_4
 40
0.105834
 41
0.105834
 66
1
 10
0
 20
0
 30
0
  0
VERTEX
  8
LAYER_4
 10
194.675
 20
380.5
  0
VERTEX
  8
LAYER_4
 10
194.675
 20
381.06
  0
SEQEND
  0
POLYLINE
  8
LAYER_4
 40
0.105834
 41
0.105834
 66
1
 10
0
 20
0
 30
0
  0
VERTEX
  8
LAYER_4
 10
194.675
 20
382.268
  0
VERTEX
  8
LAYER_4
 10
194.675
 20
382.668
  0
SEQEND
  0
POLYLINE
  8
LAYER_4
 40
0.105834
 41
0.105834
 66
1
 10
0
 20
0
 30
0
  0
VERTEX
  8
LAYER_4
 10
194.975
 20
376.42
  0
VERTEX
  8
LAYER_4
 10
194.975
 20
376.221
  0
SEQEND
  0
POLYLINE
  8
LAYER_4
 40
0.105834
 41
0.105834
 66
1
 10
0
 20
0
 30
0
  0
VERTEX
  8
LAYER_4
 10
196.495
 20
388.816
  0
VERTEX
  8
LAYER_4
 10
196.495
 20
389.216
  0
SEQEND
  0
POLYLINE
  8
LAYER_4
 40
0.105834
 41
0.105834
 66
1
 10
0
 20
0
 30
0
  0
VERTEX
  8
LAYER_4
 10
197.495
 20
387.217
  0
VERTEX
  8
LAYER_4
 10
197.495
 20
388.416
  0
SEQEND
  0
POLYLINE
  8
LAYER_4
 40
0.105834
 41
0.105834
 66
1
 10
0
 20
0
 30
0
  0
VERTEX
  8
LAYER_4
 10
199.115
 20
381.06
  0
VERTEX
  8
LAYER_4
 10
199.115
 20
380.5
  0
SEQEND
  0
POLYLINE
  8
LAYER_4
 40
0.105834
 41
0.105834
 66
1
 10
0
 20
0
 30
0
  0
VERTEX
  8
LAYER_4
 10
199.115
 20
377.66
  0
VERTEX
  8
LAYER_4
 10
199.115
 20
377.1
  0
SEQEND
  0
POLYLINE
  8
LAYER_4
 40
0.105834
 41
0.105834
 66
1
 10
0
 20
0
 30
0
  0
VERTEX
  8
LAYER_4
 10
199.115
 20
376.82
  0
VERTEX
  8
LAYER_4
 10
199.115
 20
376.42
  0
SEQEND
  0
POLYLINE
  8
LAYER_4
 40
0.105834
 41
0.105834
 66
1
 10
0
 20
0
 30
0
  0
VERTEX
  8
LAYER_4
 10
199.115
 20
382.268
  0
VERTEX
  8
LAYER_4
 10
199.115
 20
382.668
  0
SEQEND
  0
POLYLINE
  8
LAYER_4
 40
0.105834
 41
0.105834
 66
1
 10
0
 20
0
 30
0
  0
VERTEX
  8
LAYER_4
 10
199.395
 20
376.82
  0
VERTEX
  8
LAYER_4
 10
199.395
 20
382.268
  0
SEQEND
  0
POLYLINE
  8
LAYER_4
 40
0.105834
 41
0.105834
 66
1
 10
0
 20
0
 30
0
  0
VERTEX
  8
LAYER_4
 10
199.555
 20
382.868
  0
VERTEX
  8
LAYER_4
 10
199.555
 20
376.861
  0
SEQEND
  0
POLYLINE
  8
LAYER_4
 40
0.105834
 41
0.105834
 66
1
 10
0
 20
0
 30
0
  0
VERTEX
  8
LAYER_4
 10
199.795
 20
381.988
  0
VERTEX
  8
LAYER_4
 10
199.795
 20
377.1
  0
SEQEND
  0
POLYLINE
  8
LAYER_4
 40
0.105834
 41
0.105834
 66
1
 10
0
 20
0
 30
0
  0
VERTEX
  8
LAYER_4
 10
199.995
 20
376.221
  0
VERTEX
  8
LAYER_4
 10
199.995
 20
382.868
  0
SEQEND
  0
POLYLINE
  8
LAYER_4
 40
0.105834
 41
0.105834
 66
1
 10
0
 20
0
 30
0
  0
VERTEX
  8
LAYER_4
 10
202.247
 20
383.097
  0
VERTEX
  8
LAYER_4
 10
202.247
 20
378.256
  0
SEQEND
  0
POLYLINE
  8
LAYER_4
 40
0.105834
 41
0.105834
 66
1
 10
0
 20
0
 30
0
  0
VERTEX
  8
LAYER_4
 10
202.447
 20
378.456
  0
VERTEX
  8
LAYER_4
 10
202.447
 20
382.897
  0
SEQEND
  0
POLYLINE
  8
LAYER_4
 40
0.105834
 41
0.105834
 66
1
 10
0
 20
0
 30
0
  0
VERTEX
  8
LAYER_4
 10
202.687
 20
378.456
  0
VERTEX
  8
LAYER_4
 10
202.687
 20
378.256
  0
SEQEND
  0
POLYLINE
  8
LAYER_4
 40
0.105834
 41
0.105834
 66
1
 10
0
 20
0
 30
0
  0
VERTEX
  8
LAYER_4
 10
203.205
 20
382.176
  0
VERTEX
  8
LAYER_4
 10
203.205
 20
379.065
  0
SEQEND
  0
POLYLINE
  8
LAYER_4
 40
0.105834
 41
0.105834
 66
1
 10
0
 20
0
 30
0
  0
VERTEX
  8
LAYER_4
 10
206.585
 20
379.065
  0
VERTEX
  8
LAYER_4
 10
206.585
 20
382.176
  0
SEQEND
  0
POLYLINE
  8
LAYER_4
 40
0.105834
 41
0.105834
 66
1
 10
0
 20
0
 30
0
  0
VERTEX
  8
LAYER_4
 10
207.103
 20
378.256
  0
VERTEX
  8
LAYER_4
 10
207.103
 20
378.456
  0
SEQEND
  0
POLYLINE
  8
LAYER_4
 40
0.105834
 41
0.105834
 66
1
 10
0
 20
0
 30
0
  0
VERTEX
  8
LAYER_4
 10
207.343
 20
382.897
  0
VERTEX
  8
LAYER_4
 10
207.343
 20
378.456
  0
SEQEND
  0
POLYLINE
  8
LAYER_4
 40
0.105834
 41
0.105834
 66
1
 10
0
 20
0
 30
0
  0
VERTEX
  8
LAYER_4
 10
207.543
 20
378.256
  0
VERTEX
  8
LAYER_4
 10
207.543
 20
383.097
  0
SEQEND
  0
POLYLINE
  8
LAYER_4
 40
0.105834
 41
0.105834
 66
1
 10
0
 20
0
 30
0
  0
VERTEX
  8
LAYER_4
 10
211.411
 20
382.296
  0
VERTEX
  8
LAYER_4
 10
211.211
 20
382.097
  0
SEQEND
  0
POLYLINE
  8
LAYER_4
 40
0.105834
 41
0.105834
 66
1
 10
0
 20
0
 30
0
  0
VERTEX
  8
LAYER_4
 10
210.611
 20
381.496
  0
VERTEX
  8
LAYER_4
 10
210.811
 20
381.696
  0
SEQEND
  0
POLYLINE
  8
LAYER_4
 40
0.105834
 41
0.105834
 66
1
 10
0
 20
0
 30
0
  0
VERTEX
  8
LAYER_4
 10
210.303
 20
382.796
  0
VERTEX
  8
LAYER_4
 10
210.303
 20
378.696
  0
SEQEND
  0
POLYLINE
  8
LAYER_4
 40
0.105834
 41
0.105834
 66
1
 10
0
 20
0
 30
0
  0
VERTEX
  8
LAYER_4
 10
210.503
 20
378.896
  0
VERTEX
  8
LAYER_4
 10
210.503
 20
382.796
  0
SEQEND
  0
POLYLINE
  8
LAYER_4
 40
0.105834
 41
0.105834
 66
1
 10
0
 20
0
 30
0
  0
VERTEX
  8
LAYER_4
 10
210.611
 20
382.296
  0
VERTEX
  8
LAYER_4
 10
210.611
 20
381.496
  0
SEQEND
  0
POLYLINE
  8
LAYER_4
 40
0.105834
 41
0.105834
 66
1
 10
0
 20
0
 30
0
  0
VERTEX
  8
LAYER_4
 10
210.761
 20
381.397
  0
VERTEX
  8
LAYER_4
 10
210.761
 20
380.196
  0
SEQEND
  0
POLYLINE
  8
LAYER_4
 40
0.105834
 41
0.105834
 66
1
 10
0
 20
0
 30
0
  0
VERTEX
  8
LAYER_4
 10
210.811
 20
382.097
  0
VERTEX
  8
LAYER_4
 10
210.811
 20
381.696
  0
SEQEND
  0
POLYLINE
  8
LAYER_4
 40
0.105834
 41
0.105834
 66
1
 10
0
 20
0
 30
0
  0
VERTEX
  8
LAYER_4
 10
211.211
 20
381.696
  0
VERTEX
  8
LAYER_4
 10
211.211
 20
382.097
  0
SEQEND
  0
POLYLINE
  8
LAYER_4
 40
0.105834
 41
0.105834
 66
1
 10
0
 20
0
 30
0
  0
VERTEX
  8
LAYER_4
 10
211.261
 20
380.196
  0
VERTEX
  8
LAYER_4
 10
211.261
 20
381.397
  0
SEQEND
  0
POLYLINE
  8
LAYER_4
 40
0.105834
 41
0.105834
 66
1
 10
0
 20
0
 30
0
  0
VERTEX
  8
LAYER_4
 10
211.411
 20
381.496
  0
VERTEX
  8
LAYER_4
 10
211.411
 20
382.296
  0
SEQEND
  0
POLYLINE
  8
LAYER_4
 40
0.105834
 41
0.105834
 66
1
 10
0
 20
0
 30
0
  0
VERTEX
  8
LAYER_4
 10
211.627
 20
382.296
  0
VERTEX
  8
LAYER_4
 10
211.627
 20
381.496
  0
SEQEND
  0
POLYLINE
  8
LAYER_4
 40
0.105834
 41
0.105834
 66
1
 10
0
 20
0
 30
0
  0
VERTEX
  8
LAYER_4
 10
211.777
 20
381.397
  0
VERTEX
  8
LAYER_4
 10
211.777
 20
380.196
  0
SEQEND
  0
POLYLINE
  8
LAYER_4
 40
0.105834
 41
0.105834
 66
1
 10
0
 20
0
 30
0
  0
VERTEX
  8
LAYER_4
 10
211.827
 20
382.097
  0
VERTEX
  8
LAYER_4
 10
211.827
 20
381.696
  0
SEQEND
  0
POLYLINE
  8
LAYER_4
 40
0.105834
 41
0.105834
 66
1
 10
0
 20
0
 30
0
  0
VERTEX
  8
LAYER_4
 10
212.227
 20
381.696
  0
VERTEX
  8
LAYER_4
 10
212.227
 20
382.097
  0
SEQEND
  0
POLYLINE
  8
LAYER_4
 40
0.105834
 41
0.105834
 66
1
 10
0
 20
0
 30
0
  0
VERTEX
  8
LAYER_4
 10
212.277
 20
380.196
  0
VERTEX
  8
LAYER_4
 10
212.277
 20
381.397
  0
SEQEND
  0
POLYLINE
  8
LAYER_4
 40
0.105834
 41
0.105834
 66
1
 10
0
 20
0
 30
0
  0
VERTEX
  8
LAYER_4
 10
212.427
 20
381.496
  0
VERTEX
  8
LAYER_4
 10
212.427
 20
382.296
  0
SEQEND
  0
POLYLINE
  8
LAYER_4
 40
0.105834
 41
0.105834
 66
1
 10
0
 20
0
 30
0
  0
VERTEX
  8
LAYER_4
 10
212.643
 20
382.296
  0
VERTEX
  8
LAYER_4
 10
212.643
 20
381.496
  0
SEQEND
  0
POLYLINE
  8
LAYER_4
 40
0.105834
 41
0.105834
 66
1
 10
0
 20
0
 30
0
  0
VERTEX
  8
LAYER_4
 10
212.793
 20
381.397
  0
VERTEX
  8
LAYER_4
 10
212.793
 20
380.196
  0
SEQEND
  0
POLYLINE
  8
LAYER_4
 40
0.105834
 41
0.105834
 66
1
 10
0
 20
0
 30
0
  0
VERTEX
  8
LAYER_4
 10
212.843
 20
382.097
  0
VERTEX
  8
LAYER_4
 10
212.843
 20
381.696
  0
SEQEND
  0
POLYLINE
  8
LAYER_4
 40
0.105834
 41
0.105834
 66
1
 10
0
 20
0
 30
0
  0
VERTEX
  8
LAYER_4
 10
213.243
 20
381.696
  0
VERTEX
  8
LAYER_4
 10
213.243
 20
382.097
  0
SEQEND
  0
POLYLINE
  8
LAYER_4
 40
0.105834
 41
0.105834
 66
1
 10
0
 20
0
 30
0
  0
VERTEX
  8
LAYER_4
 10
213.293
 20
380.196
  0
VERTEX
  8
LAYER_4
 10
213.293
 20
381.397
  0
SEQEND
  0
POLYLINE
  8
LAYER_4
 40
0.105834
 41
0.105834
 66
1
 10
0
 20
0
 30
0
  0
VERTEX
  8
LAYER_4
 10
213.443
 20
381.496
  0
VERTEX
  8
LAYER_4
 10
213.443
 20
382.296
  0
SEQEND
  0
POLYLINE
  8
LAYER_4
 40
0.105834
 41
0.105834
 66
1
 10
0
 20
0
 30
0
  0
VERTEX
  8
LAYER_4
 10
213.659
 20
382.296
  0
VERTEX
  8
LAYER_4
 10
213.659
 20
381.496
  0
SEQEND
  0
POLYLINE
  8
LAYER_4
 40
0.105834
 41
0.105834
 66
1
 10
0
 20
0
 30
0
  0
VERTEX
  8
LAYER_4
 10
213.809
 20
381.397
  0
VERTEX
  8
LAYER_4
 10
213.809
 20
380.196
  0
SEQEND
  0
POLYLINE
  8
LAYER_4
 40
0.105834
 41
0.105834
 66
1
 10
0
 20
0
 30
0
  0
VERTEX
  8
LAYER_4
 10
213.859
 20
382.097
  0
VERTEX
  8
LAYER_4
 10
213.859
 20
381.696
  0
SEQEND
  0
POLYLINE
  8
LAYER_4
 40
0.105834
 41
0.105834
 66
1
 10
0
 20
0
 30
0
  0
VERTEX
  8
LAYER_4
 10
214.259
 20
381.696
  0
VERTEX
  8
LAYER_4
 10
214.259
 20
382.097
  0
SEQEND
  0
POLYLINE
  8
LAYER_4
 40
0.105834
 41
0.105834
 66
1
 10
0
 20
0
 30
0
  0
VERTEX
  8
LAYER_4
 10
214.309
 20
380.196
  0
VERTEX
  8
LAYER_4
 10
214.309
 20
381.397
  0
SEQEND
  0
POLYLINE
  8
LAYER_4
 40
0.105834
 41
0.105834
 66
1
 10
0
 20
0
 30
0
  0
VERTEX
  8
LAYER_4
 10
214.459
 20
381.496
  0
VERTEX
  8
LAYER_4
 10
214.459
 20
382.296
  0
SEQEND
  0
POLYLINE
  8
LAYER_4
 40
0.105834
 41
0.105834
 66
1
 10
0
 20
0
 30
0
  0
VERTEX
  8
LAYER_4
 10
214.675
 20
382.296
  0
VERTEX
  8
LAYER_4
 10
214.675
 20
381.496
  0
SEQEND
  0
POLYLINE
  8
LAYER_4
 40
0.105834
 41
0.105834
 66
1
 10
0
 20
0
 30
0
  0
VERTEX
  8
LAYER_4
 10
214.825
 20
381.397
  0
VERTEX
  8
LAYER_4
 10
214.825
 20
380.196
  0
SEQEND
  0
POLYLINE
  8
LAYER_4
 40
0.105834
 41
0.105834
 66
1
 10
0
 20
0
 30
0
  0
VERTEX
  8
LAYER_4
 10
214.875
 20
382.097
  0
VERTEX
  8
LAYER_4
 10
214.875
 20
381.696
  0
SEQEND
  0
POLYLINE
  8
LAYER_4
 40
0.105834
 41
0.105834
 66
1
 10
0
 20
0
 30
0
  0
VERTEX
  8
LAYER_4
 10
215.275
 20
381.696
  0
VERTEX
  8
LAYER_4
 10
215.275
 20
382.097
  0
SEQEND
  0
POLYLINE
  8
LAYER_4
 40
0.105834
 41
0.105834
 66
1
 10
0
 20
0
 30
0
  0
VERTEX
  8
LAYER_4
 10
215.325
 20
380.196
  0
VERTEX
  8
LAYER_4
 10
215.325
 20
381.397
  0
SEQEND
  0
POLYLINE
  8
LAYER_4
 40
0.105834
 41
0.105834
 66
1
 10
0
 20
0
 30
0
  0
VERTEX
  8
LAYER_4
 10
215.475
 20
381.496
  0
VERTEX
  8
LAYER_4
 10
215.475
 20
382.296
  0
SEQEND
  0
POLYLINE
  8
LAYER_4
 40
0.105834
 41
0.105834
 66
1
 10
0
 20
0
 30
0
  0
VERTEX
  8
LAYER_4
 10
212.427
 20
382.296
  0
VERTEX
  8
LAYER_4
 10
212.227
 20
382.097
  0
SEQEND
  0
POLYLINE
  8
LAYER_4
 40
0.105834
 41
0.105834
 66
1
 10
0
 20
0
 30
0
  0
VERTEX
  8
LAYER_4
 10
211.627
 20
381.496
  0
VERTEX
  8
LAYER_4
 10
211.827
 20
381.696
  0
SEQEND
  0
POLYLINE
  8
LAYER_4
 40
0.105834
 41
0.105834
 66
1
 10
0
 20
0
 30
0
  0
VERTEX
  8
LAYER_4
 10
213.443
 20
382.296
  0
VERTEX
  8
LAYER_4
 10
213.243
 20
382.097
  0
SEQEND
  0
POLYLINE
  8
LAYER_4
 40
0.105834
 41
0.105834
 66
1
 10
0
 20
0
 30
0
  0
VERTEX
  8
LAYER_4
 10
212.643
 20
381.496
  0
VERTEX
  8
LAYER_4
 10
212.843
 20
381.696
  0
SEQEND
  0
POLYLINE
  8
LAYER_4
 40
0.105834
 41
0.105834
 66
1
 10
0
 20
0
 30
0
  0
VERTEX
  8
LAYER_4
 10
214.459
 20
382.296
  0
VERTEX
  8
LAYER_4
 10
214.259
 20
382.097
  0
SEQEND
  0
POLYLINE
  8
LAYER_4
 40
0.105834
 41
0.105834
 66
1
 10
0
 20
0
 30
0
  0
VERTEX
  8
LAYER_4
 10
213.659
 20
381.496
  0
VERTEX
  8
LAYER_4
 10
213.859
 20
381.696
  0
SEQEND
  0
POLYLINE
  8
LAYER_4
 40
0.105834
 41
0.105834
 66
1
 10
0
 20
0
 30
0
  0
VERTEX
  8
LAYER_4
 10
215.475
 20
382.296
  0
VERTEX
  8
LAYER_4
 10
215.275
 20
382.097
  0
SEQEND
  0
POLYLINE
  8
LAYER_4
 40
0.105834
 41
0.105834
 66
1
 10
0
 20
0
 30
0
  0
VERTEX
  8
LAYER_4
 10
214.675
 20
381.496
  0
VERTEX
  8
LAYER_4
 10
214.875
 20
381.696
  0
SEQEND
  0
POLYLINE
  8
LAYER_4
 40
0.105834
 41
0.105834
 66
1
 10
0
 20
0
 30
0
  0
VERTEX
  8
LAYER_4
 10
216.491
 20
382.296
  0
VERTEX
  8
LAYER_4
 10
216.291
 20
382.097
  0
SEQEND
  0
POLYLINE
  8
LAYER_4
 40
0.105834
 41
0.105834
 66
1
 10
0
 20
0
 30
0
  0
VERTEX
  8
LAYER_4
 10
215.691
 20
381.496
  0
VERTEX
  8
LAYER_4
 10
215.891
 20
381.696
  0
SEQEND
  0
POLYLINE
  8
LAYER_4
 40
0.105834
 41
0.105834
 66
1
 10
0
 20
0
 30
0
  0
VERTEX
  8
LAYER_4
 10
217.507
 20
382.296
  0
VERTEX
  8
LAYER_4
 10
217.307
 20
382.097
  0
SEQEND
  0
POLYLINE
  8
LAYER_4
 40
0.105834
 41
0.105834
 66
1
 10
0
 20
0
 30
0
  0
VERTEX
  8
LAYER_4
 10
216.707
 20
381.496
  0
VERTEX
  8
LAYER_4
 10
216.907
 20
381.696
  0
SEQEND
  0
POLYLINE
  8
LAYER_4
 40
0.105834
 41
0.105834
 66
1
 10
0
 20
0
 30
0
  0
VERTEX
  8
LAYER_4
 10
185.751
 20
371.217
  0
VERTEX
  8
LAYER_4
 10
187.907
 20
372.51
  0
SEQEND
  0
POLYLINE
  8
LAYER_4
 40
0.105834
 41
0.105834
 66
1
 10
0
 20
0
 30
0
  0
VERTEX
  8
LAYER_4
 10
186.295
 20
370.89
  0
VERTEX
  8
LAYER_4
 10
188.649
 20
372.302
  0
SEQEND
  0
POLYLINE
  8
LAYER_4
 40
0.105834
 41
0.105834
 66
1
 10
0
 20
0
 30
0
  0
VERTEX
  8
LAYER_4
 10
215.691
 20
382.296
  0
VERTEX
  8
LAYER_4
 10
215.691
 20
381.496
  0
SEQEND
  0
POLYLINE
  8
LAYER_4
 40
0.105834
 41
0.105834
 66
1
 10
0
 20
0
 30
0
  0
VERTEX
  8
LAYER_4
 10
215.841
 20
381.397
  0
VERTEX
  8
LAYER_4
 10
215.841
 20
380.196
  0
SEQEND
  0
POLYLINE
  8
LAYER_4
 40
0.105834
 41
0.105834
 66
1
 10
0
 20
0
 30
0
  0
VERTEX
  8
LAYER_4
 10
215.891
 20
382.097
  0
VERTEX
  8
LAYER_4
 10
215.891
 20
381.696
  0
SEQEND
  0
POLYLINE
  8
LAYER_4
 40
0.105834
 41
0.105834
 66
1
 10
0
 20
0
 30
0
  0
VERTEX
  8
LAYER_4
 10
216.291
 20
381.696
  0
VERTEX
  8
LAYER_4
 10
216.291
 20
382.097
  0
SEQEND
  0
POLYLINE
  8
LAYER_4
 40
0.105834
 41
0.105834
 66
1
 10
0
 20
0
 30
0
  0
VERTEX
  8
LAYER_4
 10
216.341
 20
380.196
  0
VERTEX
  8
LAYER_4
 10
216.341
 20
381.397
  0
SEQEND
  0
POLYLINE
  8
LAYER_4
 40
0.105834
 41
0.105834
 66
1
 10
0
 20
0
 30
0
  0
VERTEX
  8
LAYER_4
 10
216.491
 20
381.496
  0
VERTEX
  8
LAYER_4
 10
216.491
 20
382.296
  0
SEQEND
  0
POLYLINE
  8
LAYER_4
 40
0.105834
 41
0.105834
 66
1
 10
0
 20
0
 30
0
  0
VERTEX
  8
LAYER_4
 10
216.707
 20
382.296
  0
VERTEX
  8
LAYER_4
 10
216.707
 20
381.496
  0
SEQEND
  0
POLYLINE
  8
LAYER_4
 40
0.105834
 41
0.105834
 66
1
 10
0
 20
0
 30
0
  0
VERTEX
  8
LAYER_4
 10
216.857
 20
381.397
  0
VERTEX
  8
LAYER_4
 10
216.857
 20
380.196
  0
SEQEND
  0
POLYLINE
  8
LAYER_4
 40
0.105834
 41
0.105834
 66
1
 10
0
 20
0
 30
0
  0
VERTEX
  8
LAYER_4
 10
216.907
 20
382.097
  0
VERTEX
  8
LAYER_4
 10
216.907
 20
381.696
  0
SEQEND
  0
POLYLINE
  8
LAYER_4
 40
0.105834
 41
0.105834
 66
1
 10
0
 20
0
 30
0
  0
VERTEX
  8
LAYER_4
 10
217.307
 20
381.696
  0
VERTEX
  8
LAYER_4
 10
217.307
 20
382.097
  0
SEQEND
  0
POLYLINE
  8
LAYER_4
 40
0.105834
 41
0.105834
 66
1
 10
0
 20
0
 30
0
  0
VERTEX
  8
LAYER_4
 10
217.357
 20
380.196
  0
VERTEX
  8
LAYER_4
 10
217.357
 20
381.397
  0
SEQEND
  0
POLYLINE
  8
LAYER_4
 40
0.105834
 41
0.105834
 66
1
 10
0
 20
0
 30
0
  0
VERTEX
  8
LAYER_4
 10
217.507
 20
381.496
  0
VERTEX
  8
LAYER_4
 10
217.507
 20
382.296
  0
SEQEND
  0
POLYLINE
  8
LAYER_4
 40
0.105834
 41
0.105834
 66
1
 10
0
 20
0
 30
0
  0
VERTEX
  8
LAYER_4
 10
218.215
 20
378.896
  0
VERTEX
  8
LAYER_4
 10
218.215
 20
382.796
  0
SEQEND
  0
POLYLINE
  8
LAYER_4
 40
0.105834
 41
0.105834
 66
1
 10
0
 20
0
 30
0
  0
VERTEX
  8
LAYER_4
 10
218.415
 20
378.696
  0
VERTEX
  8
LAYER_4
 10
218.415
 20
382.796
  0
SEQEND
  0
POLYLINE
  8
LAYER_4
 40
0.105834
 41
0.105834
 66
1
 10
0
 20
0
 30
0
  0
VERTEX
  8
LAYER_4
 10
222.135
 20
381.696
  0
VERTEX
  8
LAYER_4
 10
222.135
 20
379.697
  0
SEQEND
  0
POLYLINE
  8
LAYER_4
 40
0.105834
 41
0.105834
 66
1
 10
0
 20
0
 30
0
  0
VERTEX
  8
LAYER_4
 10
222.335
 20
381.496
  0
VERTEX
  8
LAYER_4
 10
222.335
 20
379.897
  0
SEQEND
  0
POLYLINE
  8
LAYER_4
 40
0.105834
 41
0.105834
 66
1
 10
0
 20
0
 30
0
  0
VERTEX
  8
LAYER_4
 10
224.495
 20
373.616
  0
VERTEX
  8
LAYER_4
 10
224.495
 20
372.416
  0
SEQEND
  0
POLYLINE
  8
LAYER_4
 40
0.105834
 41
0.105834
 66
1
 10
0
 20
0
 30
0
  0
VERTEX
  8
LAYER_4
 10
224.695
 20
372.416
  0
VERTEX
  8
LAYER_4
 10
224.695
 20
373.216
  0
SEQEND
  0
POLYLINE
  8
LAYER_4
 40
0.105834
 41
0.105834
 66
1
 10
0
 20
0
 30
0
  0
VERTEX
  8
LAYER_4
 10
225.935
 20
379.897
  0
VERTEX
  8
LAYER_4
 10
225.935
 20
381.496
  0
SEQEND
  0
POLYLINE
  8
LAYER_4
 40
0.105834
 41
0.105834
 66
1
 10
0
 20
0
 30
0
  0
VERTEX
  8
LAYER_4
 10
226.135
 20
379.697
  0
VERTEX
  8
LAYER_4
 10
226.135
 20
381.696
  0
SEQEND
  0
POLYLINE
  8
LAYER_4
 40
0.105834
 41
0.105834
 66
1
 10
0
 20
0
 30
0
  0
VERTEX
  8
LAYER_4
 10
226.695
 20
373.216
  0
VERTEX
  8
LAYER_4
 10
226.695
 20
372.416
  0
SEQEND
  0
POLYLINE
  8
LAYER_4
 40
0.105834
 41
0.105834
 66
1
 10
0
 20
0
 30
0
  0
VERTEX
  8
LAYER_4
 10
226.895
 20
372.416
  0
VERTEX
  8
LAYER_4
 10
226.895
 20
373.616
  0
SEQEND
  0
POLYLINE
  8
LAYER_4
 40
0.105834
 41
0.105834
 66
1
 10
0
 20
0
 30
0
  0
VERTEX
  8
LAYER_4
 10
236.874
 20
385.316
  0
VERTEX
  8
LAYER_4
 10
236.934
 20
385.376
  0
SEQEND
  0
POLYLINE
  8
LAYER_4
 40
0.105834
 41
0.105834
 66
1
 10
0
 20
0
 30
0
  0
VERTEX
  8
LAYER_4
 10
185.913
 20
370.902
  0
VERTEX
  8
LAYER_4
 10
186.305
 20
371.033
  0
SEQEND
  0
POLYLINE
  8
LAYER_4
 40
0.105834
 41
0.105834
 66
1
 10
0
 20
0
 30
0
  0
VERTEX
  8
LAYER_4
 10
228.775
 20
373.837
  0
VERTEX
  8
LAYER_4
 10
228.775
 20
383.796
  0
SEQEND
  0
POLYLINE
  8
LAYER_4
 40
0.105834
 41
0.105834
 66
1
 10
0
 20
0
 30
0
  0
VERTEX
  8
LAYER_4
 10
232.055
 20
373.036
  0
VERTEX
  8
LAYER_4
 10
232.055
 20
372.256
  0
SEQEND
  0
POLYLINE
  8
LAYER_4
 40
0.105834
 41
0.105834
 66
1
 10
0
 20
0
 30
0
  0
VERTEX
  8
LAYER_4
 10
232.115
 20
372.317
  0
VERTEX
  8
LAYER_4
 10
232.115
 20
373.036
  0
SEQEND
  0
POLYLINE
  8
LAYER_4
 40
0.105834
 41
0.105834
 66
1
 10
0
 20
0
 30
0
  0
VERTEX
  8
LAYER_4
 10
232.855
 20
385.376
  0
VERTEX
  8
LAYER_4
 10
232.855
 20
384.977
  0
SEQEND
  0
POLYLINE
  8
LAYER_4
 40
0.105834
 41
0.105834
 66
1
 10
0
 20
0
 30
0
  0
VERTEX
  8
LAYER_4
 10
232.895
 20
384.597
  0
VERTEX
  8
LAYER_4
 10
232.895
 20
385.376
  0
SEQEND
  0
POLYLINE
  8
LAYER_4
 40
0.105834
 41
0.105834
 66
1
 10
0
 20
0
 30
0
  0
VERTEX
  8
LAYER_4
 10
232.915
 20
384.597
  0
VERTEX
  8
LAYER_4
 10
232.915
 20
385.316
  0
SEQEND
  0
POLYLINE
  8
LAYER_4
 40
0.105834
 41
0.105834
 66
1
 10
0
 20
0
 30
0
  0
VERTEX
  8
LAYER_4
 10
235.321
 20
377.561
  0
VERTEX
  8
LAYER_4
 10
233.573
 20
376.552
  0
SEQEND
  0
POLYLINE
  8
LAYER_4
 40
0.105834
 41
0.105834
 66
1
 10
0
 20
0
 30
0
  0
VERTEX
  8
LAYER_4
 10
234.173
 20
375.513
  0
VERTEX
  8
LAYER_4
 10
235.921
 20
376.522
  0
SEQEND
  0
POLYLINE
  8
LAYER_4
 40
0.105834
 41
0.105834
 66
1
 10
0
 20
0
 30
0
  0
VERTEX
  8
LAYER_4
 10
238.095
 20
384.384
  0
VERTEX
  8
LAYER_4
 10
238.095
 20
382.366
  0
SEQEND
  0
POLYLINE
  8
LAYER_4
 40
0.105834
 41
0.105834
 66
1
 10
0
 20
0
 30
0
  0
VERTEX
  8
LAYER_4
 10
238.855
 20
372.317
  0
VERTEX
  8
LAYER_4
 10
238.855
 20
372.256
  0
SEQEND
  0
POLYLINE
  8
LAYER_4
 40
0.105834
 41
0.105834
 66
1
 10
0
 20
0
 30
0
  0
VERTEX
  8
LAYER_4
 10
239.175
 20
372.317
  0
VERTEX
  8
LAYER_4
 10
239.175
 20
372.256
  0
SEQEND
  0
POLYLINE
  8
LAYER_4
 40
0.105834
 41
0.105834
 66
1
 10
0
 20
0
 30
0
  0
VERTEX
  8
LAYER_4
 10
239.255
 20
372.317
  0
VERTEX
  8
LAYER_4
 10
239.255
 20
372.256
  0
SEQEND
  0
POLYLINE
  8
LAYER_4
 40
0.105834
 41
0.105834
 66
1
 10
0
 20
0
 30
0
  0
VERTEX
  8
LAYER_4
 10
239.295
 20
372.256
  0
VERTEX
  8
LAYER_4
 10
239.295
 20
372.317
  0
SEQEND
  0
POLYLINE
  8
LAYER_4
 40
0.105834
 41
0.105834
 66
1
 10
0
 20
0
 30
0
  0
VERTEX
  8
LAYER_4
 10
239.295
 20
382.366
  0
VERTEX
  8
LAYER_4
 10
239.295
 20
384.384
  0
SEQEND
  0
POLYLINE
  8
LAYER_4
 40
0.105834
 41
0.105834
 66
1
 10
0
 20
0
 30
0
  0
VERTEX
  8
LAYER_4
 10
239.375
 20
372.256
  0
VERTEX
  8
LAYER_4
 10
239.375
 20
372.317
  0
SEQEND
  0
POLYLINE
  8
LAYER_4
 40
0.105834
 41
0.105834
 66
1
 10
0
 20
0
 30
0
  0
VERTEX
  8
LAYER_4
 10
239.695
 20
372.317
  0
VERTEX
  8
LAYER_4
 10
239.695
 20
372.256
  0
SEQEND
  0
POLYLINE
  8
LAYER_4
 40
0.105834
 41
0.105834
 66
1
 10
0
 20
0
 30
0
  0
VERTEX
  8
LAYER_4
 10
256.817
 20
382.12
  0
VERTEX
  8
LAYER_4
 10
255.069
 20
381.111
  0
SEQEND
  0
POLYLINE
  8
LAYER_4
 40
0.105834
 41
0.105834
 66
1
 10
0
 20
0
 30
0
  0
VERTEX
  8
LAYER_4
 10
241.555
 20
372.256
  0
VERTEX
  8
LAYER_4
 10
241.555
 20
372.317
  0
SEQEND
  0
POLYLINE
  8
LAYER_4
 40
0.105834
 41
0.105834
 66
1
 10
0
 20
0
 30
0
  0
VERTEX
  8
LAYER_4
 10
243.435
 20
372.256
  0
VERTEX
  8
LAYER_4
 10
243.435
 20
372.317
  0
SEQEND
  0
POLYLINE
  8
LAYER_4
 40
0.105834
 41
0.105834
 66
1
 10
0
 20
0
 30
0
  0
VERTEX
  8
LAYER_4
 10
244.895
 20
385.376
  0
VERTEX
  8
LAYER_4
 10
244.895
 20
385.316
  0
SEQEND
  0
POLYLINE
  8
LAYER_4
 40
0.105834
 41
0.105834
 66
1
 10
0
 20
0
 30
0
  0
VERTEX
  8
LAYER_4
 10
245.695
 20
385.376
  0
VERTEX
  8
LAYER_4
 10
245.695
 20
385.316
  0
SEQEND
  0
POLYLINE
  8
LAYER_4
 40
0.105834
 41
0.105834
 66
1
 10
0
 20
0
 30
0
  0
VERTEX
  8
LAYER_4
 10
255.669
 20
380.072
  0
VERTEX
  8
LAYER_4
 10
257.417
 20
381.081
  0
SEQEND
  0
POLYLINE
  8
LAYER_4
 40
0.105834
 41
0.105834
 66
1
 10
0
 20
0
 30
0
  0
VERTEX
  8
LAYER_4
 10
251.695
 20
375.267
  0
VERTEX
  8
LAYER_4
 10
251.695
 20
373.249
  0
SEQEND
  0
POLYLINE
  8
LAYER_4
 40
0.105834
 41
0.105834
 66
1
 10
0
 20
0
 30
0
  0
VERTEX
  8
LAYER_4
 10
252.095
 20
372.256
  0
VERTEX
  8
LAYER_4
 10
252.095
 20
372.317
  0
SEQEND
  0
POLYLINE
  8
LAYER_4
 40
0.105834
 41
0.105834
 66
1
 10
0
 20
0
 30
0
  0
VERTEX
  8
LAYER_4
 10
259.495
 20
372.416
  0
VERTEX
  8
LAYER_4
 10
259.095
 20
372.017
  0
SEQEND
  0
POLYLINE
  8
LAYER_4
 40
0.105834
 41
0.105834
 66
1
 10
0
 20
0
 30
0
  0
VERTEX
  8
LAYER_4
 10
210.611
 20
382.296
  0
VERTEX
  8
LAYER_4
 10
210.811
 20
382.097
  0
SEQEND
  0
POLYLINE
  8
LAYER_4
 40
0.105834
 41
0.105834
 66
1
 10
0
 20
0
 30
0
  0
VERTEX
  8
LAYER_4
 10
211.411
 20
381.496
  0
VERTEX
  8
LAYER_4
 10
211.211
 20
381.696
  0
SEQEND
  0
POLYLINE
  8
LAYER_4
 40
0.105834
 41
0.105834
 66
1
 10
0
 20
0
 30
0
  0
VERTEX
  8
LAYER_4
 10
211.627
 20
382.296
  0
VERTEX
  8
LAYER_4
 10
211.827
 20
382.097
  0
SEQEND
  0
POLYLINE
  8
LAYER_4
 40
0.105834
 41
0.105834
 66
1
 10
0
 20
0
 30
0
  0
VERTEX
  8
LAYER_4
 10
212.427
 20
381.496
  0
VERTEX
  8
LAYER_4
 10
212.227
 20
381.696
  0
SEQEND
  0
POLYLINE
  8
LAYER_4
 40
0.105834
 41
0.105834
 66
1
 10
0
 20
0
 30
0
  0
VERTEX
  8
LAYER_4
 10
212.643
 20
382.296
  0
VERTEX
  8
LAYER_4
 10
212.843
 20
382.097
  0
SEQEND
  0
POLYLINE
  8
LAYER_4
 40
0.105834
 41
0.105834
 66
1
 10
0
 20
0
 30
0
  0
VERTEX
  8
LAYER_4
 10
213.443
 20
381.496
  0
VERTEX
  8
LAYER_4
 10
213.243
 20
381.696
  0
SEQEND
  0
POLYLINE
  8
LAYER_4
 40
0.105834
 41
0.105834
 66
1
 10
0
 20
0
 30
0
  0
VERTEX
  8
LAYER_4
 10
213.659
 20
382.296
  0
VERTEX
  8
LAYER_4
 10
213.859
 20
382.097
  0
SEQEND
  0
POLYLINE
  8
LAYER_4
 40
0.105834
 41
0.105834
 66
1
 10
0
 20
0
 30
0
  0
VERTEX
  8
LAYER_4
 10
214.459
 20
381.496
  0
VERTEX
  8
LAYER_4
 10
214.259
 20
381.696
  0
SEQEND
  0
POLYLINE
  8
LAYER_4
 40
0.105834
 41
0.105834
 66
1
 10
0
 20
0
 30
0
  0
VERTEX
  8
LAYER_4
 10
214.675
 20
382.296
  0
VERTEX
  8
LAYER_4
 10
214.875
 20
382.097
  0
SEQEND
  0
POLYLINE
  8
LAYER_4
 40
0.105834
 41
0.105834
 66
1
 10
0
 20
0
 30
0
  0
VERTEX
  8
LAYER_4
 10
215.475
 20
381.496
  0
VERTEX
  8
LAYER_4
 10
215.275
 20
381.696
  0
SEQEND
  0
POLYLINE
  8
LAYER_4
 40
0.105834
 41
0.105834
 66
1
 10
0
 20
0
 30
0
  0
VERTEX
  8
LAYER_4
 10
215.691
 20
382.296
  0
VERTEX
  8
LAYER_4
 10
215.891
 20
382.097
  0
SEQEND
  0
POLYLINE
  8
LAYER_4
 40
0.105834
 41
0.105834
 66
1
 10
0
 20
0
 30
0
  0
VERTEX
  8
LAYER_4
 10
216.491
 20
381.496
  0
VERTEX
  8
LAYER_4
 10
216.291
 20
381.696
  0
SEQEND
  0
POLYLINE
  8
LAYER_4
 40
0.105834
 41
0.105834
 66
1
 10
0
 20
0
 30
0
  0
VERTEX
  8
LAYER_4
 10
216.707
 20
382.296
  0
VERTEX
  8
LAYER_4
 10
216.907
 20
382.097
  0
SEQEND
  0
POLYLINE
  8
LAYER_4
 40
0.105834
 41
0.105834
 66
1
 10
0
 20
0
 30
0
  0
VERTEX
  8
LAYER_4
 10
217.507
 20
381.496
  0
VERTEX
  8
LAYER_4
 10
217.307
 20
381.696
  0
SEQEND
  0
POLYLINE
  8
LAYER_4
 40
0.105834
 41
0.105834
 66
1
 10
0
 20
0
 30
0
  0
VERTEX
  8
LAYER_4
 10
252.895
 20
373.249
  0
VERTEX
  8
LAYER_4
 10
252.895
 20
375.267
  0
SEQEND
  0
POLYLINE
  8
LAYER_4
 40
0.105834
 41
0.105834
 66
1
 10
0
 20
0
 30
0
  0
VERTEX
  8
LAYER_4
 10
231.495
 20
372.416
  0
VERTEX
  8
LAYER_4
 10
231.895
 20
372.017
  0
SEQEND
  0
POLYLINE
  8
LAYER_4
 40
0.105834
 41
0.105834
 66
1
 10
0
 20
0
 30
0
  0
VERTEX
  8
LAYER_4
 10
258.875
 20
372.317
  0
VERTEX
  8
LAYER_4
 10
258.875
 20
373.036
  0
SEQEND
  0
POLYLINE
  8
LAYER_4
 40
0.105834
 41
0.105834
 66
1
 10
0
 20
0
 30
0
  0
VERTEX
  8
LAYER_4
 10
258.875
 20
384.597
  0
VERTEX
  8
LAYER_4
 10
258.875
 20
385.316
  0
SEQEND
  0
POLYLINE
  8
LAYER_4
 40
0.105834
 41
0.105834
 66
1
 10
0
 20
0
 30
0
  0
VERTEX
  8
LAYER_4
 10
258.935
 20
372.256
  0
VERTEX
  8
LAYER_4
 10
258.935
 20
373.036
  0
SEQEND
  0
POLYLINE
  8
LAYER_4
 40
0.105834
 41
0.105834
 66
1
 10
0
 20
0
 30
0
  0
VERTEX
  8
LAYER_4
 10
258.935
 20
384.597
  0
VERTEX
  8
LAYER_4
 10
258.935
 20
385.376
  0
SEQEND
  0
POLYLINE
  8
LAYER_4
 40
0.105834
 41
0.105834
 66
1
 10
0
 20
0
 30
0
  0
VERTEX
  8
LAYER_4
 10
262.615
 20
383.796
  0
VERTEX
  8
LAYER_4
 10
262.615
 20
373.837
  0
SEQEND
  0
POLYLINE
  8
LAYER_4
 40
0.105834
 41
0.105834
 66
1
 10
0
 20
0
 30
0
  0
VERTEX
  8
LAYER_4
 10
268.635
 20
373.616
  0
VERTEX
  8
LAYER_4
 10
268.635
 20
372.416
  0
SEQEND
  0
POLYLINE
  8
LAYER_4
 40
0.105834
 41
0.105834
 66
1
 10
0
 20
0
 30
0
  0
VERTEX
  8
LAYER_4
 10
268.695
 20
372.416
  0
VERTEX
  8
LAYER_4
 10
268.695
 20
373.216
  0
SEQEND
  0
POLYLINE
  8
LAYER_4
 40
0.105834
 41
0.105834
 66
1
 10
0
 20
0
 30
0
  0
VERTEX
  8
LAYER_4
 10
353.494
 20
386.216
  0
VERTEX
  8
LAYER_4
 10
353.12
 20
386.092
  0
SEQEND
  0
POLYLINE
  8
LAYER_4
 40
0.105834
 41
0.105834
 66
1
 10
0
 20
0
 30
0
  0
VERTEX
  8
LAYER_4
 10
270.695
 20
373.216
  0
VERTEX
  8
LAYER_4
 10
270.695
 20
372.416
  0
SEQEND
  0
POLYLINE
  8
LAYER_4
 40
0.105834
 41
0.105834
 66
1
 10
0
 20
0
 30
0
  0
VERTEX
  8
LAYER_4
 10
270.755
 20
372.416
  0
VERTEX
  8
LAYER_4
 10
270.755
 20
373.616
  0
SEQEND
  0
POLYLINE
  8
LAYER_4
 40
0.105834
 41
0.105834
 66
1
 10
0
 20
0
 30
0
  0
VERTEX
  8
LAYER_4
 10
272.095
 20
374.016
  0
VERTEX
  8
LAYER_4
 10
272.095
 20
372.416
  0
SEQEND
  0
POLYLINE
  8
LAYER_4
 40
0.105834
 41
0.105834
 66
1
 10
0
 20
0
 30
0
  0
VERTEX
  8
LAYER_4
 10
276.095
 20
372.416
  0
VERTEX
  8
LAYER_4
 10
276.095
 20
374.016
  0
SEQEND
  0
POLYLINE
  8
LAYER_4
 40
0.105834
 41
0.105834
 66
1
 10
0
 20
0
 30
0
  0
VERTEX
  8
LAYER_4
 10
185.896
 20
386.216
  0
VERTEX
  8
LAYER_4
 10
186.27
 20
386.092
  0
SEQEND
  0
POLYLINE
  8
LAYER_4
 40
0.105834
 41
0.105834
 66
1
 10
0
 20
0
 30
0
  0
VERTEX
  8
LAYER_4
 10
241.19
 20
376.221
  0
VERTEX
  8
LAYER_4
 10
242.967
 20
375.195
  0
SEQEND
  0
POLYLINE
  8
LAYER_4
 40
0.105834
 41
0.105834
 66
1
 10
0
 20
0
 30
0
  0
VERTEX
  8
LAYER_4
 10
243.967
 20
376.928
  0
VERTEX
  8
LAYER_4
 10
242.19
 20
377.953
  0
SEQEND
  0
POLYLINE
  8
LAYER_4
 40
0.105834
 41
0.105834
 66
1
 10
0
 20
0
 30
0
  0
VERTEX
  8
LAYER_4
 10
247.024
 20
380.705
  0
VERTEX
  8
LAYER_4
 10
248.8
 20
379.68
  0
SEQEND
  0
POLYLINE
  8
LAYER_4
 40
0.105834
 41
0.105834
 66
1
 10
0
 20
0
 30
0
  0
VERTEX
  8
LAYER_4
 10
251.657
 20
385.376
  0
VERTEX
  8
LAYER_4
 10
251.716
 20
385.316
  0
SEQEND
  0
POLYLINE
  8
LAYER_4
 40
0.105834
 41
0.105834
 66
1
 10
0
 20
0
 30
0
  0
VERTEX
  8
LAYER_4
 10
286.895
 20
374.896
  0
VERTEX
  8
LAYER_4
 10
286.895
 20
373.297
  0
SEQEND
  0
POLYLINE
  8
LAYER_4
 40
0.105834
 41
0.105834
 66
1
 10
0
 20
0
 30
0
  0
VERTEX
  8
LAYER_4
 10
287.295
 20
374.016
  0
VERTEX
  8
LAYER_4
 10
287.295
 20
374.896
  0
SEQEND
  0
POLYLINE
  8
LAYER_4
 40
0.105834
 41
0.105834
 66
1
 10
0
 20
0
 30
0
  0
VERTEX
  8
LAYER_4
 10
354.096
 20
369.896
  0
VERTEX
  8
LAYER_4
 10
185.294
 20
369.896
  0
SEQEND
  0
POLYLINE
  8
LAYER_4
 40
0.105834
 41
0.105834
 66
1
 10
0
 20
0
 30
0
  0
VERTEX
  8
LAYER_4
 10
185.895
 20
370.016
  0
VERTEX
  8
LAYER_4
 10
353.495
 20
370.016
  0
SEQEND
  0
POLYLINE
  8
LAYER_4
 40
0.105834
 41
0.105834
 66
1
 10
0
 20
0
 30
0
  0
VERTEX
  8
LAYER_4
 10
185.895
 20
370.416
  0
VERTEX
  8
LAYER_4
 10
353.495
 20
370.416
  0
SEQEND
  0
POLYLINE
  8
LAYER_4
 40
0.105834
 41
0.105834
 66
1
 10
0
 20
0
 30
0
  0
VERTEX
  8
LAYER_4
 10
186.295
 20
370.577
  0
VERTEX
  8
LAYER_4
 10
185.896
 20
370.577
  0
SEQEND
  0
POLYLINE
  8
LAYER_4
 40
0.105834
 41
0.105834
 66
1
 10
0
 20
0
 30
0
  0
VERTEX
  8
LAYER_4
 10
353.095
 20
370.577
  0
VERTEX
  8
LAYER_4
 10
353.494
 20
370.577
  0
SEQEND
  0
POLYLINE
  8
LAYER_4
 40
0.105834
 41
0.105834
 66
1
 10
0
 20
0
 30
0
  0
VERTEX
  8
LAYER_4
 10
186.315
 20
370.902
  0
VERTEX
  8
LAYER_4
 10
185.913
 20
370.902
  0
SEQEND
  0
POLYLINE
  8
LAYER_4
 40
0.105834
 41
0.105834
 66
1
 10
0
 20
0
 30
0
  0
VERTEX
  8
LAYER_4
 10
353.075
 20
370.902
  0
VERTEX
  8
LAYER_4
 10
353.477
 20
370.902
  0
SEQEND
  0
POLYLINE
  8
LAYER_4
 40
0.105834
 41
0.105834
 66
1
 10
0
 20
0
 30
0
  0
VERTEX
  8
LAYER_4
 10
353.085
 20
371.033
  0
VERTEX
  8
LAYER_4
 10
352.857
 20
371.033
  0
SEQEND
  0
POLYLINE
  8
LAYER_4
 40
0.105834
 41
0.105834
 66
1
 10
0
 20
0
 30
0
  0
VERTEX
  8
LAYER_4
 10
186.533
 20
371.033
  0
VERTEX
  8
LAYER_4
 10
186.305
 20
371.033
  0
SEQEND
  0
POLYLINE
  8
LAYER_4
 40
0.105834
 41
0.105834
 66
1
 10
0
 20
0
 30
0
  0
VERTEX
  8
LAYER_4
 10
354.295
 20
371.217
  0
VERTEX
  8
LAYER_4
 10
353.64
 20
371.217
  0
SEQEND
  0
POLYLINE
  8
LAYER_4
 40
0.105834
 41
0.105834
 66
1
 10
0
 20
0
 30
0
  0
VERTEX
  8
LAYER_4
 10
185.095
 20
371.217
  0
VERTEX
  8
LAYER_4
 10
185.751
 20
371.217
  0
SEQEND
  0
POLYLINE
  8
LAYER_4
 40
0.105834
 41
0.105834
 66
1
 10
0
 20
0
 30
0
  0
VERTEX
  8
LAYER_4
 10
186.895
 20
371.296
  0
VERTEX
  8
LAYER_4
 10
186.973
 20
371.296
  0
SEQEND
  0
POLYLINE
  8
LAYER_4
 40
0.105834
 41
0.105834
 66
1
 10
0
 20
0
 30
0
  0
VERTEX
  8
LAYER_4
 10
352.418
 20
371.296
  0
VERTEX
  8
LAYER_4
 10
352.495
 20
371.296
  0
SEQEND
  0
POLYLINE
  8
LAYER_4
 40
0.105834
 41
0.105834
 66
1
 10
0
 20
0
 30
0
  0
VERTEX
  8
LAYER_4
 10
231.895
 20
372.017
  0
VERTEX
  8
LAYER_4
 10
259.095
 20
372.017
  0
SEQEND
  0
POLYLINE
  8
LAYER_4
 40
0.105834
 41
0.105834
 66
1
 10
0
 20
0
 30
0
  0
VERTEX
  8
LAYER_4
 10
232.055
 20
372.256
  0
VERTEX
  8
LAYER_4
 10
258.935
 20
372.256
  0
SEQEND
  0
POLYLINE
  8
LAYER_4
 40
0.105834
 41
0.105834
 66
1
 10
0
 20
0
 30
0
  0
VERTEX
  8
LAYER_4
 10
258.875
 20
372.317
  0
VERTEX
  8
LAYER_4
 10
232.115
 20
372.317
  0
SEQEND
  0
POLYLINE
  8
LAYER_4
 40
0.105834
 41
0.105834
 66
1
 10
0
 20
0
 30
0
  0
VERTEX
  8
LAYER_4
 10
350.329
 20
372.416
  0
VERTEX
  8
LAYER_4
 10
314.695
 20
372.416
  0
SEQEND
  0
POLYLINE
  8
LAYER_4
 40
0.105834
 41
0.105834
 66
1
 10
0
 20
0
 30
0
  0
VERTEX
  8
LAYER_4
 10
312.695
 20
372.416
  0
VERTEX
  8
LAYER_4
 10
276.095
 20
372.416
  0
SEQEND
  0
POLYLINE
  8
LAYER_4
 40
0.105834
 41
0.105834
 66
1
 10
0
 20
0
 30
0
  0
VERTEX
  8
LAYER_4
 10
272.095
 20
372.416
  0
VERTEX
  8
LAYER_4
 10
270.695
 20
372.416
  0
SEQEND
  0
POLYLINE
  8
LAYER_4
 40
0.105834
 41
0.105834
 66
1
 10
0
 20
0
 30
0
  0
VERTEX
  8
LAYER_4
 10
268.695
 20
372.416
  0
VERTEX
  8
LAYER_4
 10
259.495
 20
372.416
  0
SEQEND
  0
POLYLINE
  8
LAYER_4
 40
0.105834
 41
0.105834
 66
1
 10
0
 20
0
 30
0
  0
VERTEX
  8
LAYER_4
 10
258.935
 20
372.416
  0
VERTEX
  8
LAYER_4
 10
258.875
 20
372.416
  0
SEQEND
  0
POLYLINE
  8
LAYER_4
 40
0.105834
 41
0.105834
 66
1
 10
0
 20
0
 30
0
  0
VERTEX
  8
LAYER_4
 10
231.495
 20
372.416
  0
VERTEX
  8
LAYER_4
 10
226.695
 20
372.416
  0
SEQEND
  0
POLYLINE
  8
LAYER_4
 40
0.105834
 41
0.105834
 66
1
 10
0
 20
0
 30
0
  0
VERTEX
  8
LAYER_4
 10
224.695
 20
372.416
  0
VERTEX
  8
LAYER_4
 10
189.061
 20
372.416
  0
SEQEND
  0
POLYLINE
  8
LAYER_4
 40
0.105834
 41
0.105834
 66
1
 10
0
 20
0
 30
0
  0
VERTEX
  8
LAYER_4
 10
232.115
 20
372.496
  0
VERTEX
  8
LAYER_4
 10
232.055
 20
372.496
  0
SEQEND
  0
POLYLINE
  8
LAYER_4
 40
0.105834
 41
0.105834
 66
1
 10
0
 20
0
 30
0
  0
VERTEX
  8
LAYER_4
 10
226.895
 20
372.496
  0
VERTEX
  8
LAYER_4
 10
226.695
 20
372.496
  0
SEQEND
  0
POLYLINE
  8
LAYER_4
 40
0.105834
 41
0.105834
 66
1
 10
0
 20
0
 30
0
  0
VERTEX
  8
LAYER_4
 10
224.695
 20
372.496
  0
VERTEX
  8
LAYER_4
 10
224.495
 20
372.496
  0
SEQEND
  0
POLYLINE
  8
LAYER_4
 40
0.105834
 41
0.105834
 66
1
 10
0
 20
0
 30
0
  0
VERTEX
  8
LAYER_4
 10
258.875
 20
372.717
  0
VERTEX
  8
LAYER_4
 10
232.115
 20
372.717
  0
SEQEND
  0
POLYLINE
  8
LAYER_4
 40
0.105834
 41
0.105834
 66
1
 10
0
 20
0
 30
0
  0
VERTEX
  8
LAYER_4
 10
314.695
 20
372.816
  0
VERTEX
  8
LAYER_4
 10
312.695
 20
372.816
  0
SEQEND
  0
POLYLINE
  8
LAYER_4
 40
0.105834
 41
0.105834
 66
1
 10
0
 20
0
 30
0
  0
VERTEX
  8
LAYER_4
 10
270.695
 20
372.816
  0
VERTEX
  8
LAYER_4
 10
268.695
 20
372.816
  0
SEQEND
  0
POLYLINE
  8
LAYER_4
 40
0.105834
 41
0.105834
 66
1
 10
0
 20
0
 30
0
  0
VERTEX
  8
LAYER_4
 10
226.695
 20
372.816
  0
VERTEX
  8
LAYER_4
 10
224.695
 20
372.816
  0
SEQEND
  0
POLYLINE
  8
LAYER_4
 40
0.105834
 41
0.105834
 66
1
 10
0
 20
0
 30
0
  0
VERTEX
  8
LAYER_4
 10
287.295
 20
372.896
  0
VERTEX
  8
LAYER_4
 10
290.495
 20
372.896
  0
SEQEND
  0
POLYLINE
  8
LAYER_4
 40
0.105834
 41
0.105834
 66
1
 10
0
 20
0
 30
0
  0
VERTEX
  8
LAYER_4
 10
261.815
 20
373.036
  0
VERTEX
  8
LAYER_4
 10
258.875
 20
373.036
  0
SEQEND
  0
POLYLINE
  8
LAYER_4
 40
0.105834
 41
0.105834
 66
1
 10
0
 20
0
 30
0
  0
VERTEX
  8
LAYER_4
 10
229.575
 20
373.036
  0
VERTEX
  8
LAYER_4
 10
232.115
 20
373.036
  0
SEQEND
  0
POLYLINE
  8
LAYER_4
 40
0.105834
 41
0.105834
 66
1
 10
0
 20
0
 30
0
  0
VERTEX
  8
LAYER_4
 10
321.695
 20
373.097
  0
VERTEX
  8
LAYER_4
 10
333.695
 20
373.097
  0
SEQEND
  0
POLYLINE
  8
LAYER_4
 40
0.105834
 41
0.105834
 66
1
 10
0
 20
0
 30
0
  0
VERTEX
  8
LAYER_4
 10
314.695
 20
373.216
  0
VERTEX
  8
LAYER_4
 10
312.695
 20
373.216
  0
SEQEND
  0
POLYLINE
  8
LAYER_4
 40
0.105834
 41
0.105834
 66
1
 10
0
 20
0
 30
0
  0
VERTEX
  8
LAYER_4
 10
270.695
 20
373.216
  0
VERTEX
  8
LAYER_4
 10
268.695
 20
373.216
  0
SEQEND
  0
POLYLINE
  8
LAYER_4
 40
0.105834
 41
0.105834
 66
1
 10
0
 20
0
 30
0
  0
VERTEX
  8
LAYER_4
 10
226.695
 20
373.216
  0
VERTEX
  8
LAYER_4
 10
224.695
 20
373.216
  0
SEQEND
  0
POLYLINE
  8
LAYER_4
 40
0.105834
 41
0.105834
 66
1
 10
0
 20
0
 30
0
  0
VERTEX
  8
LAYER_4
 10
321.695
 20
373.297
  0
VERTEX
  8
LAYER_4
 10
333.695
 20
373.297
  0
SEQEND
  0
POLYLINE
  8
LAYER_4
 40
0.105834
 41
0.105834
 66
1
 10
0
 20
0
 30
0
  0
VERTEX
  8
LAYER_4
 10
321.456
 20
373.376
  0
VERTEX
  8
LAYER_4
 10
321.188
 20
373.376
  0
SEQEND
  0
POLYLINE
  8
LAYER_4
 40
0.105834
 41
0.105834
 66
1
 10
0
 20
0
 30
0
  0
VERTEX
  8
LAYER_4
 10
321.695
 20
373.376
  0
VERTEX
  8
LAYER_4
 10
333.695
 20
373.376
  0
SEQEND
  0
POLYLINE
  8
LAYER_4
 40
0.105834
 41
0.105834
 66
1
 10
0
 20
0
 30
0
  0
VERTEX
  8
LAYER_4
 10
249.8
 20
381.412
  0
VERTEX
  8
LAYER_4
 10
248.023
 20
382.437
  0
SEQEND
  0
POLYLINE
  8
LAYER_4
 40
0.105834
 41
0.105834
 66
1
 10
0
 20
0
 30
0
  0
VERTEX
  8
LAYER_4
 10
290.495
 20
374.896
  0
VERTEX
  8
LAYER_4
 10
290.495
 20
374.016
  0
SEQEND
  0
POLYLINE
  8
LAYER_4
 40
0.105834
 41
0.105834
 66
1
 10
0
 20
0
 30
0
  0
VERTEX
  8
LAYER_4
 10
290.895
 20
373.297
  0
VERTEX
  8
LAYER_4
 10
290.895
 20
374.896
  0
SEQEND
  0
POLYLINE
  8
LAYER_4
 40
0.105834
 41
0.105834
 66
1
 10
0
 20
0
 30
0
  0
VERTEX
  8
LAYER_4
 10
321.107
 20
373.576
  0
VERTEX
  8
LAYER_4
 10
321.314
 20
373.576
  0
SEQEND
  0
POLYLINE
  8
LAYER_4
 40
0.105834
 41
0.105834
 66
1
 10
0
 20
0
 30
0
  0
VERTEX
  8
LAYER_4
 10
334.076
 20
373.576
  0
VERTEX
  8
LAYER_4
 10
334.283
 20
373.576
  0
SEQEND
  0
POLYLINE
  8
LAYER_4
 40
0.105834
 41
0.105834
 66
1
 10
0
 20
0
 30
0
  0
VERTEX
  8
LAYER_4
 10
314.895
 20
373.616
  0
VERTEX
  8
LAYER_4
 10
312.495
 20
373.616
  0
SEQEND
  0
POLYLINE
  8
LAYER_4
 40
0.105834
 41
0.105834
 66
1
 10
0
 20
0
 30
0
  0
VERTEX
  8
LAYER_4
 10
270.755
 20
373.616
  0
VERTEX
  8
LAYER_4
 10
268.635
 20
373.616
  0
SEQEND
  0
POLYLINE
  8
LAYER_4
 40
0.105834
 41
0.105834
 66
1
 10
0
 20
0
 30
0
  0
VERTEX
  8
LAYER_4
 10
226.895
 20
373.616
  0
VERTEX
  8
LAYER_4
 10
224.495
 20
373.616
  0
SEQEND
  0
POLYLINE
  8
LAYER_4
 40
0.105834
 41
0.105834
 66
1
 10
0
 20
0
 30
0
  0
VERTEX
  8
LAYER_4
 10
321.295
 20
373.697
  0
VERTEX
  8
LAYER_4
 10
321.375
 20
373.697
  0
SEQEND
  0
POLYLINE
  8
LAYER_4
 40
0.105834
 41
0.105834
 66
1
 10
0
 20
0
 30
0
  0
VERTEX
  8
LAYER_4
 10
334.015
 20
373.697
  0
VERTEX
  8
LAYER_4
 10
334.095
 20
373.697
  0
SEQEND
  0
POLYLINE
  8
LAYER_4
 40
0.105834
 41
0.105834
 66
1
 10
0
 20
0
 30
0
  0
VERTEX
  8
LAYER_4
 10
290.895
 20
373.817
  0
VERTEX
  8
LAYER_4
 10
286.895
 20
373.817
  0
SEQEND
  0
POLYLINE
  8
LAYER_4
 40
0.105834
 41
0.105834
 66
1
 10
0
 20
0
 30
0
  0
VERTEX
  8
LAYER_4
 10
321.095
 20
373.976
  0
VERTEX
  8
LAYER_4
 10
321.295
 20
373.976
  0
SEQEND
  0
POLYLINE
  8
LAYER_4
 40
0.105834
 41
0.105834
 66
1
 10
0
 20
0
 30
0
  0
VERTEX
  8
LAYER_4
 10
334.095
 20
373.976
  0
VERTEX
  8
LAYER_4
 10
334.295
 20
373.976
  0
SEQEND
  0
POLYLINE
  8
LAYER_4
 40
0.105834
 41
0.105834
 66
1
 10
0
 20
0
 30
0
  0
VERTEX
  8
LAYER_4
 10
287.295
 20
374.016
  0
VERTEX
  8
LAYER_4
 10
290.495
 20
374.016
  0
SEQEND
  0
POLYLINE
  8
LAYER_4
 40
0.105834
 41
0.105834
 66
1
 10
0
 20
0
 30
0
  0
VERTEX
  8
LAYER_4
 10
324.65
 20
374.296
  0
VERTEX
  8
LAYER_4
 10
330.741
 20
374.296
  0
SEQEND
  0
POLYLINE
  8
LAYER_4
 40
0.105834
 41
0.105834
 66
1
 10
0
 20
0
 30
0
  0
VERTEX
  8
LAYER_4
 10
348.555
 20
374.296
  0
VERTEX
  8
LAYER_4
 10
349.635
 20
374.296
  0
SEQEND
  0
POLYLINE
  8
LAYER_4
 40
0.105834
 41
0.105834
 66
1
 10
0
 20
0
 30
0
  0
VERTEX
  8
LAYER_4
 10
287.295
 20
374.496
  0
VERTEX
  8
LAYER_4
 10
290.495
 20
374.496
  0
SEQEND
  0
POLYLINE
  8
LAYER_4
 40
0.105834
 41
0.105834
 66
1
 10
0
 20
0
 30
0
  0
VERTEX
  8
LAYER_4
 10
324.815
 20
374.696
  0
VERTEX
  8
LAYER_4
 10
330.575
 20
374.696
  0
SEQEND
  0
POLYLINE
  8
LAYER_4
 40
0.105834
 41
0.105834
 66
1
 10
0
 20
0
 30
0
  0
VERTEX
  8
LAYER_4
 10
290.895
 20
374.896
  0
VERTEX
  8
LAYER_4
 10
290.495
 20
374.896
  0
SEQEND
  0
POLYLINE
  8
LAYER_4
 40
0.105834
 41
0.105834
 66
1
 10
0
 20
0
 30
0
  0
VERTEX
  8
LAYER_4
 10
287.295
 20
374.896
  0
VERTEX
  8
LAYER_4
 10
286.895
 20
374.896
  0
SEQEND
  0
POLYLINE
  8
LAYER_4
 40
0.105834
 41
0.105834
 66
1
 10
0
 20
0
 30
0
  0
VERTEX
  8
LAYER_4
 10
348.495
 20
375.177
  0
VERTEX
  8
LAYER_4
 10
349.695
 20
375.177
  0
SEQEND
  0
POLYLINE
  8
LAYER_4
 40
0.105834
 41
0.105834
 66
1
 10
0
 20
0
 30
0
  0
VERTEX
  8
LAYER_4
 10
349.635
 20
375.216
  0
VERTEX
  8
LAYER_4
 10
348.555
 20
375.216
  0
SEQEND
  0
POLYLINE
  8
LAYER_4
 40
0.105834
 41
0.105834
 66
1
 10
0
 20
0
 30
0
  0
VERTEX
  8
LAYER_4
 10
349.635
 20
375.697
  0
VERTEX
  8
LAYER_4
 10
348.555
 20
375.697
  0
SEQEND
  0
POLYLINE
  8
LAYER_4
 40
0.105834
 41
0.105834
 66
1
 10
0
 20
0
 30
0
  0
VERTEX
  8
LAYER_4
 10
349.695
 20
375.737
  0
VERTEX
  8
LAYER_4
 10
349.635
 20
375.737
  0
SEQEND
  0
POLYLINE
  8
LAYER_4
 40
0.105834
 41
0.105834
 66
1
 10
0
 20
0
 30
0
  0
VERTEX
  8
LAYER_4
 10
348.555
 20
375.737
  0
VERTEX
  8
LAYER_4
 10
348.495
 20
375.737
  0
SEQEND
  0
POLYLINE
  8
LAYER_4
 40
0.105834
 41
0.105834
 66
1
 10
0
 20
0
 30
0
  0
VERTEX
  8
LAYER_4
 10
350.035
 20
375.896
  0
VERTEX
  8
LAYER_4
 10
349.635
 20
375.896
  0
SEQEND
  0
POLYLINE
  8
LAYER_4
 40
0.105834
 41
0.105834
 66
1
 10
0
 20
0
 30
0
  0
VERTEX
  8
LAYER_4
 10
348.555
 20
375.896
  0
VERTEX
  8
LAYER_4
 10
348.155
 20
375.896
  0
SEQEND
  0
POLYLINE
  8
LAYER_4
 40
0.105834
 41
0.105834
 66
1
 10
0
 20
0
 30
0
  0
VERTEX
  8
LAYER_4
 10
193.795
 20
376.221
  0
VERTEX
  8
LAYER_4
 10
199.995
 20
376.221
  0
SEQEND
  0
POLYLINE
  8
LAYER_4
 40
0.105834
 41
0.105834
 66
1
 10
0
 20
0
 30
0
  0
VERTEX
  8
LAYER_4
 10
327.295
 20
376.296
  0
VERTEX
  8
LAYER_4
 10
328.095
 20
376.296
  0
SEQEND
  0
POLYLINE
  8
LAYER_4
 40
0.105834
 41
0.105834
 66
1
 10
0
 20
0
 30
0
  0
VERTEX
  8
LAYER_4
 10
199.115
 20
376.42
  0
VERTEX
  8
LAYER_4
 10
194.675
 20
376.42
  0
SEQEND
  0
POLYLINE
  8
LAYER_4
 40
0.105834
 41
0.105834
 66
1
 10
0
 20
0
 30
0
  0
VERTEX
  8
LAYER_4
 10
194.675
 20
376.536
  0
VERTEX
  8
LAYER_4
 10
194.575
 20
376.536
  0
SEQEND
  0
POLYLINE
  8
LAYER_4
 40
0.105834
 41
0.105834
 66
1
 10
0
 20
0
 30
0
  0
VERTEX
  8
LAYER_4
 10
199.355
 20
376.661
  0
VERTEX
  8
LAYER_4
 10
194.435
 20
376.661
  0
SEQEND
  0
POLYLINE
  8
LAYER_4
 40
0.105834
 41
0.105834
 66
1
 10
0
 20
0
 30
0
  0
VERTEX
  8
LAYER_4
 10
194.395
 20
376.82
  0
VERTEX
  8
LAYER_4
 10
199.395
 20
376.82
  0
SEQEND
  0
POLYLINE
  8
LAYER_4
 40
0.105834
 41
0.105834
 66
1
 10
0
 20
0
 30
0
  0
VERTEX
  8
LAYER_4
 10
337.495
 20
376.897
  0
VERTEX
  8
LAYER_4
 10
346.295
 20
376.897
  0
SEQEND
  0
POLYLINE
  8
LAYER_4
 40
0.105834
 41
0.105834
 66
1
 10
0
 20
0
 30
0
  0
VERTEX
  8
LAYER_4
 10
199.115
 20
377.1
  0
VERTEX
  8
LAYER_4
 10
194.675
 20
377.1
  0
SEQEND
  0
POLYLINE
  8
LAYER_4
 40
0.105834
 41
0.105834
 66
1
 10
0
 20
0
 30
0
  0
VERTEX
  8
LAYER_4
 10
194.395
 20
377.1
  0
VERTEX
  8
LAYER_4
 10
193.995
 20
377.1
  0
SEQEND
  0
POLYLINE
  8
LAYER_4
 40
0.105834
 41
0.105834
 66
1
 10
0
 20
0
 30
0
  0
VERTEX
  8
LAYER_4
 10
199.395
 20
377.1
  0
VERTEX
  8
LAYER_4
 10
199.795
 20
377.1
  0
SEQEND
  0
POLYLINE
  8
LAYER_4
 40
0.105834
 41
0.105834
 66
1
 10
0
 20
0
 30
0
  0
VERTEX
  8
LAYER_4
 10
337.995
 20
377.296
  0
VERTEX
  8
LAYER_4
 10
345.795
 20
377.296
  0
SEQEND
  0
POLYLINE
  8
LAYER_4
 40
0.105834
 41
0.105834
 66
1
 10
0
 20
0
 30
0
  0
VERTEX
  8
LAYER_4
 10
199.995
 20
377.496
  0
VERTEX
  8
LAYER_4
 10
199.795
 20
377.496
  0
SEQEND
  0
POLYLINE
  8
LAYER_4
 40
0.105834
 41
0.105834
 66
1
 10
0
 20
0
 30
0
  0
VERTEX
  8
LAYER_4
 10
194.675
 20
377.66
  0
VERTEX
  8
LAYER_4
 10
199.115
 20
377.66
  0
SEQEND
  0
POLYLINE
  8
LAYER_4
 40
0.105834
 41
0.105834
 66
1
 10
0
 20
0
 30
0
  0
VERTEX
  8
LAYER_4
 10
328.095
 20
377.896
  0
VERTEX
  8
LAYER_4
 10
327.295
 20
377.896
  0
SEQEND
  0
POLYLINE
  8
LAYER_4
 40
0.105834
 41
0.105834
 66
1
 10
0
 20
0
 30
0
  0
VERTEX
  8
LAYER_4
 10
324.495
 20
377.896
  0
VERTEX
  8
LAYER_4
 10
325.295
 20
377.896
  0
SEQEND
  0
POLYLINE
  8
LAYER_4
 40
0.105834
 41
0.105834
 66
1
 10
0
 20
0
 30
0
  0
VERTEX
  8
LAYER_4
 10
330.095
 20
377.896
  0
VERTEX
  8
LAYER_4
 10
330.895
 20
377.896
  0
SEQEND
  0
POLYLINE
  8
LAYER_4
 40
0.105834
 41
0.105834
 66
1
 10
0
 20
0
 30
0
  0
VERTEX
  8
LAYER_4
 10
199.795
 20
378.056
  0
VERTEX
  8
LAYER_4
 10
199.995
 20
378.056
  0
SEQEND
  0
POLYLINE
  8
LAYER_4
 40
0.105834
 41
0.105834
 66
1
 10
0
 20
0
 30
0
  0
VERTEX
  8
LAYER_4
 10
344.895
 20
378.217
  0
VERTEX
  8
LAYER_4
 10
338.895
 20
378.217
  0
SEQEND
  0
POLYLINE
  8
LAYER_4
 40
0.105834
 41
0.105834
 66
1
 10
0
 20
0
 30
0
  0
VERTEX
  8
LAYER_4
 10
202.247
 20
378.256
  0
VERTEX
  8
LAYER_4
 10
207.543
 20
378.256
  0
SEQEND
  0
POLYLINE
  8
LAYER_4
 40
0.105834
 41
0.105834
 66
1
 10
0
 20
0
 30
0
  0
VERTEX
  8
LAYER_4
 10
207.343
 20
378.456
  0
VERTEX
  8
LAYER_4
 10
207.103
 20
378.456
  0
SEQEND
  0
POLYLINE
  8
LAYER_4
 40
0.105834
 41
0.105834
 66
1
 10
0
 20
0
 30
0
  0
VERTEX
  8
LAYER_4
 10
202.687
 20
378.456
  0
VERTEX
  8
LAYER_4
 10
202.447
 20
378.456
  0
SEQEND
  0
POLYLINE
  8
LAYER_4
 40
0.105834
 41
0.105834
 66
1
 10
0
 20
0
 30
0
  0
VERTEX
  8
LAYER_4
 10
199.795
 20
378.696
  0
VERTEX
  8
LAYER_4
 10
199.995
 20
378.696
  0
SEQEND
  0
POLYLINE
  8
LAYER_4
 40
0.105834
 41
0.105834
 66
1
 10
0
 20
0
 30
0
  0
VERTEX
  8
LAYER_4
 10
202.247
 20
378.696
  0
VERTEX
  8
LAYER_4
 10
202.447
 20
378.696
  0
SEQEND
  0
POLYLINE
  8
LAYER_4
 40
0.105834
 41
0.105834
 66
1
 10
0
 20
0
 30
0
  0
VERTEX
  8
LAYER_4
 10
210.303
 20
378.696
  0
VERTEX
  8
LAYER_4
 10
218.415
 20
378.696
  0
SEQEND
  0
POLYLINE
  8
LAYER_4
 40
0.105834
 41
0.105834
 66
1
 10
0
 20
0
 30
0
  0
VERTEX
  8
LAYER_4
 10
229.769
 20
378.696
  0
VERTEX
  8
LAYER_4
 10
230.821
 20
378.696
  0
SEQEND
  0
POLYLINE
  8
LAYER_4
 40
0.105834
 41
0.105834
 66
1
 10
0
 20
0
 30
0
  0
VERTEX
  8
LAYER_4
 10
194.395
 20
378.868
  0
VERTEX
  8
LAYER_4
 10
199.395
 20
378.868
  0
SEQEND
  0
POLYLINE
  8
LAYER_4
 40
0.105834
 41
0.105834
 66
1
 10
0
 20
0
 30
0
  0
VERTEX
  8
LAYER_4
 10
218.215
 20
378.896
  0
VERTEX
  8
LAYER_4
 10
210.503
 20
378.896
  0
SEQEND
  0
POLYLINE
  8
LAYER_4
 40
0.105834
 41
0.105834
 66
1
 10
0
 20
0
 30
0
  0
VERTEX
  8
LAYER_4
 10
194.395
 20
379.029
  0
VERTEX
  8
LAYER_4
 10
199.395
 20
379.029
  0
SEQEND
  0
POLYLINE
  8
LAYER_4
 40
0.105834
 41
0.105834
 66
1
 10
0
 20
0
 30
0
  0
VERTEX
  8
LAYER_4
 10
203.205
 20
379.065
  0
VERTEX
  8
LAYER_4
 10
206.585
 20
379.065
  0
SEQEND
  0
POLYLINE
  8
LAYER_4
 40
0.105834
 41
0.105834
 66
1
 10
0
 20
0
 30
0
  0
VERTEX
  8
LAYER_4
 10
330.895
 20
379.497
  0
VERTEX
  8
LAYER_4
 10
330.095
 20
379.497
  0
SEQEND
  0
POLYLINE
  8
LAYER_4
 40
0.105834
 41
0.105834
 66
1
 10
0
 20
0
 30
0
  0
VERTEX
  8
LAYER_4
 10
325.295
 20
379.497
  0
VERTEX
  8
LAYER_4
 10
324.495
 20
379.497
  0
SEQEND
  0
POLYLINE
  8
LAYER_4
 40
0.105834
 41
0.105834
 66
1
 10
0
 20
0
 30
0
  0
VERTEX
  8
LAYER_4
 10
330.575
 20
374.696
  0
VERTEX
  8
LAYER_4
 10
332.495
 20
376.616
  0
SEQEND
  0
POLYLINE
  8
LAYER_4
 40
0.105834
 41
0.105834
 66
1
 10
0
 20
0
 30
0
  0
VERTEX
  8
LAYER_4
 10
330.741
 20
374.296
  0
VERTEX
  8
LAYER_4
 10
332.895
 20
376.451
  0
SEQEND
  0
POLYLINE
  8
LAYER_4
 40
0.105834
 41
0.105834
 66
1
 10
0
 20
0
 30
0
  0
VERTEX
  8
LAYER_4
 10
318.695
 20
379.616
  0
VERTEX
  8
LAYER_4
 10
319.895
 20
379.616
  0
SEQEND
  0
POLYLINE
  8
LAYER_4
 40
0.105834
 41
0.105834
 66
1
 10
0
 20
0
 30
0
  0
VERTEX
  8
LAYER_4
 10
222.135
 20
379.697
  0
VERTEX
  8
LAYER_4
 10
226.135
 20
379.697
  0
SEQEND
  0
POLYLINE
  8
LAYER_4
 40
0.105834
 41
0.105834
 66
1
 10
0
 20
0
 30
0
  0
VERTEX
  8
LAYER_4
 10
222.335
 20
379.897
  0
VERTEX
  8
LAYER_4
 10
225.935
 20
379.897
  0
SEQEND
  0
POLYLINE
  8
LAYER_4
 40
0.105834
 41
0.105834
 66
1
 10
0
 20
0
 30
0
  0
VERTEX
  8
LAYER_4
 10
199.395
 20
380.061
  0
VERTEX
  8
LAYER_4
 10
194.395
 20
380.061
  0
SEQEND
  0
POLYLINE
  8
LAYER_4
 40
0.105834
 41
0.105834
 66
1
 10
0
 20
0
 30
0
  0
VERTEX
  8
LAYER_4
 10
199.795
 20
380.136
  0
VERTEX
  8
LAYER_4
 10
199.995
 20
380.136
  0
SEQEND
  0
POLYLINE
  8
LAYER_4
 40
0.105834
 41
0.105834
 66
1
 10
0
 20
0
 30
0
  0
VERTEX
  8
LAYER_4
 10
202.247
 20
380.136
  0
VERTEX
  8
LAYER_4
 10
202.447
 20
380.136
  0
SEQEND
  0
POLYLINE
  8
LAYER_4
 40
0.105834
 41
0.105834
 66
1
 10
0
 20
0
 30
0
  0
VERTEX
  8
LAYER_4
 10
210.761
 20
380.196
  0
VERTEX
  8
LAYER_4
 10
211.261
 20
380.196
  0
SEQEND
  0
POLYLINE
  8
LAYER_4
 40
0.105834
 41
0.105834
 66
1
 10
0
 20
0
 30
0
  0
VERTEX
  8
LAYER_4
 10
211.777
 20
380.196
  0
VERTEX
  8
LAYER_4
 10
212.277
 20
380.196
  0
SEQEND
  0
POLYLINE
  8
LAYER_4
 40
0.105834
 41
0.105834
 66
1
 10
0
 20
0
 30
0
  0
VERTEX
  8
LAYER_4
 10
212.793
 20
380.196
  0
VERTEX
  8
LAYER_4
 10
213.293
 20
380.196
  0
SEQEND
  0
POLYLINE
  8
LAYER_4
 40
0.105834
 41
0.105834
 66
1
 10
0
 20
0
 30
0
  0
VERTEX
  8
LAYER_4
 10
213.809
 20
380.196
  0
VERTEX
  8
LAYER_4
 10
214.309
 20
380.196
  0
SEQEND
  0
POLYLINE
  8
LAYER_4
 40
0.105834
 41
0.105834
 66
1
 10
0
 20
0
 30
0
  0
VERTEX
  8
LAYER_4
 10
214.825
 20
380.196
  0
VERTEX
  8
LAYER_4
 10
215.325
 20
380.196
  0
SEQEND
  0
POLYLINE
  8
LAYER_4
 40
0.105834
 41
0.105834
 66
1
 10
0
 20
0
 30
0
  0
VERTEX
  8
LAYER_4
 10
215.841
 20
380.196
  0
VERTEX
  8
LAYER_4
 10
216.341
 20
380.196
  0
SEQEND
  0
POLYLINE
  8
LAYER_4
 40
0.105834
 41
0.105834
 66
1
 10
0
 20
0
 30
0
  0
VERTEX
  8
LAYER_4
 10
216.857
 20
380.196
  0
VERTEX
  8
LAYER_4
 10
217.357
 20
380.196
  0
SEQEND
  0
POLYLINE
  8
LAYER_4
 40
0.105834
 41
0.105834
 66
1
 10
0
 20
0
 30
0
  0
VERTEX
  8
LAYER_4
 10
199.395
 20
380.221
  0
VERTEX
  8
LAYER_4
 10
194.395
 20
380.221
  0
SEQEND
  0
POLYLINE
  8
LAYER_4
 40
0.105834
 41
0.105834
 66
1
 10
0
 20
0
 30
0
  0
VERTEX
  8
LAYER_4
 10
322.495
 20
380.296
  0
VERTEX
  8
LAYER_4
 10
322.895
 20
380.296
  0
SEQEND
  0
POLYLINE
  8
LAYER_4
 40
0.105834
 41
0.105834
 66
1
 10
0
 20
0
 30
0
  0
VERTEX
  8
LAYER_4
 10
332.495
 20
380.296
  0
VERTEX
  8
LAYER_4
 10
332.895
 20
380.296
  0
SEQEND
  0
POLYLINE
  8
LAYER_4
 40
0.105834
 41
0.105834
 66
1
 10
0
 20
0
 30
0
  0
VERTEX
  8
LAYER_4
 10
202.447
 20
380.336
  0
VERTEX
  8
LAYER_4
 10
202.247
 20
380.336
  0
SEQEND
  0
POLYLINE
  8
LAYER_4
 40
0.105834
 41
0.105834
 66
1
 10
0
 20
0
 30
0
  0
VERTEX
  8
LAYER_4
 10
199.795
 20
380.336
  0
VERTEX
  8
LAYER_4
 10
199.995
 20
380.336
  0
SEQEND
  0
POLYLINE
  8
LAYER_4
 40
0.105834
 41
0.105834
 66
1
 10
0
 20
0
 30
0
  0
VERTEX
  8
LAYER_4
 10
318.895
 20
380.496
  0
VERTEX
  8
LAYER_4
 10
320.295
 20
380.496
  0
SEQEND
  0
POLYLINE
  8
LAYER_4
 40
0.105834
 41
0.105834
 66
1
 10
0
 20
0
 30
0
  0
VERTEX
  8
LAYER_4
 10
199.115
 20
380.5
  0
VERTEX
  8
LAYER_4
 10
194.675
 20
380.5
  0
SEQEND
  0
POLYLINE
  8
LAYER_4
 40
0.105834
 41
0.105834
 66
1
 10
0
 20
0
 30
0
  0
VERTEX
  8
LAYER_4
 10
319.895
 20
380.536
  0
VERTEX
  8
LAYER_4
 10
318.695
 20
380.536
  0
SEQEND
  0
POLYLINE
  8
LAYER_4
 40
0.105834
 41
0.105834
 66
1
 10
0
 20
0
 30
0
  0
VERTEX
  8
LAYER_4
 10
199.795
 20
380.736
  0
VERTEX
  8
LAYER_4
 10
199.995
 20
380.736
  0
SEQEND
  0
POLYLINE
  8
LAYER_4
 40
0.105834
 41
0.105834
 66
1
 10
0
 20
0
 30
0
  0
VERTEX
  8
LAYER_4
 10
202.247
 20
380.736
  0
VERTEX
  8
LAYER_4
 10
202.447
 20
380.736
  0
SEQEND
  0
POLYLINE
  8
LAYER_4
 40
0.105834
 41
0.105834
 66
1
 10
0
 20
0
 30
0
  0
VERTEX
  8
LAYER_4
 10
185.095
 20
380.816
  0
VERTEX
  8
LAYER_4
 10
187.495
 20
380.816
  0
SEQEND
  0
POLYLINE
  8
LAYER_4
 40
0.105834
 41
0.105834
 66
1
 10
0
 20
0
 30
0
  0
VERTEX
  8
LAYER_4
 10
351.895
 20
380.816
  0
VERTEX
  8
LAYER_4
 10
354.295
 20
380.816
  0
SEQEND
  0
POLYLINE
  8
LAYER_4
 40
0.105834
 41
0.105834
 66
1
 10
0
 20
0
 30
0
  0
VERTEX
  8
LAYER_4
 10
346.295
 20
380.896
  0
VERTEX
  8
LAYER_4
 10
346.175
 20
380.896
  0
SEQEND
  0
POLYLINE
  8
LAYER_4
 40
0.105834
 41
0.105834
 66
1
 10
0
 20
0
 30
0
  0
VERTEX
  8
LAYER_4
 10
199.795
 20
380.936
  0
VERTEX
  8
LAYER_4
 10
199.995
 20
380.936
  0
SEQEND
  0
POLYLINE
  8
LAYER_4
 40
0.105834
 41
0.105834
 66
1
 10
0
 20
0
 30
0
  0
VERTEX
  8
LAYER_4
 10
202.247
 20
380.936
  0
VERTEX
  8
LAYER_4
 10
202.447
 20
380.936
  0
SEQEND
  0
POLYLINE
  8
LAYER_4
 40
0.105834
 41
0.105834
 66
1
 10
0
 20
0
 30
0
  0
VERTEX
  8
LAYER_4
 10
319.895
 20
381.017
  0
VERTEX
  8
LAYER_4
 10
318.695
 20
381.017
  0
SEQEND
  0
POLYLINE
  8
LAYER_4
 40
0.105834
 41
0.105834
 66
1
 10
0
 20
0
 30
0
  0
VERTEX
  8
LAYER_4
 10
194.675
 20
381.06
  0
VERTEX
  8
LAYER_4
 10
199.115
 20
381.06
  0
SEQEND
  0
POLYLINE
  8
LAYER_4
 40
0.105834
 41
0.105834
 66
1
 10
0
 20
0
 30
0
  0
VERTEX
  8
LAYER_4
 10
331.695
 20
381.096
  0
VERTEX
  8
LAYER_4
 10
323.695
 20
381.096
  0
SEQEND
  0
POLYLINE
  8
LAYER_4
 40
0.105834
 41
0.105834
 66
1
 10
0
 20
0
 30
0
  0
VERTEX
  8
LAYER_4
 10
320.295
 20
381.217
  0
VERTEX
  8
LAYER_4
 10
319.895
 20
381.217
  0
SEQEND
  0
POLYLINE
  8
LAYER_4
 40
0.105834
 41
0.105834
 66
1
 10
0
 20
0
 30
0
  0
VERTEX
  8
LAYER_4
 10
318.695
 20
381.217
  0
VERTEX
  8
LAYER_4
 10
318.295
 20
381.217
  0
SEQEND
  0
POLYLINE
  8
LAYER_4
 40
0.105834
 41
0.105834
 66
1
 10
0
 20
0
 30
0
  0
VERTEX
  8
LAYER_4
 10
218.215
 20
381.397
  0
VERTEX
  8
LAYER_4
 10
217.357
 20
381.397
  0
SEQEND
  0
POLYLINE
  8
LAYER_4
 40
0.105834
 41
0.105834
 66
1
 10
0
 20
0
 30
0
  0
VERTEX
  8
LAYER_4
 10
216.857
 20
381.397
  0
VERTEX
  8
LAYER_4
 10
216.341
 20
381.397
  0
SEQEND
  0
POLYLINE
  8
LAYER_4
 40
0.105834
 41
0.105834
 66
1
 10
0
 20
0
 30
0
  0
VERTEX
  8
LAYER_4
 10
215.841
 20
381.397
  0
VERTEX
  8
LAYER_4
 10
215.325
 20
381.397
  0
SEQEND
  0
POLYLINE
  8
LAYER_4
 40
0.105834
 41
0.105834
 66
1
 10
0
 20
0
 30
0
  0
VERTEX
  8
LAYER_4
 10
214.825
 20
381.397
  0
VERTEX
  8
LAYER_4
 10
214.309
 20
381.397
  0
SEQEND
  0
POLYLINE
  8
LAYER_4
 40
0.105834
 41
0.105834
 66
1
 10
0
 20
0
 30
0
  0
VERTEX
  8
LAYER_4
 10
213.809
 20
381.397
  0
VERTEX
  8
LAYER_4
 10
213.293
 20
381.397
  0
SEQEND
  0
POLYLINE
  8
LAYER_4
 40
0.105834
 41
0.105834
 66
1
 10
0
 20
0
 30
0
  0
VERTEX
  8
LAYER_4
 10
212.793
 20
381.397
  0
VERTEX
  8
LAYER_4
 10
212.277
 20
381.397
  0
SEQEND
  0
POLYLINE
  8
LAYER_4
 40
0.105834
 41
0.105834
 66
1
 10
0
 20
0
 30
0
  0
VERTEX
  8
LAYER_4
 10
211.777
 20
381.397
  0
VERTEX
  8
LAYER_4
 10
211.261
 20
381.397
  0
SEQEND
  0
POLYLINE
  8
LAYER_4
 40
0.105834
 41
0.105834
 66
1
 10
0
 20
0
 30
0
  0
VERTEX
  8
LAYER_4
 10
210.761
 20
381.397
  0
VERTEX
  8
LAYER_4
 10
210.503
 20
381.397
  0
SEQEND
  0
POLYLINE
  8
LAYER_4
 40
0.105834
 41
0.105834
 66
1
 10
0
 20
0
 30
0
  0
VERTEX
  8
LAYER_4
 10
331.695
 20
381.496
  0
VERTEX
  8
LAYER_4
 10
323.695
 20
381.496
  0
SEQEND
  0
POLYLINE
  8
LAYER_4
 40
0.105834
 41
0.105834
 66
1
 10
0
 20
0
 30
0
  0
VERTEX
  8
LAYER_4
 10
225.935
 20
381.496
  0
VERTEX
  8
LAYER_4
 10
222.335
 20
381.496
  0
SEQEND
  0
POLYLINE
  8
LAYER_4
 40
0.105834
 41
0.105834
 66
1
 10
0
 20
0
 30
0
  0
VERTEX
  8
LAYER_4
 10
210.611
 20
381.496
  0
VERTEX
  8
LAYER_4
 10
211.411
 20
381.496
  0
SEQEND
  0
POLYLINE
  8
LAYER_4
 40
0.105834
 41
0.105834
 66
1
 10
0
 20
0
 30
0
  0
VERTEX
  8
LAYER_4
 10
211.627
 20
381.496
  0
VERTEX
  8
LAYER_4
 10
212.427
 20
381.496
  0
SEQEND
  0
POLYLINE
  8
LAYER_4
 40
0.105834
 41
0.105834
 66
1
 10
0
 20
0
 30
0
  0
VERTEX
  8
LAYER_4
 10
212.643
 20
381.496
  0
VERTEX
  8
LAYER_4
 10
213.443
 20
381.496
  0
SEQEND
  0
POLYLINE
  8
LAYER_4
 40
0.105834
 41
0.105834
 66
1
 10
0
 20
0
 30
0
  0
VERTEX
  8
LAYER_4
 10
213.659
 20
381.496
  0
VERTEX
  8
LAYER_4
 10
214.459
 20
381.496
  0
SEQEND
  0
POLYLINE
  8
LAYER_4
 40
0.105834
 41
0.105834
 66
1
 10
0
 20
0
 30
0
  0
VERTEX
  8
LAYER_4
 10
214.675
 20
381.496
  0
VERTEX
  8
LAYER_4
 10
215.475
 20
381.496
  0
SEQEND
  0
POLYLINE
  8
LAYER_4
 40
0.105834
 41
0.105834
 66
1
 10
0
 20
0
 30
0
  0
VERTEX
  8
LAYER_4
 10
215.691
 20
381.496
  0
VERTEX
  8
LAYER_4
 10
216.491
 20
381.496
  0
SEQEND
  0
POLYLINE
  8
LAYER_4
 40
0.105834
 41
0.105834
 66
1
 10
0
 20
0
 30
0
  0
VERTEX
  8
LAYER_4
 10
216.707
 20
381.496
  0
VERTEX
  8
LAYER_4
 10
217.507
 20
381.496
  0
SEQEND
  0
POLYLINE
  8
LAYER_4
 40
0.105834
 41
0.105834
 66
1
 10
0
 20
0
 30
0
  0
VERTEX
  8
LAYER_4
 10
353.695
 20
381.616
  0
VERTEX
  8
LAYER_4
 10
353.095
 20
381.616
  0
SEQEND
  0
POLYLINE
  8
LAYER_4
 40
0.105834
 41
0.105834
 66
1
 10
0
 20
0
 30
0
  0
VERTEX
  8
LAYER_4
 10
186.295
 20
381.616
  0
VERTEX
  8
LAYER_4
 10
185.695
 20
381.616
  0
SEQEND
  0
POLYLINE
  8
LAYER_4
 40
0.105834
 41
0.105834
 66
1
 10
0
 20
0
 30
0
  0
VERTEX
  8
LAYER_4
 10
226.135
 20
381.696
  0
VERTEX
  8
LAYER_4
 10
222.135
 20
381.696
  0
SEQEND
  0
POLYLINE
  8
LAYER_4
 40
0.105834
 41
0.105834
 66
1
 10
0
 20
0
 30
0
  0
VERTEX
  8
LAYER_4
 10
210.811
 20
381.696
  0
VERTEX
  8
LAYER_4
 10
211.211
 20
381.696
  0
SEQEND
  0
POLYLINE
  8
LAYER_4
 40
0.105834
 41
0.105834
 66
1
 10
0
 20
0
 30
0
  0
VERTEX
  8
LAYER_4
 10
211.827
 20
381.696
  0
VERTEX
  8
LAYER_4
 10
212.227
 20
381.696
  0
SEQEND
  0
POLYLINE
  8
LAYER_4
 40
0.105834
 41
0.105834
 66
1
 10
0
 20
0
 30
0
  0
VERTEX
  8
LAYER_4
 10
212.843
 20
381.696
  0
VERTEX
  8
LAYER_4
 10
213.243
 20
381.696
  0
SEQEND
  0
POLYLINE
  8
LAYER_4
 40
0.105834
 41
0.105834
 66
1
 10
0
 20
0
 30
0
  0
VERTEX
  8
LAYER_4
 10
213.859
 20
381.696
  0
VERTEX
  8
LAYER_4
 10
214.259
 20
381.696
  0
SEQEND
  0
POLYLINE
  8
LAYER_4
 40
0.105834
 41
0.105834
 66
1
 10
0
 20
0
 30
0
  0
VERTEX
  8
LAYER_4
 10
214.875
 20
381.696
  0
VERTEX
  8
LAYER_4
 10
215.275
 20
381.696
  0
SEQEND
  0
POLYLINE
  8
LAYER_4
 40
0.105834
 41
0.105834
 66
1
 10
0
 20
0
 30
0
  0
VERTEX
  8
LAYER_4
 10
215.891
 20
381.696
  0
VERTEX
  8
LAYER_4
 10
216.291
 20
381.696
  0
SEQEND
  0
POLYLINE
  8
LAYER_4
 40
0.105834
 41
0.105834
 66
1
 10
0
 20
0
 30
0
  0
VERTEX
  8
LAYER_4
 10
216.907
 20
381.696
  0
VERTEX
  8
LAYER_4
 10
217.307
 20
381.696
  0
SEQEND
  0
POLYLINE
  8
LAYER_4
 40
0.105834
 41
0.105834
 66
1
 10
0
 20
0
 30
0
  0
VERTEX
  8
LAYER_4
 10
193.995
 20
381.988
  0
VERTEX
  8
LAYER_4
 10
194.395
 20
381.988
  0
SEQEND
  0
POLYLINE
  8
LAYER_4
 40
0.105834
 41
0.105834
 66
1
 10
0
 20
0
 30
0
  0
VERTEX
  8
LAYER_4
 10
199.395
 20
381.988
  0
VERTEX
  8
LAYER_4
 10
199.795
 20
381.988
  0
SEQEND
  0
POLYLINE
  8
LAYER_4
 40
0.105834
 41
0.105834
 66
1
 10
0
 20
0
 30
0
  0
VERTEX
  8
LAYER_4
 10
353.695
 20
382.016
  0
VERTEX
  8
LAYER_4
 10
353.095
 20
382.016
  0
SEQEND
  0
POLYLINE
  8
LAYER_4
 40
0.105834
 41
0.105834
 66
1
 10
0
 20
0
 30
0
  0
VERTEX
  8
LAYER_4
 10
186.295
 20
382.016
  0
VERTEX
  8
LAYER_4
 10
185.695
 20
382.016
  0
SEQEND
  0
POLYLINE
  8
LAYER_4
 40
0.105834
 41
0.105834
 66
1
 10
0
 20
0
 30
0
  0
VERTEX
  8
LAYER_4
 10
334.095
 20
382.097
  0
VERTEX
  8
LAYER_4
 10
334.015
 20
382.097
  0
SEQEND
  0
POLYLINE
  8
LAYER_4
 40
0.105834
 41
0.105834
 66
1
 10
0
 20
0
 30
0
  0
VERTEX
  8
LAYER_4
 10
218.335
 20
382.097
  0
VERTEX
  8
LAYER_4
 10
218.215
 20
382.097
  0
SEQEND
  0
POLYLINE
  8
LAYER_4
 40
0.105834
 41
0.105834
 66
1
 10
0
 20
0
 30
0
  0
VERTEX
  8
LAYER_4
 10
217.307
 20
382.097
  0
VERTEX
  8
LAYER_4
 10
216.907
 20
382.097
  0
SEQEND
  0
POLYLINE
  8
LAYER_4
 40
0.105834
 41
0.105834
 66
1
 10
0
 20
0
 30
0
  0
VERTEX
  8
LAYER_4
 10
216.291
 20
382.097
  0
VERTEX
  8
LAYER_4
 10
215.891
 20
382.097
  0
SEQEND
  0
POLYLINE
  8
LAYER_4
 40
0.105834
 41
0.105834
 66
1
 10
0
 20
0
 30
0
  0
VERTEX
  8
LAYER_4
 10
215.275
 20
382.097
  0
VERTEX
  8
LAYER_4
 10
214.875
 20
382.097
  0
SEQEND
  0
POLYLINE
  8
LAYER_4
 40
0.105834
 41
0.105834
 66
1
 10
0
 20
0
 30
0
  0
VERTEX
  8
LAYER_4
 10
214.259
 20
382.097
  0
VERTEX
  8
LAYER_4
 10
213.859
 20
382.097
  0
SEQEND
  0
POLYLINE
  8
LAYER_4
 40
0.105834
 41
0.105834
 66
1
 10
0
 20
0
 30
0
  0
VERTEX
  8
LAYER_4
 10
213.243
 20
382.097
  0
VERTEX
  8
LAYER_4
 10
212.843
 20
382.097
  0
SEQEND
  0
POLYLINE
  8
LAYER_4
 40
0.105834
 41
0.105834
 66
1
 10
0
 20
0
 30
0
  0
VERTEX
  8
LAYER_4
 10
212.227
 20
382.097
  0
VERTEX
  8
LAYER_4
 10
211.827
 20
382.097
  0
SEQEND
  0
POLYLINE
  8
LAYER_4
 40
0.105834
 41
0.105834
 66
1
 10
0
 20
0
 30
0
  0
VERTEX
  8
LAYER_4
 10
211.211
 20
382.097
  0
VERTEX
  8
LAYER_4
 10
210.811
 20
382.097
  0
SEQEND
  0
POLYLINE
  8
LAYER_4
 40
0.105834
 41
0.105834
 66
1
 10
0
 20
0
 30
0
  0
VERTEX
  8
LAYER_4
 10
210.503
 20
382.097
  0
VERTEX
  8
LAYER_4
 10
210.383
 20
382.097
  0
SEQEND
  0
POLYLINE
  8
LAYER_4
 40
0.105834
 41
0.105834
 66
1
 10
0
 20
0
 30
0
  0
VERTEX
  8
LAYER_4
 10
321.295
 20
382.097
  0
VERTEX
  8
LAYER_4
 10
321.375
 20
382.097
  0
SEQEND
  0
POLYLINE
  8
LAYER_4
 40
0.105834
 41
0.105834
 66
1
 10
0
 20
0
 30
0
  0
VERTEX
  8
LAYER_4
 10
206.585
 20
382.176
  0
VERTEX
  8
LAYER_4
 10
203.205
 20
382.176
  0
SEQEND
  0
POLYLINE
  8
LAYER_4
 40
0.105834
 41
0.105834
 66
1
 10
0
 20
0
 30
0
  0
VERTEX
  8
LAYER_4
 10
194.395
 20
382.268
  0
VERTEX
  8
LAYER_4
 10
199.395
 20
382.268
  0
SEQEND
  0
POLYLINE
  8
LAYER_4
 40
0.105834
 41
0.105834
 66
1
 10
0
 20
0
 30
0
  0
VERTEX
  8
LAYER_4
 10
217.507
 20
382.296
  0
VERTEX
  8
LAYER_4
 10
216.707
 20
382.296
  0
SEQEND
  0
POLYLINE
  8
LAYER_4
 40
0.105834
 41
0.105834
 66
1
 10
0
 20
0
 30
0
  0
VERTEX
  8
LAYER_4
 10
216.491
 20
382.296
  0
VERTEX
  8
LAYER_4
 10
215.691
 20
382.296
  0
SEQEND
  0
POLYLINE
  8
LAYER_4
 40
0.105834
 41
0.105834
 66
1
 10
0
 20
0
 30
0
  0
VERTEX
  8
LAYER_4
 10
215.475
 20
382.296
  0
VERTEX
  8
LAYER_4
 10
214.675
 20
382.296
  0
SEQEND
  0
POLYLINE
  8
LAYER_4
 40
0.105834
 41
0.105834
 66
1
 10
0
 20
0
 30
0
  0
VERTEX
  8
LAYER_4
 10
214.459
 20
382.296
  0
VERTEX
  8
LAYER_4
 10
213.659
 20
382.296
  0
SEQEND
  0
POLYLINE
  8
LAYER_4
 40
0.105834
 41
0.105834
 66
1
 10
0
 20
0
 30
0
  0
VERTEX
  8
LAYER_4
 10
213.443
 20
382.296
  0
VERTEX
  8
LAYER_4
 10
212.643
 20
382.296
  0
SEQEND
  0
POLYLINE
  8
LAYER_4
 40
0.105834
 41
0.105834
 66
1
 10
0
 20
0
 30
0
  0
VERTEX
  8
LAYER_4
 10
212.427
 20
382.296
  0
VERTEX
  8
LAYER_4
 10
211.627
 20
382.296
  0
SEQEND
  0
POLYLINE
  8
LAYER_4
 40
0.105834
 41
0.105834
 66
1
 10
0
 20
0
 30
0
  0
VERTEX
  8
LAYER_4
 10
211.411
 20
382.296
  0
VERTEX
  8
LAYER_4
 10
210.611
 20
382.296
  0
SEQEND
  0
POLYLINE
  8
LAYER_4
 40
0.105834
 41
0.105834
 66
1
 10
0
 20
0
 30
0
  0
VERTEX
  8
LAYER_4
 10
344.895
 20
382.376
  0
VERTEX
  8
LAYER_4
 10
338.895
 20
382.376
  0
SEQEND
  0
POLYLINE
  8
LAYER_4
 40
0.105834
 41
0.105834
 66
1
 10
0
 20
0
 30
0
  0
VERTEX
  8
LAYER_4
 10
199.555
 20
382.376
  0
VERTEX
  8
LAYER_4
 10
199.995
 20
382.376
  0
SEQEND
  0
POLYLINE
  8
LAYER_4
 40
0.105834
 41
0.105834
 66
1
 10
0
 20
0
 30
0
  0
VERTEX
  8
LAYER_4
 10
202.247
 20
382.376
  0
VERTEX
  8
LAYER_4
 10
202.447
 20
382.376
  0
SEQEND
  0
POLYLINE
  8
LAYER_4
 40
0.105834
 41
0.105834
 66
1
 10
0
 20
0
 30
0
  0
VERTEX
  8
LAYER_4
 10
333.695
 20
382.416
  0
VERTEX
  8
LAYER_4
 10
321.695
 20
382.416
  0
SEQEND
  0
POLYLINE
  8
LAYER_4
 40
0.105834
 41
0.105834
 66
1
 10
0
 20
0
 30
0
  0
VERTEX
  8
LAYER_4
 10
194.435
 20
382.429
  0
VERTEX
  8
LAYER_4
 10
199.355
 20
382.429
  0
SEQEND
  0
POLYLINE
  8
LAYER_4
 40
0.105834
 41
0.105834
 66
1
 10
0
 20
0
 30
0
  0
VERTEX
  8
LAYER_4
 10
333.695
 20
382.497
  0
VERTEX
  8
LAYER_4
 10
321.695
 20
382.497
  0
SEQEND
  0
POLYLINE
  8
LAYER_4
 40
0.105834
 41
0.105834
 66
1
 10
0
 20
0
 30
0
  0
VERTEX
  8
LAYER_4
 10
202.447
 20
382.537
  0
VERTEX
  8
LAYER_4
 10
202.247
 20
382.537
  0
SEQEND
  0
POLYLINE
  8
LAYER_4
 40
0.105834
 41
0.105834
 66
1
 10
0
 20
0
 30
0
  0
VERTEX
  8
LAYER_4
 10
199.995
 20
382.537
  0
VERTEX
  8
LAYER_4
 10
199.555
 20
382.537
  0
SEQEND
  0
POLYLINE
  8
LAYER_4
 40
0.105834
 41
0.105834
 66
1
 10
0
 20
0
 30
0
  0
VERTEX
  8
LAYER_4
 10
218.215
 20
382.596
  0
VERTEX
  8
LAYER_4
 10
210.503
 20
382.596
  0
SEQEND
  0
POLYLINE
  8
LAYER_4
 40
0.105834
 41
0.105834
 66
1
 10
0
 20
0
 30
0
  0
VERTEX
  8
LAYER_4
 10
194.675
 20
382.668
  0
VERTEX
  8
LAYER_4
 10
199.115
 20
382.668
  0
SEQEND
  0
POLYLINE
  8
LAYER_4
 40
0.105834
 41
0.105834
 66
1
 10
0
 20
0
 30
0
  0
VERTEX
  8
LAYER_4
 10
333.695
 20
382.696
  0
VERTEX
  8
LAYER_4
 10
321.695
 20
382.696
  0
SEQEND
  0
POLYLINE
  8
LAYER_4
 40
0.105834
 41
0.105834
 66
1
 10
0
 20
0
 30
0
  0
VERTEX
  8
LAYER_4
 10
218.415
 20
382.796
  0
VERTEX
  8
LAYER_4
 10
210.303
 20
382.796
  0
SEQEND
  0
POLYLINE
  8
LAYER_4
 40
0.105834
 41
0.105834
 66
1
 10
0
 20
0
 30
0
  0
VERTEX
  8
LAYER_4
 10
199.995
 20
382.868
  0
VERTEX
  8
LAYER_4
 10
193.795
 20
382.868
  0
SEQEND
  0
POLYLINE
  8
LAYER_4
 40
0.105834
 41
0.105834
 66
1
 10
0
 20
0
 30
0
  0
VERTEX
  8
LAYER_4
 10
337.695
 20
382.897
  0
VERTEX
  8
LAYER_4
 10
337.495
 20
382.897
  0
SEQEND
  0
POLYLINE
  8
LAYER_4
 40
0.105834
 41
0.105834
 66
1
 10
0
 20
0
 30
0
  0
VERTEX
  8
LAYER_4
 10
202.247
 20
382.897
  0
VERTEX
  8
LAYER_4
 10
207.543
 20
382.897
  0
SEQEND
  0
POLYLINE
  8
LAYER_4
 40
0.105834
 41
0.105834
 66
1
 10
0
 20
0
 30
0
  0
VERTEX
  8
LAYER_4
 10
346.095
 20
382.897
  0
VERTEX
  8
LAYER_4
 10
346.295
 20
382.897
  0
SEQEND
  0
POLYLINE
  8
LAYER_4
 40
0.105834
 41
0.105834
 66
1
 10
0
 20
0
 30
0
  0
VERTEX
  8
LAYER_4
 10
207.543
 20
383.097
  0
VERTEX
  8
LAYER_4
 10
202.247
 20
383.097
  0
SEQEND
  0
POLYLINE
  8
LAYER_4
 40
0.105834
 41
0.105834
 66
1
 10
0
 20
0
 30
0
  0
VERTEX
  8
LAYER_4
 10
345.695
 20
383.297
  0
VERTEX
  8
LAYER_4
 10
338.095
 20
383.297
  0
SEQEND
  0
POLYLINE
  8
LAYER_4
 40
0.105834
 41
0.105834
 66
1
 10
0
 20
0
 30
0
  0
VERTEX
  8
LAYER_4
 10
346.295
 20
383.496
  0
VERTEX
  8
LAYER_4
 10
337.495
 20
383.496
  0
SEQEND
  0
POLYLINE
  8
LAYER_4
 40
0.105834
 41
0.105834
 66
1
 10
0
 20
0
 30
0
  0
VERTEX
  8
LAYER_4
 10
186.305
 20
384.24
  0
VERTEX
  8
LAYER_4
 10
186.495
 20
384.24
  0
SEQEND
  0
POLYLINE
  8
LAYER_4
 40
0.105834
 41
0.105834
 66
1
 10
0
 20
0
 30
0
  0
VERTEX
  8
LAYER_4
 10
352.895
 20
384.24
  0
VERTEX
  8
LAYER_4
 10
353.085
 20
384.24
  0
SEQEND
  0
POLYLINE
  8
LAYER_4
 40
0.105834
 41
0.105834
 66
1
 10
0
 20
0
 30
0
  0
VERTEX
  8
LAYER_4
 10
261.815
 20
384.597
  0
VERTEX
  8
LAYER_4
 10
258.875
 20
384.597
  0
SEQEND
  0
POLYLINE
  8
LAYER_4
 40
0.105834
 41
0.105834
 66
1
 10
0
 20
0
 30
0
  0
VERTEX
  8
LAYER_4
 10
229.575
 20
384.597
  0
VERTEX
  8
LAYER_4
 10
232.915
 20
384.597
  0
SEQEND
  0
POLYLINE
  8
LAYER_4
 40
0.105834
 41
0.105834
 66
1
 10
0
 20
0
 30
0
  0
VERTEX
  8
LAYER_4
 10
232.915
 20
384.916
  0
VERTEX
  8
LAYER_4
 10
258.875
 20
384.916
  0
SEQEND
  0
POLYLINE
  8
LAYER_4
 40
0.105834
 41
0.105834
 66
1
 10
0
 20
0
 30
0
  0
VERTEX
  8
LAYER_4
 10
232.915
 20
385.316
  0
VERTEX
  8
LAYER_4
 10
258.875
 20
385.316
  0
SEQEND
  0
POLYLINE
  8
LAYER_4
 40
0.105834
 41
0.105834
 66
1
 10
0
 20
0
 30
0
  0
VERTEX
  8
LAYER_4
 10
251.696
 20
385.337
  0
VERTEX
  8
LAYER_4
 10
246.422
 20
385.337
  0
SEQEND
  0
POLYLINE
  8
LAYER_4
 40
0.105834
 41
0.105834
 66
1
 10
0
 20
0
 30
0
  0
VERTEX
  8
LAYER_4
 10
239.349
 20
385.337
  0
VERTEX
  8
LAYER_4
 10
236.894
 20
385.337
  0
SEQEND
  0
POLYLINE
  8
LAYER_4
 40
0.105834
 41
0.105834
 66
1
 10
0
 20
0
 30
0
  0
VERTEX
  8
LAYER_4
 10
258.935
 20
385.376
  0
VERTEX
  8
LAYER_4
 10
232.855
 20
385.376
  0
SEQEND
  0
POLYLINE
  8
LAYER_4
 40
0.105834
 41
0.105834
 66
1
 10
0
 20
0
 30
0
  0
VERTEX
  8
LAYER_4
 10
186.895
 20
386.016
  0
VERTEX
  8
LAYER_4
 10
186.495
 20
386.016
  0
SEQEND
  0
POLYLINE
  8
LAYER_4
 40
0.105834
 41
0.105834
 66
1
 10
0
 20
0
 30
0
  0
VERTEX
  8
LAYER_4
 10
352.495
 20
386.016
  0
VERTEX
  8
LAYER_4
 10
352.895
 20
386.016
  0
SEQEND
  0
POLYLINE
  8
LAYER_4
 40
0.105834
 41
0.105834
 66
1
 10
0
 20
0
 30
0
  0
VERTEX
  8
LAYER_4
 10
186.27
 20
386.092
  0
VERTEX
  8
LAYER_4
 10
186.495
 20
386.092
  0
SEQEND
  0
POLYLINE
  8
LAYER_4
 40
0.105834
 41
0.105834
 66
1
 10
0
 20
0
 30
0
  0
VERTEX
  8
LAYER_4
 10
352.895
 20
386.092
  0
VERTEX
  8
LAYER_4
 10
353.12
 20
386.092
  0
SEQEND
  0
POLYLINE
  8
LAYER_4
 40
0.105834
 41
0.105834
 66
1
 10
0
 20
0
 30
0
  0
VERTEX
  8
LAYER_4
 10
186.895
 20
386.136
  0
VERTEX
  8
LAYER_4
 10
187.775
 20
386.136
  0
SEQEND
  0
POLYLINE
  8
LAYER_4
 40
0.105834
 41
0.105834
 66
1
 10
0
 20
0
 30
0
  0
VERTEX
  8
LAYER_4
 10
351.615
 20
386.136
  0
VERTEX
  8
LAYER_4
 10
352.495
 20
386.136
  0
SEQEND
  0
POLYLINE
  8
LAYER_4
 40
0.105834
 41
0.105834
 66
1
 10
0
 20
0
 30
0
  0
VERTEX
  8
LAYER_4
 10
185.896
 20
386.216
  0
VERTEX
  8
LAYER_4
 10
186.495
 20
386.216
  0
SEQEND
  0
POLYLINE
  8
LAYER_4
 40
0.105834
 41
0.105834
 66
1
 10
0
 20
0
 30
0
  0
VERTEX
  8
LAYER_4
 10
187.375
 20
386.216
  0
VERTEX
  8
LAYER_4
 10
187.775
 20
386.216
  0
SEQEND
  0
POLYLINE
  8
LAYER_4
 40
0.105834
 41
0.105834
 66
1
 10
0
 20
0
 30
0
  0
VERTEX
  8
LAYER_4
 10
351.615
 20
386.216
  0
VERTEX
  8
LAYER_4
 10
352.015
 20
386.216
  0
SEQEND
  0
POLYLINE
  8
LAYER_4
 40
0.105834
 41
0.105834
 66
1
 10
0
 20
0
 30
0
  0
VERTEX
  8
LAYER_4
 10
352.895
 20
386.216
  0
VERTEX
  8
LAYER_4
 10
353.494
 20
386.216
  0
SEQEND
  0
POLYLINE
  8
LAYER_4
 40
0.105834
 41
0.105834
 66
1
 10
0
 20
0
 30
0
  0
VERTEX
  8
LAYER_4
 10
352.495
 20
386.336
  0
VERTEX
  8
LAYER_4
 10
352.015
 20
386.336
  0
SEQEND
  0
POLYLINE
  8
LAYER_4
 40
0.105834
 41
0.105834
 66
1
 10
0
 20
0
 30
0
  0
VERTEX
  8
LAYER_4
 10
186.895
 20
386.336
  0
VERTEX
  8
LAYER_4
 10
187.375
 20
386.336
  0
SEQEND
  0
POLYLINE
  8
LAYER_4
 40
0.105834
 41
0.105834
 66
1
 10
0
 20
0
 30
0
  0
VERTEX
  8
LAYER_4
 10
187.375
 20
386.736
  0
VERTEX
  8
LAYER_4
 10
352.015
 20
386.736
  0
SEQEND
  0
POLYLINE
  8
LAYER_4
 40
0.105834
 41
0.105834
 66
1
 10
0
 20
0
 30
0
  0
VERTEX
  8
LAYER_4
 10
186.895
 20
386.816
  0
VERTEX
  8
LAYER_4
 10
186.495
 20
386.816
  0
SEQEND
  0
POLYLINE
  8
LAYER_4
 40
0.105834
 41
0.105834
 66
1
 10
0
 20
0
 30
0
  0
VERTEX
  8
LAYER_4
 10
352.495
 20
386.816
  0
VERTEX
  8
LAYER_4
 10
352.895
 20
386.816
  0
SEQEND
  0
POLYLINE
  8
LAYER_4
 40
0.105834
 41
0.105834
 66
1
 10
0
 20
0
 30
0
  0
VERTEX
  8
LAYER_4
 10
185.492
 20
387.217
  0
VERTEX
  8
LAYER_4
 10
353.898
 20
387.217
  0
SEQEND
  0
POLYLINE
  8
LAYER_4
 40
0.105834
 41
0.105834
 66
1
 10
0
 20
0
 30
0
  0
VERTEX
  8
LAYER_4
 10
187.495
 20
388.416
  0
VERTEX
  8
LAYER_4
 10
197.495
 20
388.416
  0
SEQEND
  0
POLYLINE
  8
LAYER_4
 40
0.105834
 41
0.105834
 66
1
 10
0
 20
0
 30
0
  0
VERTEX
  8
LAYER_4
 10
341.895
 20
388.416
  0
VERTEX
  8
LAYER_4
 10
351.895
 20
388.416
  0
SEQEND
  0
POLYLINE
  8
LAYER_4
 40
0.105834
 41
0.105834
 66
1
 10
0
 20
0
 30
0
  0
VERTEX
  8
LAYER_4
 10
187.895
 20
388.816
  0
VERTEX
  8
LAYER_4
 10
197.095
 20
388.816
  0
SEQEND
  0
POLYLINE
  8
LAYER_4
 40
0.105834
 41
0.105834
 66
1
 10
0
 20
0
 30
0
  0
VERTEX
  8
LAYER_4
 10
342.295
 20
388.816
  0
VERTEX
  8
LAYER_4
 10
351.495
 20
388.816
  0
SEQEND
  0
POLYLINE
  8
LAYER_4
 40
0.105834
 41
0.105834
 66
1
 10
0
 20
0
 30
0
  0
VERTEX
  8
LAYER_4
 10
188.495
 20
389.216
  0
VERTEX
  8
LAYER_4
 10
196.495
 20
389.216
  0
SEQEND
  0
POLYLINE
  8
LAYER_4
 40
0.105834
 41
0.105834
 66
1
 10
0
 20
0
 30
0
  0
VERTEX
  8
LAYER_4
 10
342.895
 20
389.216
  0
VERTEX
  8
LAYER_4
 10
350.895
 20
389.216
  0
SEQEND
  0
POLYLINE
  8
LAYER_4
 40
0.105834
 41
0.105834
 66
1
 10
0
 20
0
 30
0
  0
VERTEX
  8
LAYER_4
 10
312.495
 20
373.616
  0
VERTEX
  8
LAYER_4
 10
312.495
 20
372.416
  0
SEQEND
  0
POLYLINE
  8
LAYER_4
 40
0.105834
 41
0.105834
 66
1
 10
0
 20
0
 30
0
  0
VERTEX
  8
LAYER_4
 10
312.695
 20
372.416
  0
VERTEX
  8
LAYER_4
 10
312.695
 20
373.216
  0
SEQEND
  0
POLYLINE
  8
LAYER_4
 40
0.105834
 41
0.105834
 66
1
 10
0
 20
0
 30
0
  0
VERTEX
  8
LAYER_4
 10
353.477
 20
370.902
  0
VERTEX
  8
LAYER_4
 10
353.085
 20
371.033
  0
SEQEND
  0
POLYLINE
  8
LAYER_4
 40
0.105834
 41
0.105834
 66
1
 10
0
 20
0
 30
0
  0
VERTEX
  8
LAYER_4
 10
314.695
 20
373.216
  0
VERTEX
  8
LAYER_4
 10
314.695
 20
372.416
  0
SEQEND
  0
POLYLINE
  8
LAYER_4
 40
0.105834
 41
0.105834
 66
1
 10
0
 20
0
 30
0
  0
VERTEX
  8
LAYER_4
 10
314.895
 20
372.416
  0
VERTEX
  8
LAYER_4
 10
314.895
 20
373.616
  0
SEQEND
  0
POLYLINE
  8
LAYER_4
 40
0.105834
 41
0.105834
 66
1
 10
0
 20
0
 30
0
  0
VERTEX
  8
LAYER_4
 10
318.295
 20
381.217
  0
VERTEX
  8
LAYER_4
 10
318.295
 20
380.016
  0
SEQEND
  0
POLYLINE
  8
LAYER_4
 40
0.105834
 41
0.105834
 66
1
 10
0
 20
0
 30
0
  0
VERTEX
  8
LAYER_4
 10
318.695
 20
380.536
  0
VERTEX
  8
LAYER_4
 10
318.695
 20
381.217
  0
SEQEND
  0
POLYLINE
  8
LAYER_4
 40
0.105834
 41
0.105834
 66
1
 10
0
 20
0
 30
0
  0
VERTEX
  8
LAYER_4
 10
319.895
 20
381.217
  0
VERTEX
  8
LAYER_4
 10
319.895
 20
380.536
  0
SEQEND
  0
POLYLINE
  8
LAYER_4
 40
0.105834
 41
0.105834
 66
1
 10
0
 20
0
 30
0
  0
VERTEX
  8
LAYER_4
 10
320.295
 20
380.016
  0
VERTEX
  8
LAYER_4
 10
320.295
 20
381.217
  0
SEQEND
  0
POLYLINE
  8
LAYER_4
 40
0.105834
 41
0.105834
 66
1
 10
0
 20
0
 30
0
  0
VERTEX
  8
LAYER_4
 10
321.095
 20
382.097
  0
VERTEX
  8
LAYER_4
 10
321.095
 20
373.697
  0
SEQEND
  0
POLYLINE
  8
LAYER_4
 40
0.105834
 41
0.105834
 66
1
 10
0
 20
0
 30
0
  0
VERTEX
  8
LAYER_4
 10
321.295
 20
382.097
  0
VERTEX
  8
LAYER_4
 10
321.295
 20
373.697
  0
SEQEND
  0
POLYLINE
  8
LAYER_4
 40
0.105834
 41
0.105834
 66
1
 10
0
 20
0
 30
0
  0
VERTEX
  8
LAYER_4
 10
321.375
 20
382.097
  0
VERTEX
  8
LAYER_4
 10
321.375
 20
373.697
  0
SEQEND
  0
POLYLINE
  8
LAYER_4
 40
0.105834
 41
0.105834
 66
1
 10
0
 20
0
 30
0
  0
VERTEX
  8
LAYER_4
 10
321.695
 20
382.497
  0
VERTEX
  8
LAYER_4
 10
321.695
 20
382.416
  0
SEQEND
  0
POLYLINE
  8
LAYER_4
 40
0.105834
 41
0.105834
 66
1
 10
0
 20
0
 30
0
  0
VERTEX
  8
LAYER_4
 10
321.695
 20
373.376
  0
VERTEX
  8
LAYER_4
 10
321.695
 20
373.297
  0
SEQEND
  0
POLYLINE
  8
LAYER_4
 40
0.105834
 41
0.105834
 66
1
 10
0
 20
0
 30
0
  0
VERTEX
  8
LAYER_4
 10
322.495
 20
380.296
  0
VERTEX
  8
LAYER_4
 10
322.495
 20
376.451
  0
SEQEND
  0
POLYLINE
  8
LAYER_4
 40
0.105834
 41
0.105834
 66
1
 10
0
 20
0
 30
0
  0
VERTEX
  8
LAYER_4
 10
322.895
 20
380.296
  0
VERTEX
  8
LAYER_4
 10
322.895
 20
376.616
  0
SEQEND
  0
POLYLINE
  8
LAYER_4
 40
0.105834
 41
0.105834
 66
1
 10
0
 20
0
 30
0
  0
VERTEX
  8
LAYER_4
 10
323.695
 20
381.096
  0
VERTEX
  8
LAYER_4
 10
323.695
 20
381.496
  0
SEQEND
  0
POLYLINE
  8
LAYER_4
 40
0.105834
 41
0.105834
 66
1
 10
0
 20
0
 30
0
  0
VERTEX
  8
LAYER_4
 10
324.495
 20
379.497
  0
VERTEX
  8
LAYER_4
 10
324.495
 20
377.896
  0
SEQEND
  0
POLYLINE
  8
LAYER_4
 40
0.105834
 41
0.105834
 66
1
 10
0
 20
0
 30
0
  0
VERTEX
  8
LAYER_4
 10
324.916
 20
369.896
  0
VERTEX
  8
LAYER_4
 10
324.916
 20
370.016
  0
SEQEND
  0
POLYLINE
  8
LAYER_4
 40
0.105834
 41
0.105834
 66
1
 10
0
 20
0
 30
0
  0
VERTEX
  8
LAYER_4
 10
324.957
 20
369.896
  0
VERTEX
  8
LAYER_4
 10
324.957
 20
370.016
  0
SEQEND
  0
POLYLINE
  8
LAYER_4
 40
0.105834
 41
0.105834
 66
1
 10
0
 20
0
 30
0
  0
VERTEX
  8
LAYER_4
 10
325.295
 20
377.896
  0
VERTEX
  8
LAYER_4
 10
325.295
 20
379.497
  0
SEQEND
  0
POLYLINE
  8
LAYER_4
 40
0.105834
 41
0.105834
 66
1
 10
0
 20
0
 30
0
  0
VERTEX
  8
LAYER_4
 10
322.495
 20
376.451
  0
VERTEX
  8
LAYER_4
 10
324.65
 20
374.296
  0
SEQEND
  0
POLYLINE
  8
LAYER_4
 40
0.105834
 41
0.105834
 66
1
 10
0
 20
0
 30
0
  0
VERTEX
  8
LAYER_4
 10
322.895
 20
376.616
  0
VERTEX
  8
LAYER_4
 10
324.815
 20
374.696
  0
SEQEND
  0
POLYLINE
  8
LAYER_4
 40
0.105834
 41
0.105834
 66
1
 10
0
 20
0
 30
0
  0
VERTEX
  8
LAYER_4
 10
327.295
 20
377.896
  0
VERTEX
  8
LAYER_4
 10
327.295
 20
376.296
  0
SEQEND
  0
POLYLINE
  8
LAYER_4
 40
0.105834
 41
0.105834
 66
1
 10
0
 20
0
 30
0
  0
VERTEX
  8
LAYER_4
 10
327.716
 20
369.896
  0
VERTEX
  8
LAYER_4
 10
327.716
 20
370.016
  0
SEQEND
  0
POLYLINE
  8
LAYER_4
 40
0.105834
 41
0.105834
 66
1
 10
0
 20
0
 30
0
  0
VERTEX
  8
LAYER_4
 10
328.095
 20
376.296
  0
VERTEX
  8
LAYER_4
 10
328.095
 20
377.896
  0
SEQEND
  0
POLYLINE
  8
LAYER_4
 40
0.105834
 41
0.105834
 66
1
 10
0
 20
0
 30
0
  0
VERTEX
  8
LAYER_4
 10
330.095
 20
379.497
  0
VERTEX
  8
LAYER_4
 10
330.095
 20
377.896
  0
SEQEND
  0
POLYLINE
  8
LAYER_4
 40
0.105834
 41
0.105834
 66
1
 10
0
 20
0
 30
0
  0
VERTEX
  8
LAYER_4
 10
330.895
 20
377.896
  0
VERTEX
  8
LAYER_4
 10
330.895
 20
379.497
  0
SEQEND
  0
POLYLINE
  8
LAYER_4
 40
0.105834
 41
0.105834
 66
1
 10
0
 20
0
 30
0
  0
VERTEX
  8
LAYER_4
 10
353.095
 20
370.89
  0
VERTEX
  8
LAYER_4
 10
350.741
 20
372.302
  0
SEQEND
  0
POLYLINE
  8
LAYER_4
 40
0.105834
 41
0.105834
 66
1
 10
0
 20
0
 30
0
  0
VERTEX
  8
LAYER_4
 10
353.64
 20
371.217
  0
VERTEX
  8
LAYER_4
 10
351.484
 20
372.51
  0
SEQEND
  0
POLYLINE
  8
LAYER_4
 40
0.105834
 41
0.105834
 66
1
 10
0
 20
0
 30
0
  0
VERTEX
  8
LAYER_4
 10
331.695
 20
381.496
  0
VERTEX
  8
LAYER_4
 10
331.695
 20
381.096
  0
SEQEND
  0
POLYLINE
  8
LAYER_4
 40
0.105834
 41
0.105834
 66
1
 10
0
 20
0
 30
0
  0
VERTEX
  8
LAYER_4
 10
332.495
 20
376.616
  0
VERTEX
  8
LAYER_4
 10
332.495
 20
380.296
  0
SEQEND
  0
POLYLINE
  8
LAYER_4
 40
0.105834
 41
0.105834
 66
1
 10
0
 20
0
 30
0
  0
VERTEX
  8
LAYER_4
 10
332.895
 20
376.451
  0
VERTEX
  8
LAYER_4
 10
332.895
 20
380.296
  0
SEQEND
  0
POLYLINE
  8
LAYER_4
 40
0.105834
 41
0.105834
 66
1
 10
0
 20
0
 30
0
  0
VERTEX
  8
LAYER_4
 10
333.695
 20
373.297
  0
VERTEX
  8
LAYER_4
 10
333.695
 20
373.376
  0
SEQEND
  0
POLYLINE
  8
LAYER_4
 40
0.105834
 41
0.105834
 66
1
 10
0
 20
0
 30
0
  0
VERTEX
  8
LAYER_4
 10
333.695
 20
382.416
  0
VERTEX
  8
LAYER_4
 10
333.695
 20
382.497
  0
SEQEND
  0
POLYLINE
  8
LAYER_4
 40
0.105834
 41
0.105834
 66
1
 10
0
 20
0
 30
0
  0
VERTEX
  8
LAYER_4
 10
334.015
 20
373.697
  0
VERTEX
  8
LAYER_4
 10
334.015
 20
382.097
  0
SEQEND
  0
POLYLINE
  8
LAYER_4
 40
0.105834
 41
0.105834
 66
1
 10
0
 20
0
 30
0
  0
VERTEX
  8
LAYER_4
 10
334.095
 20
373.697
  0
VERTEX
  8
LAYER_4
 10
334.095
 20
382.097
  0
SEQEND
  0
POLYLINE
  8
LAYER_4
 40
0.105834
 41
0.105834
 66
1
 10
0
 20
0
 30
0
  0
VERTEX
  8
LAYER_4
 10
334.295
 20
373.697
  0
VERTEX
  8
LAYER_4
 10
334.295
 20
382.097
  0
SEQEND
  0
POLYLINE
  8
LAYER_4
 40
0.105834
 41
0.105834
 66
1
 10
0
 20
0
 30
0
  0
VERTEX
  8
LAYER_4
 10
337.495
 20
383.496
  0
VERTEX
  8
LAYER_4
 10
337.495
 20
376.897
  0
SEQEND
  0
POLYLINE
  8
LAYER_4
 40
0.105834
 41
0.105834
 66
1
 10
0
 20
0
 30
0
  0
VERTEX
  8
LAYER_4
 10
337.695
 20
382.897
  0
VERTEX
  8
LAYER_4
 10
337.695
 20
377.696
  0
SEQEND
  0
POLYLINE
  8
LAYER_4
 40
0.105834
 41
0.105834
 66
1
 10
0
 20
0
 30
0
  0
VERTEX
  8
LAYER_4
 10
337.995
 20
377.31
  0
VERTEX
  8
LAYER_4
 10
337.995
 20
377.296
  0
SEQEND
  0
POLYLINE
  8
LAYER_4
 40
0.105834
 41
0.105834
 66
1
 10
0
 20
0
 30
0
  0
VERTEX
  8
LAYER_4
 10
338.895
 20
382.376
  0
VERTEX
  8
LAYER_4
 10
338.895
 20
378.217
  0
SEQEND
  0
POLYLINE
  8
LAYER_4
 40
0.105834
 41
0.105834
 66
1
 10
0
 20
0
 30
0
  0
VERTEX
  8
LAYER_4
 10
339.34
 20
383.496
  0
VERTEX
  8
LAYER_4
 10
339.34
 20
383.297
  0
SEQEND
  0
POLYLINE
  8
LAYER_4
 40
0.105834
 41
0.105834
 66
1
 10
0
 20
0
 30
0
  0
VERTEX
  8
LAYER_4
 10
340.095
 20
382.376
  0
VERTEX
  8
LAYER_4
 10
340.095
 20
378.217
  0
SEQEND
  0
POLYLINE
  8
LAYER_4
 40
0.105834
 41
0.105834
 66
1
 10
0
 20
0
 30
0
  0
VERTEX
  8
LAYER_4
 10
341.895
 20
387.217
  0
VERTEX
  8
LAYER_4
 10
341.895
 20
388.416
  0
SEQEND
  0
POLYLINE
  8
LAYER_4
 40
0.105834
 41
0.105834
 66
1
 10
0
 20
0
 30
0
  0
VERTEX
  8
LAYER_4
 10
342.895
 20
388.816
  0
VERTEX
  8
LAYER_4
 10
342.895
 20
389.216
  0
SEQEND
  0
POLYLINE
  8
LAYER_4
 40
0.105834
 41
0.105834
 66
1
 10
0
 20
0
 30
0
  0
VERTEX
  8
LAYER_4
 10
344.895
 20
382.376
  0
VERTEX
  8
LAYER_4
 10
344.895
 20
378.217
  0
SEQEND
  0
POLYLINE
  8
LAYER_4
 40
0.105834
 41
0.105834
 66
1
 10
0
 20
0
 30
0
  0
VERTEX
  8
LAYER_4
 10
345.795
 20
377.31
  0
VERTEX
  8
LAYER_4
 10
345.795
 20
377.296
  0
SEQEND
  0
POLYLINE
  8
LAYER_4
 40
0.105834
 41
0.105834
 66
1
 10
0
 20
0
 30
0
  0
VERTEX
  8
LAYER_4
 10
346.095
 20
377.696
  0
VERTEX
  8
LAYER_4
 10
346.095
 20
382.897
  0
SEQEND
  0
POLYLINE
  8
LAYER_4
 40
0.105834
 41
0.105834
 66
1
 10
0
 20
0
 30
0
  0
VERTEX
  8
LAYER_4
 10
346.175
 20
382.897
  0
VERTEX
  8
LAYER_4
 10
346.175
 20
380.896
  0
SEQEND
  0
POLYLINE
  8
LAYER_4
 40
0.105834
 41
0.105834
 66
1
 10
0
 20
0
 30
0
  0
VERTEX
  8
LAYER_4
 10
346.295
 20
376.897
  0
VERTEX
  8
LAYER_4
 10
346.295
 20
383.496
  0
SEQEND
  0
POLYLINE
  8
LAYER_4
 40
0.105834
 41
0.105834
 66
1
 10
0
 20
0
 30
0
  0
VERTEX
  8
LAYER_4
 10
348.155
 20
375.896
  0
VERTEX
  8
LAYER_4
 10
348.155
 20
374.696
  0
SEQEND
  0
POLYLINE
  8
LAYER_4
 40
0.105834
 41
0.105834
 66
1
 10
0
 20
0
 30
0
  0
VERTEX
  8
LAYER_4
 10
348.495
 20
375.737
  0
VERTEX
  8
LAYER_4
 10
348.495
 20
375.177
  0
SEQEND
  0
POLYLINE
  8
LAYER_4
 40
0.105834
 41
0.105834
 66
1
 10
0
 20
0
 30
0
  0
VERTEX
  8
LAYER_4
 10
348.555
 20
375.896
  0
VERTEX
  8
LAYER_4
 10
348.555
 20
375.216
  0
SEQEND
  0
POLYLINE
  8
LAYER_4
 40
0.105834
 41
0.105834
 66
1
 10
0
 20
0
 30
0
  0
VERTEX
  8
LAYER_4
 10
349.635
 20
375.216
  0
VERTEX
  8
LAYER_4
 10
349.635
 20
375.896
  0
SEQEND
  0
POLYLINE
  8
LAYER_4
 40
0.105834
 41
0.105834
 66
1
 10
0
 20
0
 30
0
  0
VERTEX
  8
LAYER_4
 10
349.695
 20
375.177
  0
VERTEX
  8
LAYER_4
 10
349.695
 20
375.737
  0
SEQEND
  0
POLYLINE
  8
LAYER_4
 40
0.105834
 41
0.105834
 66
1
 10
0
 20
0
 30
0
  0
VERTEX
  8
LAYER_4
 10
353.494
 20
370.577
  0
VERTEX
  8
LAYER_4
 10
353.477
 20
370.902
  0
SEQEND
  0
POLYLINE
  8
LAYER_4
 40
0.105834
 41
0.105834
 66
1
 10
0
 20
0
 30
0
  0
VERTEX
  8
LAYER_4
 10
350.035
 20
374.696
  0
VERTEX
  8
LAYER_4
 10
350.035
 20
375.896
  0
SEQEND
  0
POLYLINE
  8
LAYER_4
 40
0.105834
 41
0.105834
 66
1
 10
0
 20
0
 30
0
  0
VERTEX
  8
LAYER_4
 10
350.895
 20
388.816
  0
VERTEX
  8
LAYER_4
 10
350.895
 20
389.216
  0
SEQEND
  0
POLYLINE
  8
LAYER_4
 40
0.105834
 41
0.105834
 66
1
 10
0
 20
0
 30
0
  0
VERTEX
  8
LAYER_4
 10
351.095
 20
380.016
  0
VERTEX
  8
LAYER_4
 10
351.095
 20
373.196
  0
SEQEND
  0
POLYLINE
  8
LAYER_4
 40
0.105834
 41
0.105834
 66
1
 10
0
 20
0
 30
0
  0
VERTEX
  8
LAYER_4
 10
351.615
 20
387.217
  0
VERTEX
  8
LAYER_4
 10
351.615
 20
386.136
  0
SEQEND
  0
POLYLINE
  8
LAYER_4
 40
0.105834
 41
0.105834
 66
1
 10
0
 20
0
 30
0
  0
VERTEX
  8
LAYER_4
 10
351.895
 20
387.217
  0
VERTEX
  8
LAYER_4
 10
351.895
 20
388.416
  0
SEQEND
  0
POLYLINE
  8
LAYER_4
 40
0.105834
 41
0.105834
 66
1
 10
0
 20
0
 30
0
  0
VERTEX
  8
LAYER_4
 10
352.015
 20
372.191
  0
VERTEX
  8
LAYER_4
 10
352.015
 20
371.538
  0
SEQEND
  0
POLYLINE
  8
LAYER_4
 40
0.105834
 41
0.105834
 66
1
 10
0
 20
0
 30
0
  0
VERTEX
  8
LAYER_4
 10
352.015
 20
380.816
  0
VERTEX
  8
LAYER_4
 10
352.015
 20
386.736
  0
SEQEND
  0
POLYLINE
  8
LAYER_4
 40
0.105834
 41
0.105834
 66
1
 10
0
 20
0
 30
0
  0
VERTEX
  8
LAYER_4
 10
352.495
 20
386.136
  0
VERTEX
  8
LAYER_4
 10
352.495
 20
380.816
  0
SEQEND
  0
POLYLINE
  8
LAYER_4
 40
0.105834
 41
0.105834
 66
1
 10
0
 20
0
 30
0
  0
VERTEX
  8
LAYER_4
 10
352.495
 20
371.25
  0
VERTEX
  8
LAYER_4
 10
352.495
 20
371.903
  0
SEQEND
  0
POLYLINE
  8
LAYER_4
 40
0.105834
 41
0.105834
 66
1
 10
0
 20
0
 30
0
  0
VERTEX
  8
LAYER_4
 10
352.495
 20
386.141
  0
VERTEX
  8
LAYER_4
 10
352.495
 20
386.736
  0
SEQEND
  0
POLYLINE
  8
LAYER_4
 40
0.105834
 41
0.105834
 66
1
 10
0
 20
0
 30
0
  0
VERTEX
  8
LAYER_4
 10
352.495
 20
386.815
  0
VERTEX
  8
LAYER_4
 10
352.495
 20
386.816
  0
SEQEND
  0
POLYLINE
  8
LAYER_4
 40
0.105834
 41
0.105834
 66
1
 10
0
 20
0
 30
0
  0
VERTEX
  8
LAYER_4
 10
352.895
 20
382.216
  0
VERTEX
  8
LAYER_4
 10
352.895
 20
386.816
  0
SEQEND
  0
POLYLINE
  8
LAYER_4
 40
0.105834
 41
0.105834
 66
1
 10
0
 20
0
 30
0
  0
VERTEX
  8
LAYER_4
 10
353.085
 20
384.24
  0
VERTEX
  8
LAYER_4
 10
353.085
 20
382.016
  0
SEQEND
  0
POLYLINE
  8
LAYER_4
 40
0.105834
 41
0.105834
 66
1
 10
0
 20
0
 30
0
  0
VERTEX
  8
LAYER_4
 10
353.085
 20
381.616
  0
VERTEX
  8
LAYER_4
 10
353.085
 20
380.816
  0
SEQEND
  0
POLYLINE
  8
LAYER_4
 40
0.105834
 41
0.105834
 66
1
 10
0
 20
0
 30
0
  0
VERTEX
  8
LAYER_4
 10
353.085
 20
371.549
  0
VERTEX
  8
LAYER_4
 10
353.085
 20
371.033
  0
SEQEND
  0
POLYLINE
  8
LAYER_4
 40
0.105834
 41
0.105834
 66
1
 10
0
 20
0
 30
0
  0
VERTEX
  8
LAYER_4
 10
353.095
 20
370.016
  0
VERTEX
  8
LAYER_4
 10
353.095
 20
370.89
  0
SEQEND
  0
POLYLINE
  8
LAYER_4
 40
0.105834
 41
0.105834
 66
1
 10
0
 20
0
 30
0
  0
VERTEX
  8
LAYER_4
 10
353.494
 20
386.216
  0
VERTEX
  8
LAYER_4
 10
353.494
 20
382.016
  0
SEQEND
  0
POLYLINE
  8
LAYER_4
 40
0.105834
 41
0.105834
 66
1
 10
0
 20
0
 30
0
  0
VERTEX
  8
LAYER_4
 10
353.494
 20
381.616
  0
VERTEX
  8
LAYER_4
 10
353.494
 20
380.816
  0
SEQEND
  0
POLYLINE
  8
LAYER_4
 40
0.105834
 41
0.105834
 66
1
 10
0
 20
0
 30
0
  0
VERTEX
  8
LAYER_4
 10
353.494
 20
371.304
  0
VERTEX
  8
LAYER_4
 10
353.494
 20
370.577
  0
SEQEND
  0
POLYLINE
  8
LAYER_4
 40
0.105834
 41
0.105834
 66
1
 10
0
 20
0
 30
0
  0
VERTEX
  8
LAYER_4
 10
353.895
 20
381.417
  0
VERTEX
  8
LAYER_4
 10
353.895
 20
380.816
  0
SEQEND
  0
POLYLINE
  8
LAYER_4
 40
0.105834
 41
0.105834
 66
1
 10
0
 20
0
 30
0
  0
VERTEX
  8
LAYER_4
 10
353.895
 20
370.817
  0
VERTEX
  8
LAYER_4
 10
353.895
 20
371.217
  0
SEQEND
  0
POLYLINE
  8
LAYER_4
 40
0.105834
 41
0.105834
 66
1
 10
0
 20
0
 30
0
  0
VERTEX
  8
LAYER_4
 10
354.295
 20
370.817
  0
VERTEX
  8
LAYER_4
 10
354.295
 20
381.417
  0
SEQEND
  0
POLYLINE
  8
LAYER_4
 40
0.105834
 41
0.105834
 66
1
 10
0
 20
0
 30
0
  0
VERTEX
  8
LAYER_4
 10
354.495
 20
386.618
  0
VERTEX
  8
LAYER_4
 10
354.495
 20
370.296
  0
SEQEND
  0
POLYLINE
  8
LAYER_4
 40
0.105834
 41
0.105834
 66
1
 10
0
 20
0
 30
0
  0
VERTEX
  8
LAYER_4
 10
353.12
 20
386.092
  0
VERTEX
  8
LAYER_4
 10
353.085
 20
384.24
  0
SEQEND
  0
POLYLINE
  8
LAYER_4
 40
0.105834
 41
0.105834
 66
1
 10
0
 20
0
 30
0
  0
VERTEX
  8
LAYER_4
 10
187.495
 20
60.1042
  0
VERTEX
  8
LAYER_4
 10
187.495
 20
58.9039
  0
SEQEND
  0
POLYLINE
  8
LAYER_4
 40
0.105834
 41
0.105834
 66
1
 10
0
 20
0
 30
0
  0
VERTEX
  8
LAYER_4
 10
188.495
 20
58.5039
  0
VERTEX
  8
LAYER_4
 10
188.495
 20
58.104
  0
SEQEND
  0
POLYLINE
  8
LAYER_4
 40
0.105834
 41
0.105834
 66
1
 10
0
 20
0
 30
0
  0
VERTEX
  8
LAYER_4
 10
196.495
 20
58.5039
  0
VERTEX
  8
LAYER_4
 10
196.495
 20
58.104
  0
SEQEND
  0
POLYLINE
  8
LAYER_4
 40
0.105834
 41
0.105834
 66
1
 10
0
 20
0
 30
0
  0
VERTEX
  8
LAYER_4
 10
197.495
 20
60.1042
  0
VERTEX
  8
LAYER_4
 10
197.495
 20
58.9039
  0
SEQEND
  0
POLYLINE
  8
LAYER_4
 40
0.105834
 41
0.105834
 66
1
 10
0
 20
0
 30
0
  0
VERTEX
  8
LAYER_4
 10
204.679
 20
67.7041
  0
VERTEX
  8
LAYER_4
 10
204.676
 20
67.7076
  0
SEQEND
  0
POLYLINE
  8
LAYER_4
 40
0.105834
 41
0.105834
 66
1
 10
0
 20
0
 30
0
  0
VERTEX
  8
LAYER_4
 10
204.787
 20
67.7741
  0
VERTEX
  8
LAYER_4
 10
204.785
 20
67.7785
  0
SEQEND
  0
POLYLINE
  8
LAYER_4
 40
0.105834
 41
0.105834
 66
1
 10
0
 20
0
 30
0
  0
VERTEX
  8
LAYER_4
 10
204.785
 20
72.4295
  0
VERTEX
  8
LAYER_4
 10
204.786
 20
72.4253
  0
SEQEND
  0
POLYLINE
  8
LAYER_4
 40
0.105834
 41
0.105834
 66
1
 10
0
 20
0
 30
0
  0
VERTEX
  8
LAYER_4
 10
191.62
 20
72.5042
  0
VERTEX
  8
LAYER_4
 10
191.623
 20
72.5011
  0
SEQEND
  0
POLYLINE
  8
LAYER_4
 40
0.105834
 41
0.105834
 66
1
 10
0
 20
0
 30
0
  0
VERTEX
  8
LAYER_4
 10
191.514
 20
72.4312
  0
VERTEX
  8
LAYER_4
 10
191.511
 20
72.4343
  0
VERTEX
  8
LAYER_4
 10
191.515
 20
72.4305
  0
SEQEND
  0
POLYLINE
  8
LAYER_4
 40
0.105834
 41
0.105834
 66
1
 10
0
 20
0
 30
0
  0
VERTEX
  8
LAYER_4
 10
204.785
 20
67.7785
  0
VERTEX
  8
LAYER_4
 10
204.786
 20
67.7827
  0
SEQEND
  0
POLYLINE
  8
LAYER_4
 40
0.105834
 41
0.105834
 66
1
 10
0
 20
0
 30
0
  0
VERTEX
  8
LAYER_4
 10
204.785
 20
72.4295
  0
VERTEX
  8
LAYER_4
 10
204.787
 20
72.4339
  0
SEQEND
  0
POLYLINE
  8
LAYER_4
 40
0.105834
 41
0.105834
 66
1
 10
0
 20
0
 30
0
  0
VERTEX
  8
LAYER_4
 10
204.676
 20
72.5004
  0
VERTEX
  8
LAYER_4
 10
204.679
 20
72.5042
  0
SEQEND
  0
POLYLINE
  8
LAYER_4
 40
0.105834
 41
0.105834
 66
1
 10
0
 20
0
 30
0
  0
VERTEX
  8
LAYER_4
 10
339.145
 20
60.1042
  0
VERTEX
  8
LAYER_4
 10
339.215
 20
60.118
  0
SEQEND
  0
POLYLINE
  8
LAYER_4
 40
0.105834
 41
0.105834
 66
1
 10
0
 20
0
 30
0
  0
VERTEX
  8
LAYER_4
 10
191.039
 20
69.2134
  0
VERTEX
  8
LAYER_4
 10
191.069
 20
69.2041
  0
SEQEND
  0
POLYLINE
  8
LAYER_4
 40
0.105834
 41
0.105834
 66
1
 10
0
 20
0
 30
0
  0
VERTEX
  8
LAYER_4
 10
190.975
 20
70.4137
  0
VERTEX
  8
LAYER_4
 10
191.004
 20
70.4041
  0
SEQEND
  0
POLYLINE
  8
LAYER_4
 40
0.105834
 41
0.105834
 66
1
 10
0
 20
0
 30
0
  0
VERTEX
  8
LAYER_4
 10
191.367
 20
72.1039
  0
VERTEX
  8
LAYER_4
 10
191.347
 20
72.1111
  0
SEQEND
  0
POLYLINE
  8
LAYER_4
 40
0.105834
 41
0.105834
 66
1
 10
0
 20
0
 30
0
  0
VERTEX
  8
LAYER_4
 10
204.954
 20
72.5004
  0
VERTEX
  8
LAYER_4
 10
204.956
 20
72.5042
  0
SEQEND
  0
POLYLINE
  8
LAYER_4
 40
0.105834
 41
0.105834
 66
1
 10
0
 20
0
 30
0
  0
VERTEX
  8
LAYER_4
 10
191.515
 20
67.7775
  0
VERTEX
  8
LAYER_4
 10
191.511
 20
67.7737
  0
SEQEND
  0
POLYLINE
  8
LAYER_4
 40
0.105834
 41
0.105834
 66
1
 10
0
 20
0
 30
0
  0
VERTEX
  8
LAYER_4
 10
191.623
 20
67.7069
  0
VERTEX
  8
LAYER_4
 10
191.62
 20
67.7041
  0
SEQEND
  0
POLYLINE
  8
LAYER_4
 40
0.105834
 41
0.105834
 66
1
 10
0
 20
0
 30
0
  0
VERTEX
  8
LAYER_4
 10
282.425
 20
60.1042
  0
VERTEX
  8
LAYER_4
 10
282.495
 20
60.118
  0
SEQEND
  0
POLYLINE
  8
LAYER_4
 40
0.105834
 41
0.105834
 66
1
 10
0
 20
0
 30
0
  0
VERTEX
  8
LAYER_4
 10
279.625
 20
60.1042
  0
VERTEX
  8
LAYER_4
 10
279.695
 20
60.118
  0
SEQEND
  0
POLYLINE
  8
LAYER_4
 40
0.105834
 41
0.105834
 66
1
 10
0
 20
0
 30
0
  0
VERTEX
  8
LAYER_4
 10
350.895
 20
58.104
  0
VERTEX
  8
LAYER_4
 10
342.895
 20
58.104
  0
SEQEND
  0
POLYLINE
  8
LAYER_4
 40
0.105834
 41
0.105834
 66
1
 10
0
 20
0
 30
0
  0
VERTEX
  8
LAYER_4
 10
196.495
 20
58.104
  0
VERTEX
  8
LAYER_4
 10
188.495
 20
58.104
  0
SEQEND
  0
POLYLINE
  8
LAYER_4
 40
0.105834
 41
0.105834
 66
1
 10
0
 20
0
 30
0
  0
VERTEX
  8
LAYER_4
 10
351.495
 20
58.5039
  0
VERTEX
  8
LAYER_4
 10
342.295
 20
58.5039
  0
SEQEND
  0
POLYLINE
  8
LAYER_4
 40
0.105834
 41
0.105834
 66
1
 10
0
 20
0
 30
0
  0
VERTEX
  8
LAYER_4
 10
197.095
 20
58.5039
  0
VERTEX
  8
LAYER_4
 10
187.895
 20
58.5039
  0
SEQEND
  0
POLYLINE
  8
LAYER_4
 40
0.105834
 41
0.105834
 66
1
 10
0
 20
0
 30
0
  0
VERTEX
  8
LAYER_4
 10
351.895
 20
58.9039
  0
VERTEX
  8
LAYER_4
 10
341.895
 20
58.9039
  0
SEQEND
  0
POLYLINE
  8
LAYER_4
 40
0.105834
 41
0.105834
 66
1
 10
0
 20
0
 30
0
  0
VERTEX
  8
LAYER_4
 10
197.495
 20
58.9039
  0
VERTEX
  8
LAYER_4
 10
187.495
 20
58.9039
  0
SEQEND
  0
POLYLINE
  8
LAYER_4
 40
0.105834
 41
0.105834
 66
1
 10
0
 20
0
 30
0
  0
VERTEX
  8
LAYER_4
 10
185.375
 20
60.1042
  0
VERTEX
  8
LAYER_4
 10
353.898
 20
60.1042
  0
SEQEND
  0
POLYLINE
  8
LAYER_4
 40
0.105834
 41
0.105834
 66
1
 10
0
 20
0
 30
0
  0
VERTEX
  8
LAYER_4
 10
341.615
 20
60.118
  0
VERTEX
  8
LAYER_4
 10
339.215
 20
60.118
  0
SEQEND
  0
POLYLINE
  8
LAYER_4
 40
0.105834
 41
0.105834
 66
1
 10
0
 20
0
 30
0
  0
VERTEX
  8
LAYER_4
 10
286.495
 20
60.118
  0
VERTEX
  8
LAYER_4
 10
279.695
 20
60.118
  0
SEQEND
  0
POLYLINE
  8
LAYER_4
 40
0.105834
 41
0.105834
 66
1
 10
0
 20
0
 30
0
  0
VERTEX
  8
LAYER_4
 10
353.892
 20
60.2382
  0
VERTEX
  8
LAYER_4
 10
324.553
 20
60.2382
  0
SEQEND
  0
POLYLINE
  8
LAYER_4
 40
0.105834
 41
0.105834
 66
1
 10
0
 20
0
 30
0
  0
VERTEX
  8
LAYER_4
 10
353.892
 20
60.3698
  0
VERTEX
  8
LAYER_4
 10
185.007
 20
60.3698
  0
SEQEND
  0
POLYLINE
  8
LAYER_4
 40
0.105834
 41
0.105834
 66
1
 10
0
 20
0
 30
0
  0
VERTEX
  8
LAYER_4
 10
184.84
 20
62.9041
  0
VERTEX
  8
LAYER_4
 10
353.844
 20
62.9041
  0
SEQEND
  0
POLYLINE
  8
LAYER_4
 40
0.105834
 41
0.105834
 66
1
 10
0
 20
0
 30
0
  0
VERTEX
  8
LAYER_4
 10
347.974
 20
67.4261
  0
VERTEX
  8
LAYER_4
 10
334.619
 20
67.4261
  0
SEQEND
  0
POLYLINE
  8
LAYER_4
 40
0.105834
 41
0.105834
 66
1
 10
0
 20
0
 30
0
  0
VERTEX
  8
LAYER_4
 10
347.974
 20
67.506
  0
VERTEX
  8
LAYER_4
 10
334.619
 20
67.506
  0
SEQEND
  0
POLYLINE
  8
LAYER_4
 40
0.105834
 41
0.105834
 66
1
 10
0
 20
0
 30
0
  0
VERTEX
  8
LAYER_4
 10
347.962
 20
67.525
  0
VERTEX
  8
LAYER_4
 10
347.313
 20
67.525
 42
0.0117
  0
VERTEX
  8
LAYER_4
 10
343.803
 20
67.5339
 42
0.0002
  0
VERTEX
  8
LAYER_4
 10
340.301
 20
67.5353
  0
SEQEND
  0
POLYLINE
  8
LAYER_4
 40
0.105834
 41
0.105834
 66
1
 10
0
 20
0
 30
0
  0
VERTEX
  8
LAYER_4
 10
336.255
 20
67.5439
  0
VERTEX
  8
LAYER_4
 10
337.395
 20
67.5439
  0
SEQEND
  0
POLYLINE
  8
LAYER_4
 40
0.105834
 41
0.105834
 66
1
 10
0
 20
0
 30
0
  0
VERTEX
  8
LAYER_4
 10
339.195
 20
67.5439
  0
VERTEX
  8
LAYER_4
 10
340.295
 20
67.5439
  0
SEQEND
  0
POLYLINE
  8
LAYER_4
 40
0.105834
 41
0.105834
 66
1
 10
0
 20
0
 30
0
  0
VERTEX
  8
LAYER_4
 10
336.021
 20
67.6611
  0
VERTEX
  8
LAYER_4
 10
334.889
 20
67.6611
  0
SEQEND
  0
POLYLINE
  8
LAYER_4
 40
0.105834
 41
0.105834
 66
1
 10
0
 20
0
 30
0
  0
VERTEX
  8
LAYER_4
 10
347.878
 20
67.7041
  0
VERTEX
  8
LAYER_4
 10
339.05
 20
67.7041
  0
SEQEND
  0
POLYLINE
  8
LAYER_4
 40
0.105834
 41
0.105834
 66
1
 10
0
 20
0
 30
0
  0
VERTEX
  8
LAYER_4
 10
337.54
 20
67.7041
  0
VERTEX
  8
LAYER_4
 10
334.82
 20
67.7041
  0
SEQEND
  0
POLYLINE
  8
LAYER_4
 40
0.105834
 41
0.105834
 66
1
 10
0
 20
0
 30
0
  0
VERTEX
  8
LAYER_4
 10
204.956
 20
67.7041
  0
VERTEX
  8
LAYER_4
 10
194.42
 20
67.7041
  0
SEQEND
  0
POLYLINE
  8
LAYER_4
 40
0.105834
 41
0.105834
 66
1
 10
0
 20
0
 30
0
  0
VERTEX
  8
LAYER_4
 10
194.34
 20
67.7041
  0
VERTEX
  8
LAYER_4
 10
191.62
 20
67.7041
  0
SEQEND
  0
POLYLINE
  8
LAYER_4
 40
0.105834
 41
0.105834
 66
1
 10
0
 20
0
 30
0
  0
VERTEX
  8
LAYER_4
 10
191.903
 20
67.7265
  0
VERTEX
  8
LAYER_4
 10
205.004
 20
67.7265
  0
SEQEND
  0
POLYLINE
  8
LAYER_4
 40
0.105834
 41
0.105834
 66
1
 10
0
 20
0
 30
0
  0
VERTEX
  8
LAYER_4
 10
335.102
 20
67.7265
  0
VERTEX
  8
LAYER_4
 10
347.564
 20
67.7265
  0
SEQEND
  0
POLYLINE
  8
LAYER_4
 40
0.105834
 41
0.105834
 66
1
 10
0
 20
0
 30
0
  0
VERTEX
  8
LAYER_4
 10
191.524
 20
67.7441
  0
VERTEX
  8
LAYER_4
 10
191.53
 20
67.7441
  0
SEQEND
  0
POLYLINE
  8
LAYER_4
 40
0.105834
 41
0.105834
 66
1
 10
0
 20
0
 30
0
  0
VERTEX
  8
LAYER_4
 10
334.724
 20
67.7441
  0
VERTEX
  8
LAYER_4
 10
334.73
 20
67.7441
  0
SEQEND
  0
POLYLINE
  8
LAYER_4
 40
0.105834
 41
0.105834
 66
1
 10
0
 20
0
 30
0
  0
VERTEX
  8
LAYER_4
 10
334.375
 20
68.7039
  0
VERTEX
  8
LAYER_4
 10
334.368
 20
68.7039
  0
SEQEND
  0
POLYLINE
  8
LAYER_4
 40
0.105834
 41
0.105834
 66
1
 10
0
 20
0
 30
0
  0
VERTEX
  8
LAYER_4
 10
334.338
 20
68.8241
  0
VERTEX
  8
LAYER_4
 10
334.345
 20
68.8241
  0
SEQEND
  0
POLYLINE
  8
LAYER_4
 40
0.105834
 41
0.105834
 66
1
 10
0
 20
0
 30
0
  0
VERTEX
  8
LAYER_4
 10
283.765
 20
60.1042
  0
VERTEX
  8
LAYER_4
 10
283.695
 20
60.118
  0
SEQEND
  0
POLYLINE
  8
LAYER_4
 40
0.105834
 41
0.105834
 66
1
 10
0
 20
0
 30
0
  0
VERTEX
  8
LAYER_4
 10
286.565
 20
60.1042
  0
VERTEX
  8
LAYER_4
 10
286.495
 20
60.118
  0
SEQEND
  0
POLYLINE
  8
LAYER_4
 40
0.105834
 41
0.105834
 66
1
 10
0
 20
0
 30
0
  0
VERTEX
  8
LAYER_4
 10
334.105
 20
69.7939
  0
VERTEX
  8
LAYER_4
 10
334.175
 20
69.7943
  0
SEQEND
  0
POLYLINE
  8
LAYER_4
 40
0.105834
 41
0.105834
 66
1
 10
0
 20
0
 30
0
  0
VERTEX
  8
LAYER_4
 10
334.105
 20
70.9939
  0
VERTEX
  8
LAYER_4
 10
334.239
 20
70.9946
  0
SEQEND
  0
POLYLINE
  8
LAYER_4
 40
0.105834
 41
0.105834
 66
1
 10
0
 20
0
 30
0
  0
VERTEX
  8
LAYER_4
 10
289.055
 20
69.5442
  0
VERTEX
  8
LAYER_4
 10
287.935
 20
69.5442
  0
SEQEND
  0
POLYLINE
  8
LAYER_4
 40
0.105834
 41
0.105834
 66
1
 10
0
 20
0
 30
0
  0
VERTEX
  8
LAYER_4
 10
283.055
 20
69.5442
  0
VERTEX
  8
LAYER_4
 10
281.935
 20
69.5442
  0
SEQEND
  0
POLYLINE
  8
LAYER_4
 40
0.105834
 41
0.105834
 66
1
 10
0
 20
0
 30
0
  0
VERTEX
  8
LAYER_4
 10
277.055
 20
69.5442
  0
VERTEX
  8
LAYER_4
 10
275.935
 20
69.5442
  0
SEQEND
  0
POLYLINE
  8
LAYER_4
 40
0.105834
 41
0.105834
 66
1
 10
0
 20
0
 30
0
  0
VERTEX
  8
LAYER_4
 10
271.055
 20
69.5442
  0
VERTEX
  8
LAYER_4
 10
269.935
 20
69.5442
  0
SEQEND
  0
POLYLINE
  8
LAYER_4
 40
0.105834
 41
0.105834
 66
1
 10
0
 20
0
 30
0
  0
VERTEX
  8
LAYER_4
 10
261.755
 20
69.5442
  0
VERTEX
  8
LAYER_4
 10
259.235
 20
69.5442
  0
SEQEND
  0
POLYLINE
  8
LAYER_4
 40
0.105834
 41
0.105834
 66
1
 10
0
 20
0
 30
0
  0
VERTEX
  8
LAYER_4
 10
288.993
 20
69.6065
  0
VERTEX
  8
LAYER_4
 10
287.998
 20
69.6065
  0
SEQEND
  0
POLYLINE
  8
LAYER_4
 40
0.105834
 41
0.105834
 66
1
 10
0
 20
0
 30
0
  0
VERTEX
  8
LAYER_4
 10
282.993
 20
69.6065
  0
VERTEX
  8
LAYER_4
 10
281.998
 20
69.6065
  0
SEQEND
  0
POLYLINE
  8
LAYER_4
 40
0.105834
 41
0.105834
 66
1
 10
0
 20
0
 30
0
  0
VERTEX
  8
LAYER_4
 10
276.993
 20
69.6065
  0
VERTEX
  8
LAYER_4
 10
275.998
 20
69.6065
  0
SEQEND
  0
POLYLINE
  8
LAYER_4
 40
0.105834
 41
0.105834
 66
1
 10
0
 20
0
 30
0
  0
VERTEX
  8
LAYER_4
 10
270.993
 20
69.6065
  0
VERTEX
  8
LAYER_4
 10
269.998
 20
69.6065
  0
SEQEND
  0
POLYLINE
  8
LAYER_4
 40
0.105834
 41
0.105834
 66
1
 10
0
 20
0
 30
0
  0
VERTEX
  8
LAYER_4
 10
261.693
 20
69.6065
  0
VERTEX
  8
LAYER_4
 10
259.298
 20
69.6065
  0
SEQEND
  0
POLYLINE
  8
LAYER_4
 40
0.105834
 41
0.105834
 66
1
 10
0
 20
0
 30
0
  0
VERTEX
  8
LAYER_4
 10
288.99
 20
69.6337
  0
VERTEX
  8
LAYER_4
 10
288.001
 20
69.6337
  0
SEQEND
  0
POLYLINE
  8
LAYER_4
 40
0.105834
 41
0.105834
 66
1
 10
0
 20
0
 30
0
  0
VERTEX
  8
LAYER_4
 10
282.99
 20
69.6337
  0
VERTEX
  8
LAYER_4
 10
282.001
 20
69.6337
  0
SEQEND
  0
POLYLINE
  8
LAYER_4
 40
0.105834
 41
0.105834
 66
1
 10
0
 20
0
 30
0
  0
VERTEX
  8
LAYER_4
 10
276.99
 20
69.6337
  0
VERTEX
  8
LAYER_4
 10
276.001
 20
69.6337
  0
SEQEND
  0
POLYLINE
  8
LAYER_4
 40
0.105834
 41
0.105834
 66
1
 10
0
 20
0
 30
0
  0
VERTEX
  8
LAYER_4
 10
270.99
 20
69.6337
  0
VERTEX
  8
LAYER_4
 10
270.001
 20
69.6337
  0
SEQEND
  0
POLYLINE
  8
LAYER_4
 40
0.105834
 41
0.105834
 66
1
 10
0
 20
0
 30
0
  0
VERTEX
  8
LAYER_4
 10
261.69
 20
69.6337
  0
VERTEX
  8
LAYER_4
 10
259.301
 20
69.6337
  0
SEQEND
  0
POLYLINE
  8
LAYER_4
 40
0.105834
 41
0.105834
 66
1
 10
0
 20
0
 30
0
  0
VERTEX
  8
LAYER_4
 10
288.99
 20
70.5743
  0
VERTEX
  8
LAYER_4
 10
288.001
 20
70.5743
  0
SEQEND
  0
POLYLINE
  8
LAYER_4
 40
0.105834
 41
0.105834
 66
1
 10
0
 20
0
 30
0
  0
VERTEX
  8
LAYER_4
 10
282.99
 20
70.5743
  0
VERTEX
  8
LAYER_4
 10
282.001
 20
70.5743
  0
SEQEND
  0
POLYLINE
  8
LAYER_4
 40
0.105834
 41
0.105834
 66
1
 10
0
 20
0
 30
0
  0
VERTEX
  8
LAYER_4
 10
276.99
 20
70.5743
  0
VERTEX
  8
LAYER_4
 10
276.001
 20
70.5743
  0
SEQEND
  0
POLYLINE
  8
LAYER_4
 40
0.105834
 41
0.105834
 66
1
 10
0
 20
0
 30
0
  0
VERTEX
  8
LAYER_4
 10
270.99
 20
70.5743
  0
VERTEX
  8
LAYER_4
 10
270.001
 20
70.5743
  0
SEQEND
  0
POLYLINE
  8
LAYER_4
 40
0.105834
 41
0.105834
 66
1
 10
0
 20
0
 30
0
  0
VERTEX
  8
LAYER_4
 10
261.69
 20
70.5743
  0
VERTEX
  8
LAYER_4
 10
259.301
 20
70.5743
  0
SEQEND
  0
POLYLINE
  8
LAYER_4
 40
0.105834
 41
0.105834
 66
1
 10
0
 20
0
 30
0
  0
VERTEX
  8
LAYER_4
 10
288.993
 20
70.6015
  0
VERTEX
  8
LAYER_4
 10
287.998
 20
70.6015
  0
SEQEND
  0
POLYLINE
  8
LAYER_4
 40
0.105834
 41
0.105834
 66
1
 10
0
 20
0
 30
0
  0
VERTEX
  8
LAYER_4
 10
282.993
 20
70.6015
  0
VERTEX
  8
LAYER_4
 10
281.998
 20
70.6015
  0
SEQEND
  0
POLYLINE
  8
LAYER_4
 40
0.105834
 41
0.105834
 66
1
 10
0
 20
0
 30
0
  0
VERTEX
  8
LAYER_4
 10
276.993
 20
70.6015
  0
VERTEX
  8
LAYER_4
 10
275.998
 20
70.6015
  0
SEQEND
  0
POLYLINE
  8
LAYER_4
 40
0.105834
 41
0.105834
 66
1
 10
0
 20
0
 30
0
  0
VERTEX
  8
LAYER_4
 10
270.993
 20
70.6015
  0
VERTEX
  8
LAYER_4
 10
269.998
 20
70.6015
  0
SEQEND
  0
POLYLINE
  8
LAYER_4
 40
0.105834
 41
0.105834
 66
1
 10
0
 20
0
 30
0
  0
VERTEX
  8
LAYER_4
 10
261.693
 20
70.6015
  0
VERTEX
  8
LAYER_4
 10
259.298
 20
70.6015
  0
SEQEND
  0
POLYLINE
  8
LAYER_4
 40
0.105834
 41
0.105834
 66
1
 10
0
 20
0
 30
0
  0
VERTEX
  8
LAYER_4
 10
259.235
 20
70.6642
  0
VERTEX
  8
LAYER_4
 10
261.755
 20
70.6642
  0
SEQEND
  0
POLYLINE
  8
LAYER_4
 40
0.105834
 41
0.105834
 66
1
 10
0
 20
0
 30
0
  0
VERTEX
  8
LAYER_4
 10
269.935
 20
70.6642
  0
VERTEX
  8
LAYER_4
 10
271.055
 20
70.6642
  0
SEQEND
  0
POLYLINE
  8
LAYER_4
 40
0.105834
 41
0.105834
 66
1
 10
0
 20
0
 30
0
  0
VERTEX
  8
LAYER_4
 10
275.935
 20
70.6642
  0
VERTEX
  8
LAYER_4
 10
277.055
 20
70.6642
  0
SEQEND
  0
POLYLINE
  8
LAYER_4
 40
0.105834
 41
0.105834
 66
1
 10
0
 20
0
 30
0
  0
VERTEX
  8
LAYER_4
 10
281.935
 20
70.6642
  0
VERTEX
  8
LAYER_4
 10
283.055
 20
70.6642
  0
SEQEND
  0
POLYLINE
  8
LAYER_4
 40
0.105834
 41
0.105834
 66
1
 10
0
 20
0
 30
0
  0
VERTEX
  8
LAYER_4
 10
287.935
 20
70.6642
  0
VERTEX
  8
LAYER_4
 10
289.055
 20
70.6642
  0
SEQEND
  0
POLYLINE
  8
LAYER_4
 40
0.105834
 41
0.105834
 66
1
 10
0
 20
0
 30
0
  0
VERTEX
  8
LAYER_4
 10
334.345
 20
71.3842
  0
VERTEX
  8
LAYER_4
 10
334.338
 20
71.3842
  0
SEQEND
  0
POLYLINE
  8
LAYER_4
 40
0.105834
 41
0.105834
 66
1
 10
0
 20
0
 30
0
  0
VERTEX
  8
LAYER_4
 10
334.368
 20
71.5041
  0
VERTEX
  8
LAYER_4
 10
334.375
 20
71.5041
  0
SEQEND
  0
POLYLINE
  8
LAYER_4
 40
0.105834
 41
0.105834
 66
1
 10
0
 20
0
 30
0
  0
VERTEX
  8
LAYER_4
 10
334.73
 20
72.4639
  0
VERTEX
  8
LAYER_4
 10
334.724
 20
72.4639
  0
SEQEND
  0
POLYLINE
  8
LAYER_4
 40
0.105834
 41
0.105834
 66
1
 10
0
 20
0
 30
0
  0
VERTEX
  8
LAYER_4
 10
191.53
 20
72.4639
  0
VERTEX
  8
LAYER_4
 10
191.524
 20
72.4639
  0
SEQEND
  0
POLYLINE
  8
LAYER_4
 40
0.105834
 41
0.105834
 66
1
 10
0
 20
0
 30
0
  0
VERTEX
  8
LAYER_4
 10
191.903
 20
72.4818
  0
VERTEX
  8
LAYER_4
 10
204.981
 20
72.4818
  0
SEQEND
  0
POLYLINE
  8
LAYER_4
 40
0.105834
 41
0.105834
 66
1
 10
0
 20
0
 30
0
  0
VERTEX
  8
LAYER_4
 10
335.102
 20
72.4818
  0
VERTEX
  8
LAYER_4
 10
347.564
 20
72.4818
  0
SEQEND
  0
POLYLINE
  8
LAYER_4
 40
0.105834
 41
0.105834
 66
1
 10
0
 20
0
 30
0
  0
VERTEX
  8
LAYER_4
 10
347.878
 20
72.5042
  0
VERTEX
  8
LAYER_4
 10
338.895
 20
72.5042
  0
SEQEND
  0
POLYLINE
  8
LAYER_4
 40
0.105834
 41
0.105834
 66
1
 10
0
 20
0
 30
0
  0
VERTEX
  8
LAYER_4
 10
337.695
 20
72.5042
  0
VERTEX
  8
LAYER_4
 10
334.82
 20
72.5042
  0
SEQEND
  0
POLYLINE
  8
LAYER_4
 40
0.105834
 41
0.105834
 66
1
 10
0
 20
0
 30
0
  0
VERTEX
  8
LAYER_4
 10
204.956
 20
72.5042
  0
VERTEX
  8
LAYER_4
 10
191.62
 20
72.5042
  0
SEQEND
  0
POLYLINE
  8
LAYER_4
 40
0.105834
 41
0.105834
 66
1
 10
0
 20
0
 30
0
  0
VERTEX
  8
LAYER_4
 10
334.889
 20
72.5469
  0
VERTEX
  8
LAYER_4
 10
336.021
 20
72.5469
  0
SEQEND
  0
POLYLINE
  8
LAYER_4
 40
0.105834
 41
0.105834
 66
1
 10
0
 20
0
 30
0
  0
VERTEX
  8
LAYER_4
 10
336.255
 20
72.6644
  0
VERTEX
  8
LAYER_4
 10
337.395
 20
72.6644
  0
SEQEND
  0
POLYLINE
  8
LAYER_4
 40
0.105834
 41
0.105834
 66
1
 10
0
 20
0
 30
0
  0
VERTEX
  8
LAYER_4
 10
347.962
 20
72.683
  0
VERTEX
  8
LAYER_4
 10
347.313
 20
72.683
 42
-0.0117
  0
VERTEX
  8
LAYER_4
 10
343.803
 20
72.6699
 42
-0.0003
  0
VERTEX
  8
LAYER_4
 10
340.295
 20
72.6644
  0
VERTEX
  8
LAYER_4
 10
339.195
 20
72.6644
  0
SEQEND
  0
POLYLINE
  8
LAYER_4
 40
0.105834
 41
0.105834
 66
1
 10
0
 20
0
 30
0
  0
VERTEX
  8
LAYER_4
 10
334.619
 20
72.702
  0
VERTEX
  8
LAYER_4
 10
347.974
 20
72.702
  0
SEQEND
  0
POLYLINE
  8
LAYER_4
 40
0.105834
 41
0.105834
 66
1
 10
0
 20
0
 30
0
  0
VERTEX
  8
LAYER_4
 10
334.619
 20
72.7819
  0
VERTEX
  8
LAYER_4
 10
347.974
 20
72.7819
  0
SEQEND
  0
POLYLINE
  8
LAYER_4
 40
0.105834
 41
0.105834
 66
1
 10
0
 20
0
 30
0
  0
VERTEX
  8
LAYER_4
 10
334.239
 20
69.2134
  0
VERTEX
  8
LAYER_4
 10
334.105
 20
69.2141
  0
SEQEND
  0
POLYLINE
  8
LAYER_4
 40
0.105834
 41
0.105834
 66
1
 10
0
 20
0
 30
0
  0
VERTEX
  8
LAYER_4
 10
334.175
 20
70.4137
  0
VERTEX
  8
LAYER_4
 10
334.105
 20
70.4144
  0
SEQEND
  0
POLYLINE
  8
LAYER_4
 40
0.105834
 41
0.105834
 66
1
 10
0
 20
0
 30
0
  0
VERTEX
  8
LAYER_4
 10
341.685
 20
60.1042
  0
VERTEX
  8
LAYER_4
 10
341.615
 20
60.118
  0
SEQEND
  0
POLYLINE
  8
LAYER_4
 40
0.105834
 41
0.105834
 66
1
 10
0
 20
0
 30
0
  0
VERTEX
  8
LAYER_4
 10
259.235
 20
70.6642
  0
VERTEX
  8
LAYER_4
 10
259.298
 20
70.6015
  0
SEQEND
  0
POLYLINE
  8
LAYER_4
 40
0.105834
 41
0.105834
 66
1
 10
0
 20
0
 30
0
  0
VERTEX
  8
LAYER_4
 10
261.755
 20
69.5442
  0
VERTEX
  8
LAYER_4
 10
261.693
 20
69.6065
  0
SEQEND
  0
POLYLINE
  8
LAYER_4
 40
0.105834
 41
0.105834
 66
1
 10
0
 20
0
 30
0
  0
VERTEX
  8
LAYER_4
 10
354.044
 20
77.0738
  0
VERTEX
  8
LAYER_4
 10
324.495
 20
77.0738
  0
SEQEND
  0
POLYLINE
  8
LAYER_4
 40
0.105834
 41
0.105834
 66
1
 10
0
 20
0
 30
0
  0
VERTEX
  8
LAYER_4
 10
353.845
 20
77.274
  0
VERTEX
  8
LAYER_4
 10
324.506
 20
77.274
  0
SEQEND
  0
POLYLINE
  8
LAYER_4
 40
0.105834
 41
0.105834
 66
1
 10
0
 20
0
 30
0
  0
VERTEX
  8
LAYER_4
 10
354.096
 20
77.4242
  0
VERTEX
  8
LAYER_4
 10
184.848
 20
77.4242
  0
SEQEND
  0
POLYLINE
  8
LAYER_4
 40
0.105834
 41
0.105834
 66
1
 10
0
 20
0
 30
0
  0
VERTEX
  8
LAYER_4
 10
324.957
 20
60.1042
  0
VERTEX
  8
LAYER_4
 10
324.553
 20
60.2382
  0
SEQEND
  0
POLYLINE
  8
LAYER_4
 40
0.105834
 41
0.105834
 66
1
 10
0
 20
0
 30
0
  0
VERTEX
  8
LAYER_4
 10
271.055
 20
69.5442
  0
VERTEX
  8
LAYER_4
 10
270.993
 20
69.6065
  0
SEQEND
  0
POLYLINE
  8
LAYER_4
 40
0.105834
 41
0.105834
 66
1
 10
0
 20
0
 30
0
  0
VERTEX
  8
LAYER_4
 10
269.935
 20
70.6642
  0
VERTEX
  8
LAYER_4
 10
269.998
 20
70.6015
  0
SEQEND
  0
POLYLINE
  8
LAYER_4
 40
0.105834
 41
0.105834
 66
1
 10
0
 20
0
 30
0
  0
VERTEX
  8
LAYER_4
 10
259.235
 20
69.5442
  0
VERTEX
  8
LAYER_4
 10
259.235
 20
70.6642
  0
SEQEND
  0
POLYLINE
  8
LAYER_4
 40
0.105834
 41
0.105834
 66
1
 10
0
 20
0
 30
0
  0
VERTEX
  8
LAYER_4
 10
261.755
 20
70.6642
  0
VERTEX
  8
LAYER_4
 10
261.755
 20
69.5442
  0
SEQEND
  0
POLYLINE
  8
LAYER_4
 40
0.105834
 41
0.105834
 66
1
 10
0
 20
0
 30
0
  0
VERTEX
  8
LAYER_4
 10
277.055
 20
69.5442
  0
VERTEX
  8
LAYER_4
 10
276.993
 20
69.6065
  0
SEQEND
  0
POLYLINE
  8
LAYER_4
 40
0.105834
 41
0.105834
 66
1
 10
0
 20
0
 30
0
  0
VERTEX
  8
LAYER_4
 10
275.935
 20
70.6642
  0
VERTEX
  8
LAYER_4
 10
275.998
 20
70.6015
  0
SEQEND
  0
POLYLINE
  8
LAYER_4
 40
0.105834
 41
0.105834
 66
1
 10
0
 20
0
 30
0
  0
VERTEX
  8
LAYER_4
 10
283.055
 20
69.5442
  0
VERTEX
  8
LAYER_4
 10
282.993
 20
69.6065
  0
SEQEND
  0
POLYLINE
  8
LAYER_4
 40
0.105834
 41
0.105834
 66
1
 10
0
 20
0
 30
0
  0
VERTEX
  8
LAYER_4
 10
281.935
 20
70.6642
  0
VERTEX
  8
LAYER_4
 10
281.998
 20
70.6015
  0
SEQEND
  0
POLYLINE
  8
LAYER_4
 40
0.105834
 41
0.105834
 66
1
 10
0
 20
0
 30
0
  0
VERTEX
  8
LAYER_4
 10
269.935
 20
69.5442
  0
VERTEX
  8
LAYER_4
 10
269.935
 20
70.6642
  0
SEQEND
  0
POLYLINE
  8
LAYER_4
 40
0.105834
 41
0.105834
 66
1
 10
0
 20
0
 30
0
  0
VERTEX
  8
LAYER_4
 10
191.367
 20
68.1041
  0
VERTEX
  8
LAYER_4
 10
191.347
 20
68.0972
  0
SEQEND
  0
POLYLINE
  8
LAYER_4
 40
0.105834
 41
0.105834
 66
1
 10
0
 20
0
 30
0
  0
VERTEX
  8
LAYER_4
 10
190.975
 20
69.7943
  0
VERTEX
  8
LAYER_4
 10
191.004
 20
69.8039
  0
SEQEND
  0
POLYLINE
  8
LAYER_4
 40
0.105834
 41
0.105834
 66
1
 10
0
 20
0
 30
0
  0
VERTEX
  8
LAYER_4
 10
191.039
 20
70.9946
  0
VERTEX
  8
LAYER_4
 10
191.069
 20
71.0042
  0
SEQEND
  0
POLYLINE
  8
LAYER_4
 40
0.105834
 41
0.105834
 66
1
 10
0
 20
0
 30
0
  0
VERTEX
  8
LAYER_4
 10
334.239
 20
69.2134
  0
VERTEX
  8
LAYER_4
 10
334.269
 20
69.2041
  0
SEQEND
  0
POLYLINE
  8
LAYER_4
 40
0.105834
 41
0.105834
 66
1
 10
0
 20
0
 30
0
  0
VERTEX
  8
LAYER_4
 10
334.175
 20
70.4137
  0
VERTEX
  8
LAYER_4
 10
334.204
 20
70.4041
  0
SEQEND
  0
POLYLINE
  8
LAYER_4
 40
0.105834
 41
0.105834
 66
1
 10
0
 20
0
 30
0
  0
VERTEX
  8
LAYER_4
 10
289.055
 20
69.5442
  0
VERTEX
  8
LAYER_4
 10
288.993
 20
69.6065
  0
SEQEND
  0
POLYLINE
  8
LAYER_4
 40
0.105834
 41
0.105834
 66
1
 10
0
 20
0
 30
0
  0
VERTEX
  8
LAYER_4
 10
287.935
 20
70.6642
  0
VERTEX
  8
LAYER_4
 10
287.998
 20
70.6015
  0
SEQEND
  0
POLYLINE
  8
LAYER_4
 40
0.105834
 41
0.105834
 66
1
 10
0
 20
0
 30
0
  0
VERTEX
  8
LAYER_4
 10
271.055
 20
70.6642
  0
VERTEX
  8
LAYER_4
 10
271.055
 20
69.5442
  0
SEQEND
  0
POLYLINE
  8
LAYER_4
 40
0.105834
 41
0.105834
 66
1
 10
0
 20
0
 30
0
  0
VERTEX
  8
LAYER_4
 10
275.935
 20
69.5442
  0
VERTEX
  8
LAYER_4
 10
275.935
 20
70.6642
  0
SEQEND
  0
POLYLINE
  8
LAYER_4
 40
0.105834
 41
0.105834
 66
1
 10
0
 20
0
 30
0
  0
VERTEX
  8
LAYER_4
 10
334.567
 20
72.1039
  0
VERTEX
  8
LAYER_4
 10
334.547
 20
72.1111
  0
SEQEND
  0
POLYLINE
  8
LAYER_4
 40
0.105834
 41
0.105834
 66
1
 10
0
 20
0
 30
0
  0
VERTEX
  8
LAYER_4
 10
277.055
 20
70.6642
  0
VERTEX
  8
LAYER_4
 10
277.055
 20
69.5442
  0
SEQEND
  0
POLYLINE
  8
LAYER_4
 40
0.105834
 41
0.105834
 66
1
 10
0
 20
0
 30
0
  0
VERTEX
  8
LAYER_4
 10
281.935
 20
69.5442
  0
VERTEX
  8
LAYER_4
 10
281.935
 20
70.6642
  0
SEQEND
  0
POLYLINE
  8
LAYER_4
 40
0.105834
 41
0.105834
 66
1
 10
0
 20
0
 30
0
  0
VERTEX
  8
LAYER_4
 10
259.298
 20
69.6065
  0
VERTEX
  8
LAYER_4
 10
259.235
 20
69.5442
  0
SEQEND
  0
POLYLINE
  8
LAYER_4
 40
0.105834
 41
0.105834
 66
1
 10
0
 20
0
 30
0
  0
VERTEX
  8
LAYER_4
 10
261.693
 20
70.6015
  0
VERTEX
  8
LAYER_4
 10
261.755
 20
70.6642
  0
SEQEND
  0
POLYLINE
  8
LAYER_4
 40
0.105834
 41
0.105834
 66
1
 10
0
 20
0
 30
0
  0
VERTEX
  8
LAYER_4
 10
348.229
 20
67.5901
  0
VERTEX
  8
LAYER_4
 10
348.156
 20
67.6232
  0
SEQEND
  0
POLYLINE
  8
LAYER_4
 40
0.105834
 41
0.105834
 66
1
 10
0
 20
0
 30
0
  0
VERTEX
  8
LAYER_4
 10
334.364
 20
72.6179
  0
VERTEX
  8
LAYER_4
 10
334.436
 20
72.5848
  0
SEQEND
  0
POLYLINE
  8
LAYER_4
 40
0.105834
 41
0.105834
 66
1
 10
0
 20
0
 30
0
  0
VERTEX
  8
LAYER_4
 10
336.021
 20
67.6611
  0
VERTEX
  8
LAYER_4
 10
336.255
 20
67.5439
  0
SEQEND
  0
POLYLINE
  8
LAYER_4
 40
0.105834
 41
0.105834
 66
1
 10
0
 20
0
 30
0
  0
VERTEX
  8
LAYER_4
 10
283.055
 20
70.6642
  0
VERTEX
  8
LAYER_4
 10
283.055
 20
69.5442
  0
SEQEND
  0
POLYLINE
  8
LAYER_4
 40
0.105834
 41
0.105834
 66
1
 10
0
 20
0
 30
0
  0
VERTEX
  8
LAYER_4
 10
287.935
 20
69.5442
  0
VERTEX
  8
LAYER_4
 10
287.935
 20
70.6642
  0
SEQEND
  0
POLYLINE
  8
LAYER_4
 40
0.105834
 41
0.105834
 66
1
 10
0
 20
0
 30
0
  0
VERTEX
  8
LAYER_4
 10
269.998
 20
69.6065
  0
VERTEX
  8
LAYER_4
 10
269.935
 20
69.5442
  0
SEQEND
  0
POLYLINE
  8
LAYER_4
 40
0.105834
 41
0.105834
 66
1
 10
0
 20
0
 30
0
  0
VERTEX
  8
LAYER_4
 10
270.993
 20
70.6015
  0
VERTEX
  8
LAYER_4
 10
271.055
 20
70.6642
  0
SEQEND
  0
POLYLINE
  8
LAYER_4
 40
0.105834
 41
0.105834
 66
1
 10
0
 20
0
 30
0
  0
VERTEX
  8
LAYER_4
 10
289.055
 20
70.6642
  0
VERTEX
  8
LAYER_4
 10
289.055
 20
69.5442
  0
SEQEND
  0
POLYLINE
  8
LAYER_4
 40
0.105834
 41
0.105834
 66
1
 10
0
 20
0
 30
0
  0
VERTEX
  8
LAYER_4
 10
275.998
 20
69.6065
  0
VERTEX
  8
LAYER_4
 10
275.935
 20
69.5442
  0
SEQEND
  0
POLYLINE
  8
LAYER_4
 40
0.105834
 41
0.105834
 66
1
 10
0
 20
0
 30
0
  0
VERTEX
  8
LAYER_4
 10
276.993
 20
70.6015
  0
VERTEX
  8
LAYER_4
 10
277.055
 20
70.6642
  0
SEQEND
  0
POLYLINE
  8
LAYER_4
 40
0.105834
 41
0.105834
 66
1
 10
0
 20
0
 30
0
  0
VERTEX
  8
LAYER_4
 10
281.998
 20
69.6065
  0
VERTEX
  8
LAYER_4
 10
281.935
 20
69.5442
  0
SEQEND
  0
POLYLINE
  8
LAYER_4
 40
0.105834
 41
0.105834
 66
1
 10
0
 20
0
 30
0
  0
VERTEX
  8
LAYER_4
 10
282.993
 20
70.6015
  0
VERTEX
  8
LAYER_4
 10
283.055
 20
70.6642
  0
SEQEND
  0
POLYLINE
  8
LAYER_4
 40
0.105834
 41
0.105834
 66
1
 10
0
 20
0
 30
0
  0
VERTEX
  8
LAYER_4
 10
287.998
 20
69.6065
  0
VERTEX
  8
LAYER_4
 10
287.935
 20
69.5442
  0
SEQEND
  0
POLYLINE
  8
LAYER_4
 40
0.105834
 41
0.105834
 66
1
 10
0
 20
0
 30
0
  0
VERTEX
  8
LAYER_4
 10
288.993
 20
70.6015
  0
VERTEX
  8
LAYER_4
 10
289.055
 20
70.6642
  0
SEQEND
  0
POLYLINE
  8
LAYER_4
 40
0.105834
 41
0.105834
 66
1
 10
0
 20
0
 30
0
  0
VERTEX
  8
LAYER_4
 10
334.82
 20
72.5042
  0
VERTEX
  8
LAYER_4
 10
334.823
 20
72.5011
  0
SEQEND
  0
POLYLINE
  8
LAYER_4
 40
0.105834
 41
0.105834
 66
1
 10
0
 20
0
 30
0
  0
VERTEX
  8
LAYER_4
 10
334.715
 20
72.4305
  0
VERTEX
  8
LAYER_4
 10
334.714
 20
72.4312
  0
SEQEND
  0
POLYLINE
  8
LAYER_4
 40
0.105834
 41
0.105834
 66
1
 10
0
 20
0
 30
0
  0
VERTEX
  8
LAYER_4
 10
324.957
 20
77.4242
  0
VERTEX
  8
LAYER_4
 10
324.506
 20
77.274
  0
SEQEND
  0
POLYLINE
  8
LAYER_4
 40
0.105834
 41
0.105834
 66
1
 10
0
 20
0
 30
0
  0
VERTEX
  8
LAYER_4
 10
347.302
 20
67.5353
  0
VERTEX
  8
LAYER_4
 10
347.313
 20
67.525
  0
SEQEND
  0
POLYLINE
  8
LAYER_4
 40
0.105834
 41
0.105834
 66
1
 10
0
 20
0
 30
0
  0
VERTEX
  8
LAYER_4
 10
334.175
 20
69.7943
  0
VERTEX
  8
LAYER_4
 10
334.204
 20
69.8039
  0
SEQEND
  0
POLYLINE
  8
LAYER_4
 40
0.105834
 41
0.105834
 66
1
 10
0
 20
0
 30
0
  0
VERTEX
  8
LAYER_4
 10
334.239
 20
70.9946
  0
VERTEX
  8
LAYER_4
 10
334.269
 20
71.0042
  0
SEQEND
  0
POLYLINE
  8
LAYER_4
 40
0.105834
 41
0.105834
 66
1
 10
0
 20
0
 30
0
  0
VERTEX
  8
LAYER_4
 10
348.535
 20
70.0441
  0
VERTEX
  8
LAYER_4
 10
348.528
 20
70.0509
  0
SEQEND
  0
POLYLINE
  8
LAYER_4
 40
0.105834
 41
0.105834
 66
1
 10
0
 20
0
 30
0
  0
VERTEX
  8
LAYER_4
 10
336.021
 20
72.5469
  0
VERTEX
  8
LAYER_4
 10
336.255
 20
72.6644
  0
SEQEND
  0
POLYLINE
  8
LAYER_4
 40
0.105834
 41
0.105834
 66
1
 10
0
 20
0
 30
0
  0
VERTEX
  8
LAYER_4
 10
334.567
 20
68.1041
  0
VERTEX
  8
LAYER_4
 10
334.547
 20
68.0972
  0
SEQEND
  0
POLYLINE
  8
LAYER_4
 40
0.105834
 41
0.105834
 66
1
 10
0
 20
0
 30
0
  0
VERTEX
  8
LAYER_4
 10
340.295
 20
67.5439
  0
VERTEX
  8
LAYER_4
 10
340.301
 20
67.5353
  0
SEQEND
  0
POLYLINE
  8
LAYER_4
 40
0.105834
 41
0.105834
 66
1
 10
0
 20
0
 30
0
  0
VERTEX
  8
LAYER_4
 10
324.543
 20
60.3698
  0
VERTEX
  8
LAYER_4
 10
324.495
 20
62.9041
  0
VERTEX
  8
LAYER_4
 10
324.495
 20
77.0738
  0
SEQEND
  0
POLYLINE
  8
LAYER_4
 40
0.105834
 41
0.105834
 66
1
 10
0
 20
0
 30
0
  0
VERTEX
  8
LAYER_4
 10
300.554
 20
60.3698
  0
VERTEX
  8
LAYER_4
 10
300.506
 20
62.9227
  0
VERTEX
  8
LAYER_4
 10
300.506
 20
77.439
  0
SEQEND
  0
POLYLINE
  8
LAYER_4
 40
0.105834
 41
0.105834
 66
1
 10
0
 20
0
 30
0
  0
VERTEX
  8
LAYER_4
 10
334.364
 20
67.5901
  0
VERTEX
  8
LAYER_4
 10
334.436
 20
67.6232
  0
SEQEND
  0
POLYLINE
  8
LAYER_4
 40
0.105834
 41
0.105834
 66
1
 10
0
 20
0
 30
0
  0
VERTEX
  8
LAYER_4
 10
348.229
 20
72.6179
  0
VERTEX
  8
LAYER_4
 10
348.156
 20
72.5848
  0
SEQEND
  0
POLYLINE
  8
LAYER_4
 40
0.105834
 41
0.105834
 66
1
 10
0
 20
0
 30
0
  0
VERTEX
  8
LAYER_4
 10
347.878
 20
67.7041
  0
VERTEX
  8
LAYER_4
 10
347.876
 20
67.7076
  0
SEQEND
  0
POLYLINE
  8
LAYER_4
 40
0.105834
 41
0.105834
 66
1
 10
0
 20
0
 30
0
  0
VERTEX
  8
LAYER_4
 10
347.987
 20
67.7741
  0
VERTEX
  8
LAYER_4
 10
347.985
 20
67.7785
  0
SEQEND
  0
POLYLINE
  8
LAYER_4
 40
0.105834
 41
0.105834
 66
1
 10
0
 20
0
 30
0
  0
VERTEX
  8
LAYER_4
 10
334.715
 20
67.7775
  0
VERTEX
  8
LAYER_4
 10
334.711
 20
67.7737
  0
SEQEND
  0
POLYLINE
  8
LAYER_4
 40
0.105834
 41
0.105834
 66
1
 10
0
 20
0
 30
0
  0
VERTEX
  8
LAYER_4
 10
334.823
 20
67.7069
  0
VERTEX
  8
LAYER_4
 10
334.82
 20
67.7041
  0
SEQEND
  0
POLYLINE
  8
LAYER_4
 40
0.105834
 41
0.105834
 66
1
 10
0
 20
0
 30
0
  0
VERTEX
  8
LAYER_4
 10
334.105
 20
69.7939
  0
VERTEX
  8
LAYER_4
 10
334.105
 20
69.2141
  0
SEQEND
  0
POLYLINE
  8
LAYER_4
 40
0.105834
 41
0.105834
 66
1
 10
0
 20
0
 30
0
  0
VERTEX
  8
LAYER_4
 10
334.105
 20
70.4144
  0
VERTEX
  8
LAYER_4
 10
334.105
 20
70.9939
  0
SEQEND
  0
POLYLINE
  8
LAYER_4
 40
0.105834
 41
0.105834
 66
1
 10
0
 20
0
 30
0
  0
VERTEX
  8
LAYER_4
 10
334.619
 20
72.7819
  0
VERTEX
  8
LAYER_4
 10
334.619
 20
72.702
  0
SEQEND
  0
POLYLINE
  8
LAYER_4
 40
0.105834
 41
0.105834
 66
1
 10
0
 20
0
 30
0
  0
VERTEX
  8
LAYER_4
 10
334.619
 20
67.4261
  0
VERTEX
  8
LAYER_4
 10
334.619
 20
67.506
  0
SEQEND
  0
POLYLINE
  8
LAYER_4
 40
0.105834
 41
0.105834
 66
1
 10
0
 20
0
 30
0
  0
VERTEX
  8
LAYER_4
 10
336.021
 20
67.6611
  0
VERTEX
  8
LAYER_4
 10
336.021
 20
67.7041
  0
SEQEND
  0
POLYLINE
  8
LAYER_4
 40
0.105834
 41
0.105834
 66
1
 10
0
 20
0
 30
0
  0
VERTEX
  8
LAYER_4
 10
336.021
 20
72.5042
  0
VERTEX
  8
LAYER_4
 10
336.021
 20
72.5469
  0
SEQEND
  0
POLYLINE
  8
LAYER_4
 40
0.105834
 41
0.105834
 66
1
 10
0
 20
0
 30
0
  0
VERTEX
  8
LAYER_4
 10
337.395
 20
72.6644
  0
VERTEX
  8
LAYER_4
 10
337.395
 20
72.5042
  0
SEQEND
  0
POLYLINE
  8
LAYER_4
 40
0.105834
 41
0.105834
 66
1
 10
0
 20
0
 30
0
  0
VERTEX
  8
LAYER_4
 10
337.395
 20
67.5439
  0
VERTEX
  8
LAYER_4
 10
337.395
 20
67.7041
  0
SEQEND
  0
POLYLINE
  8
LAYER_4
 40
0.105834
 41
0.105834
 66
1
 10
0
 20
0
 30
0
  0
VERTEX
  8
LAYER_4
 10
347.985
 20
72.4295
  0
VERTEX
  8
LAYER_4
 10
347.986
 20
72.4253
  0
SEQEND
  0
POLYLINE
  8
LAYER_4
 40
0.105834
 41
0.105834
 66
1
 10
0
 20
0
 30
0
  0
VERTEX
  8
LAYER_4
 10
339.195
 20
72.6644
  0
VERTEX
  8
LAYER_4
 10
339.195
 20
72.5042
  0
SEQEND
  0
POLYLINE
  8
LAYER_4
 40
0.105834
 41
0.105834
 66
1
 10
0
 20
0
 30
0
  0
VERTEX
  8
LAYER_4
 10
339.195
 20
67.5439
  0
VERTEX
  8
LAYER_4
 10
339.195
 20
67.7041
  0
SEQEND
  0
POLYLINE
  8
LAYER_4
 40
0.105834
 41
0.105834
 66
1
 10
0
 20
0
 30
0
  0
VERTEX
  8
LAYER_4
 10
340.295
 20
67.5439
  0
VERTEX
  8
LAYER_4
 10
340.295
 20
67.7041
  0
SEQEND
  0
POLYLINE
  8
LAYER_4
 40
0.105834
 41
0.105834
 66
1
 10
0
 20
0
 30
0
  0
VERTEX
  8
LAYER_4
 10
340.295
 20
72.5042
  0
VERTEX
  8
LAYER_4
 10
340.295
 20
72.6644
  0
SEQEND
  0
POLYLINE
  8
LAYER_4
 40
0.105834
 41
0.105834
 66
1
 10
0
 20
0
 30
0
  0
VERTEX
  8
LAYER_4
 10
340.301
 20
67.5353
  0
VERTEX
  8
LAYER_4
 10
340.301
 20
67.7041
  0
SEQEND
  0
POLYLINE
  8
LAYER_4
 40
0.105834
 41
0.105834
 66
1
 10
0
 20
0
 30
0
  0
VERTEX
  8
LAYER_4
 10
340.301
 20
72.5042
  0
VERTEX
  8
LAYER_4
 10
340.301
 20
72.6727
  0
SEQEND
  0
POLYLINE
  8
LAYER_4
 40
0.105834
 41
0.105834
 66
1
 10
0
 20
0
 30
0
  0
VERTEX
  8
LAYER_4
 10
341.895
 20
60.1042
  0
VERTEX
  8
LAYER_4
 10
341.895
 20
58.9039
  0
SEQEND
  0
POLYLINE
  8
LAYER_4
 40
0.105834
 41
0.105834
 66
1
 10
0
 20
0
 30
0
  0
VERTEX
  8
LAYER_4
 10
342.895
 20
58.5039
  0
VERTEX
  8
LAYER_4
 10
342.895
 20
58.104
  0
SEQEND
  0
POLYLINE
  8
LAYER_4
 40
0.105834
 41
0.105834
 66
1
 10
0
 20
0
 30
0
  0
VERTEX
  8
LAYER_4
 10
340.295
 20
72.6644
  0
VERTEX
  8
LAYER_4
 10
340.301
 20
72.6727
  0
SEQEND
  0
POLYLINE
  8
LAYER_4
 40
0.105834
 41
0.105834
 66
1
 10
0
 20
0
 30
0
  0
VERTEX
  8
LAYER_4
 10
348.535
 20
70.1639
  0
VERTEX
  8
LAYER_4
 10
348.528
 20
70.1571
  0
SEQEND
  0
POLYLINE
  8
LAYER_4
 40
0.105834
 41
0.105834
 66
1
 10
0
 20
0
 30
0
  0
VERTEX
  8
LAYER_4
 10
347.302
 20
72.6727
  0
VERTEX
  8
LAYER_4
 10
347.313
 20
72.683
  0
SEQEND
  0
POLYLINE
  8
LAYER_4
 40
0.105834
 41
0.105834
 66
1
 10
0
 20
0
 30
0
  0
VERTEX
  8
LAYER_4
 10
347.974
 20
72.7819
  0
VERTEX
  8
LAYER_4
 10
347.974
 20
72.702
  0
SEQEND
  0
POLYLINE
  8
LAYER_4
 40
0.105834
 41
0.105834
 66
1
 10
0
 20
0
 30
0
  0
VERTEX
  8
LAYER_4
 10
347.974
 20
67.4261
  0
VERTEX
  8
LAYER_4
 10
347.974
 20
67.506
  0
SEQEND
  0
POLYLINE
  8
LAYER_4
 40
0.105834
 41
0.105834
 66
1
 10
0
 20
0
 30
0
  0
VERTEX
  8
LAYER_4
 10
348.528
 20
70.1571
  0
VERTEX
  8
LAYER_4
 10
348.528
 20
70.0509
 42
0.0438
  0
VERTEX
  8
LAYER_4
 10
348.535
 20
70.1639
  0
SEQEND
  0
POLYLINE
  8
LAYER_4
 40
0.105834
 41
0.105834
 66
1
 10
0
 20
0
 30
0
  0
VERTEX
  8
LAYER_4
 10
347.985
 20
72.4295
  0
VERTEX
  8
LAYER_4
 10
347.987
 20
72.4339
  0
SEQEND
  0
POLYLINE
  8
LAYER_4
 40
0.105834
 41
0.105834
 66
1
 10
0
 20
0
 30
0
  0
VERTEX
  8
LAYER_4
 10
347.876
 20
72.5004
  0
VERTEX
  8
LAYER_4
 10
347.878
 20
72.5042
  0
SEQEND
  0
POLYLINE
  8
LAYER_4
 40
0.105834
 41
0.105834
 66
1
 10
0
 20
0
 30
0
  0
VERTEX
  8
LAYER_4
 10
353.844
 20
62.9041
  0
VERTEX
  8
LAYER_4
 10
353.892
 20
60.3698
  0
SEQEND
  0
POLYLINE
  8
LAYER_4
 40
0.105834
 41
0.105834
 66
1
 10
0
 20
0
 30
0
  0
VERTEX
  8
LAYER_4
 10
354.044
 20
62.9392
  0
VERTEX
  8
LAYER_4
 10
354.092
 20
60.438
  0
SEQEND
  0
POLYLINE
  8
LAYER_4
 40
0.105834
 41
0.105834
 66
1
 10
0
 20
0
 30
0
  0
VERTEX
  8
LAYER_4
 10
350.895
 20
58.5039
  0
VERTEX
  8
LAYER_4
 10
350.895
 20
58.104
  0
SEQEND
  0
POLYLINE
  8
LAYER_4
 40
0.105834
 41
0.105834
 66
1
 10
0
 20
0
 30
0
  0
VERTEX
  8
LAYER_4
 10
351.895
 20
60.1042
  0
VERTEX
  8
LAYER_4
 10
351.895
 20
58.9039
  0
SEQEND
  0
POLYLINE
  8
LAYER_4
 40
0.105834
 41
0.105834
 66
1
 10
0
 20
0
 30
0
  0
VERTEX
  8
LAYER_4
 10
353.844
 20
62.9041
  0
VERTEX
  8
LAYER_4
 10
353.844
 20
77.274
  0
SEQEND
  0
POLYLINE
  8
LAYER_4
 40
0.105834
 41
0.105834
 66
1
 10
0
 20
0
 30
0
  0
VERTEX
  8
LAYER_4
 10
353.892
 20
60.2382
  0
VERTEX
  8
LAYER_4
 10
353.892
 20
60.3698
  0
SEQEND
  0
POLYLINE
  8
LAYER_4
 40
0.105834
 41
0.105834
 66
1
 10
0
 20
0
 30
0
  0
VERTEX
  8
LAYER_4
 10
354.044
 20
62.9392
  0
VERTEX
  8
LAYER_4
 10
354.044
 20
77.0742
  0
SEQEND
  0
POLYLINE
  8
LAYER_4
 40
0.105834
 41
0.105834
 66
1
 10
0
 20
0
 30
0
  0
VERTEX
  8
LAYER_4
 10
354.495
 20
60.7026
  0
VERTEX
  8
LAYER_4
 10
354.495
 20
77.0246
  0
SEQEND
  0
POLYLINE
  8
LAYER_4
 40
0.105834
 41
0.105834
 66
1
 10
0
 20
0
 30
0
  0
VERTEX
  8
LAYER_4
 10
347.985
 20
67.7785
  0
VERTEX
  8
LAYER_4
 10
347.986
 20
67.7827
  0
SEQEND
  0
POLYLINE
  8
LAYER_4
 40
0.105834
 41
0.105834
 66
1
 10
0
 20
0
 30
0
  0
VERTEX
  8
LAYER_4
 10
344.023
 20
302.15
 42
-0.1286
  0
VERTEX
  8
LAYER_4
 10
340.095
 20
303.43
 42
0.1093
  0
VERTEX
  8
LAYER_4
 10
338.895
 20
302.15
  0
SEQEND
  0
POLYLINE
  8
LAYER_4
 40
0.105834
 41
0.105834
 66
1
 10
0
 20
0
 30
0
  0
VERTEX
  8
LAYER_4
 10
334.095
 20
302.39
 42
0.3098
  0
VERTEX
  8
LAYER_4
 10
334.015
 20
302.47
  0
SEQEND
  0
POLYLINE
  8
LAYER_4
 40
0.105834
 41
0.105834
 66
1
 10
0
 20
0
 30
0
  0
VERTEX
  8
LAYER_4
 10
321.375
 20
302.47
 42
0.3158
  0
VERTEX
  8
LAYER_4
 10
321.295
 20
302.39
  0
SEQEND
  0
POLYLINE
  8
LAYER_4
 40
0.105834
 41
0.105834
 66
1
 10
0
 20
0
 30
0
  0
VERTEX
  8
LAYER_4
 10
353.844
 20
159.15
 42
0.3013
  0
VERTEX
  8
LAYER_4
 10
354.044
 20
159.34
  0
SEQEND
  0
POLYLINE
  8
LAYER_4
 40
0.105834
 41
0.105834
 66
1
 10
0
 20
0
 30
0
 70
1
  0
VERTEX
  8
LAYER_4
 10
297.435
 20
183.55
 42
0.3192
  0
VERTEX
  8
LAYER_4
 10
296.895
 20
184.09
 42
0.3185
  0
VERTEX
  8
LAYER_4
 10
296.355
 20
183.55
 42
0.3197
  0
VERTEX
  8
LAYER_4
 10
296.895
 20
183.01
 42
0.3128
  0
SEQEND
  0
POLYLINE
  8
LAYER_4
 40
0.105834
 41
0.105834
 66
1
 10
0
 20
0
 30
0
 70
1
  0
VERTEX
  8
LAYER_4
 10
243.035
 20
183.55
 42
0.3173
  0
VERTEX
  8
LAYER_4
 10
242.495
 20
184.09
 42
0.3183
  0
VERTEX
  8
LAYER_4
 10
241.955
 20
183.55
 42
0.3183
  0
VERTEX
  8
LAYER_4
 10
242.495
 20
183.01
 42
0.3391
  0
SEQEND
  0
POLYLINE
  8
LAYER_4
 40
0.105834
 41
0.105834
 66
1
 10
0
 20
0
 30
0
  0
VERTEX
  8
LAYER_4
 10
324.296
 20
159.164
 42
0.015
  0
VERTEX
  8
LAYER_4
 10
313.532
 20
159.572
  0
SEQEND
  0
POLYLINE
  8
LAYER_4
 40
0.105834
 41
0.105834
 66
1
 10
0
 20
0
 30
0
  0
VERTEX
  8
LAYER_4
 10
185.347
 20
159.34
 42
0.3058
  0
VERTEX
  8
LAYER_4
 10
185.546
 20
159.15
  0
SEQEND
  0
POLYLINE
  8
LAYER_4
 40
0.105834
 41
0.105834
 66
1
 10
0
 20
0
 30
0
  0
VERTEX
  8
LAYER_4
 10
313.532
 20
159.573
 42
0.0153
  0
VERTEX
  8
LAYER_4
 10
302.495
 20
159.15
  0
SEQEND
  0
POLYLINE
  8
LAYER_4
 40
0.105834
 41
0.105834
 66
1
 10
0
 20
0
 30
0
  0
VERTEX
  8
LAYER_4
 10
324.504
 20
159.321
  0
VERTEX
  8
LAYER_4
 10
324.305
 20
159.332
  0
SEQEND
  0
POLYLINE
  8
LAYER_4
 40
0.105834
 41
0.105834
 66
1
 10
0
 20
0
 30
0
 70
1
  0
VERTEX
  8
LAYER_4
 10
243.295
 20
183.55
 42
0.3745
  0
VERTEX
  8
LAYER_4
 10
242.495
 20
184.35
 42
0.3745
  0
VERTEX
  8
LAYER_4
 10
241.695
 20
183.55
 42
0.3578
  0
VERTEX
  8
LAYER_4
 10
242.495
 20
182.75
 42
0.3408
  0
SEQEND
  0
POLYLINE
  8
LAYER_4
 40
0.105834
 41
0.105834
 66
1
 10
0
 20
0
 30
0
 70
1
  0
VERTEX
  8
LAYER_4
 10
297.695
 20
183.55
 42
0.3745
  0
VERTEX
  8
LAYER_4
 10
296.895
 20
184.35
 42
0.3745
  0
VERTEX
  8
LAYER_4
 10
296.095
 20
183.55
 42
0.3437
  0
VERTEX
  8
LAYER_4
 10
296.895
 20
182.75
 42
0.3736
  0
SEQEND
  0
POLYLINE
  8
LAYER_4
 40
0.105834
 41
0.105834
 66
1
 10
0
 20
0
 30
0
  0
VERTEX
  8
LAYER_4
 10
481.103
 20
282.95
 42
0.3165
  0
VERTEX
  8
LAYER_4
 10
480.703
 20
283.35
  0
SEQEND
  0
POLYLINE
  8
LAYER_4
 40
0.105834
 41
0.105834
 66
1
 10
0
 20
0
 30
0
  0
VERTEX
  8
LAYER_4
 10
480.703
 20
273.35
 42
0.3249
  0
VERTEX
  8
LAYER_4
 10
481.103
 20
273.75
  0
SEQEND
  0
POLYLINE
  8
LAYER_4
 40
0.105834
 41
0.105834
 66
1
 10
0
 20
0
 30
0
  0
VERTEX
  8
LAYER_4
 10
481.103
 20
178.55
 42
0.3566
  0
VERTEX
  8
LAYER_4
 10
480.703
 20
178.95
  0
SEQEND
  0
POLYLINE
  8
LAYER_4
 40
0.105834
 41
0.105834
 66
1
 10
0
 20
0
 30
0
  0
VERTEX
  8
LAYER_4
 10
480.703
 20
168.95
 42
0.311
  0
VERTEX
  8
LAYER_4
 10
481.103
 20
169.35
  0
SEQEND
  0
POLYLINE
  8
LAYER_4
 40
0.105834
 41
0.105834
 66
1
 10
0
 20
0
 30
0
  0
VERTEX
  8
LAYER_4
 10
477.603
 20
302.07
 42
0.3158
  0
VERTEX
  8
LAYER_4
 10
477.203
 20
302.47
  0
SEQEND
  0
POLYLINE
  8
LAYER_4
 40
0.105834
 41
0.105834
 66
1
 10
0
 20
0
 30
0
  0
VERTEX
  8
LAYER_4
 10
465.003
 20
302.47
 42
0.2863
  0
VERTEX
  8
LAYER_4
 10
464.611
 20
302.15
  0
SEQEND
  0
POLYLINE
  8
LAYER_4
 40
0.105834
 41
0.105834
 66
1
 10
0
 20
0
 30
0
  0
VERTEX
  8
LAYER_4
 10
470.001
 20
159.103
  0
VERTEX
  8
LAYER_4
 10
469.974
 20
159.047
 42
-0.1718
  0
VERTEX
  8
LAYER_4
 10
469.503
 20
158.87
 42
-0.1723
  0
VERTEX
  8
LAYER_4
 10
469.033
 20
159.047
  0
VERTEX
  8
LAYER_4
 10
469.006
 20
159.103
  0
SEQEND
  0
POLYLINE
  8
LAYER_4
 40
0.105834
 41
0.105834
 66
1
 10
0
 20
0
 30
0
  0
VERTEX
  8
LAYER_4
 10
474.783
 20
302.39
 42
0.3114
  0
VERTEX
  8
LAYER_4
 10
474.703
 20
302.47
  0
SEQEND
  0
POLYLINE
  8
LAYER_4
 40
0.105834
 41
0.105834
 66
1
 10
0
 20
0
 30
0
  0
VERTEX
  8
LAYER_4
 10
465.663
 20
302.47
 42
0.3184
  0
VERTEX
  8
LAYER_4
 10
465.583
 20
302.39
  0
SEQEND
  0
POLYLINE
  8
LAYER_4
 40
0.105834
 41
0.105834
 66
1
 10
0
 20
0
 30
0
  0
VERTEX
  8
LAYER_4
 10
479.238
 20
160.073
 42
0.2545
  0
VERTEX
  8
LAYER_4
 10
479.369
 20
160.257
  0
SEQEND
  0
POLYLINE
  8
LAYER_4
 40
0.105834
 41
0.105834
 66
1
 10
0
 20
0
 30
0
  0
VERTEX
  8
LAYER_4
 10
462.333
 20
159.347
 42
0.3099
  0
VERTEX
  8
LAYER_4
 10
462.534
 20
159.15
  0
SEQEND
  0
POLYLINE
  8
LAYER_4
 40
0.105834
 41
0.105834
 66
1
 10
0
 20
0
 30
0
  0
VERTEX
  8
LAYER_4
 10
477.506
 20
235.833
 42
0.1852
  0
VERTEX
  8
LAYER_4
 10
477.623
 20
236.116
  0
SEQEND
  0
POLYLINE
  8
LAYER_4
 40
0.105834
 41
0.105834
 66
1
 10
0
 20
0
 30
0
 70
1
  0
VERTEX
  8
LAYER_4
 10
477.443
 20
275.95
 42
0.318
  0
VERTEX
  8
LAYER_4
 10
476.903
 20
276.49
 42
0.3931
  0
VERTEX
  8
LAYER_4
 10
476.363
 20
275.95
 42
0.3931
  0
VERTEX
  8
LAYER_4
 10
476.903
 20
275.41
 42
0.3259
  0
SEQEND
  0
POLYLINE
  8
LAYER_4
 40
0.105834
 41
0.105834
 66
1
 10
0
 20
0
 30
0
 70
1
  0
VERTEX
  8
LAYER_4
 10
477.443
 20
176.35
 42
0.318
  0
VERTEX
  8
LAYER_4
 10
476.903
 20
176.89
 42
0.3293
  0
VERTEX
  8
LAYER_4
 10
476.363
 20
176.35
 42
0.3178
  0
VERTEX
  8
LAYER_4
 10
476.903
 20
175.81
 42
0.3131
  0
SEQEND
  0
POLYLINE
  8
LAYER_4
 40
0.105834
 41
0.105834
 66
1
 10
0
 20
0
 30
0
 70
1
  0
VERTEX
  8
LAYER_4
 10
477.643
 20
192.35
 42
0.3927
  0
VERTEX
  8
LAYER_4
 10
476.903
 20
193.09
 42
0.3435
  0
VERTEX
  8
LAYER_4
 10
476.163
 20
192.35
 42
0.3747
  0
VERTEX
  8
LAYER_4
 10
476.903
 20
191.61
 42
0.3403
  0
SEQEND
  0
POLYLINE
  8
LAYER_4
 40
0.105834
 41
0.105834
 66
1
 10
0
 20
0
 30
0
 70
1
  0
VERTEX
  8
LAYER_4
 10
477.643
 20
235.95
 42
0.3573
  0
VERTEX
  8
LAYER_4
 10
476.903
 20
236.69
 42
0.3435
  0
VERTEX
  8
LAYER_4
 10
476.163
 20
235.95
 42
0.3747
  0
VERTEX
  8
LAYER_4
 10
476.903
 20
235.21
 42
0.3928
  0
SEQEND
  0
POLYLINE
  8
LAYER_4
 40
0.105834
 41
0.105834
 66
1
 10
0
 20
0
 30
0
  0
VERTEX
  8
LAYER_4
 10
479.503
 20
301.27
 42
0.3169
  0
VERTEX
  8
LAYER_4
 10
479.023
 20
301.75
  0
SEQEND
  0
POLYLINE
  8
LAYER_4
 40
0.105834
 41
0.105834
 66
1
 10
0
 20
0
 30
0
  0
VERTEX
  8
LAYER_4
 10
463.121
 20
301.746
 42
0.1912
  0
VERTEX
  8
LAYER_4
 10
462.794
 20
301.55
  0
SEQEND
  0
POLYLINE
  8
LAYER_4
 40
0.105834
 41
0.105834
 66
1
 10
0
 20
0
 30
0
  0
VERTEX
  8
LAYER_4
 10
479.023
 20
167.95
 42
0.4142
  0
VERTEX
  8
LAYER_4
 10
479.503
 20
168.43
  0
SEQEND
  0
POLYLINE
  8
LAYER_4
 40
0.105834
 41
0.105834
 66
1
 10
0
 20
0
 30
0
  0
VERTEX
  8
LAYER_4
 10
468.196
 20
203.551
 42
0.1602
  0
VERTEX
  8
LAYER_4
 10
467.808
 20
203.89
  0
SEQEND
  0
POLYLINE
  8
LAYER_4
 40
0.105834
 41
0.105834
 66
1
 10
0
 20
0
 30
0
  0
VERTEX
  8
LAYER_4
 10
465.61
 20
204.35
 42
0.2339
  0
VERTEX
  8
LAYER_4
 10
466.304
 20
203.95
  0
SEQEND
  0
POLYLINE
  8
LAYER_4
 40
0.105834
 41
0.105834
 66
1
 10
0
 20
0
 30
0
  0
VERTEX
  8
LAYER_4
 10
468.303
 20
191.95
 42
0.1309
  0
VERTEX
  8
LAYER_4
 10
468.411
 20
191.55
  0
SEQEND
  0
POLYLINE
  8
LAYER_4
 40
0.105834
 41
0.105834
 66
1
 10
0
 20
0
 30
0
  0
VERTEX
  8
LAYER_4
 10
462.703
 20
302.15
 42
0.3166
  0
VERTEX
  8
LAYER_4
 10
462.303
 20
301.75
  0
SEQEND
  0
POLYLINE
  8
LAYER_4
 40
0.105834
 41
0.105834
 66
1
 10
0
 20
0
 30
0
 70
1
  0
VERTEX
  8
LAYER_4
 10
478.003
 20
235.95
 42
0.3427
  0
VERTEX
  8
LAYER_4
 10
476.903
 20
237.05
 42
0.3305
  0
VERTEX
  8
LAYER_4
 10
475.803
 20
235.95
 42
0.3581
  0
VERTEX
  8
LAYER_4
 10
476.903
 20
234.85
 42
0.3413
  0
SEQEND
  0
POLYLINE
  8
LAYER_4
 40
0.105834
 41
0.105834
 66
1
 10
0
 20
0
 30
0
 70
1
  0
VERTEX
  8
LAYER_4
 10
478.003
 20
192.35
 42
0.3927
  0
VERTEX
  8
LAYER_4
 10
476.903
 20
193.45
 42
0.3305
  0
VERTEX
  8
LAYER_4
 10
475.803
 20
192.35
 42
0.3305
  0
VERTEX
  8
LAYER_4
 10
476.903
 20
191.25
 42
0.3411
  0
SEQEND
  0
POLYLINE
  8
LAYER_4
 40
0.105834
 41
0.105834
 66
1
 10
0
 20
0
 30
0
  0
VERTEX
  8
LAYER_4
 10
478.303
 20
167.95
 42
0.4142
  0
VERTEX
  8
LAYER_4
 10
479.103
 20
168.75
  0
SEQEND
  0
POLYLINE
  8
LAYER_4
 40
0.105834
 41
0.105834
 66
1
 10
0
 20
0
 30
0
  0
VERTEX
  8
LAYER_4
 10
479.103
 20
299.95
 42
0.4142
  0
VERTEX
  8
LAYER_4
 10
478.303
 20
300.75
  0
SEQEND
  0
POLYLINE
  8
LAYER_4
 40
0.105834
 41
0.105834
 66
1
 10
0
 20
0
 30
0
 70
1
  0
VERTEX
  8
LAYER_4
 10
477.803
 20
275.95
 42
0.3578
  0
VERTEX
  8
LAYER_4
 10
476.903
 20
276.85
 42
0.4142
  0
VERTEX
  8
LAYER_4
 10
476.003
 20
275.95
 42
0.3181
  0
VERTEX
  8
LAYER_4
 10
476.903
 20
275.05
 42
0.3273
  0
SEQEND
  0
POLYLINE
  8
LAYER_4
 40
0.105834
 41
0.105834
 66
1
 10
0
 20
0
 30
0
 70
1
  0
VERTEX
  8
LAYER_4
 10
477.803
 20
176.35
 42
0.3747
  0
VERTEX
  8
LAYER_4
 10
476.903
 20
177.25
 42
0.3431
  0
VERTEX
  8
LAYER_4
 10
476.003
 20
176.35
 42
0.4142
  0
VERTEX
  8
LAYER_4
 10
476.903
 20
175.45
 42
0.3931
  0
SEQEND
  0
POLYLINE
  8
LAYER_4
 40
0.105834
 41
0.105834
 66
1
 10
0
 20
0
 30
0
  0
VERTEX
  8
LAYER_4
 10
466.003
 20
221.55
 42
0.3109
  0
VERTEX
  8
LAYER_4
 10
466.403
 20
221.95
 42
0.3288
  0
VERTEX
  8
LAYER_4
 10
466.003
 20
222.35
  0
SEQEND
  0
POLYLINE
  8
LAYER_4
 40
0.105834
 41
0.105834
 66
1
 10
0
 20
0
 30
0
  0
VERTEX
  8
LAYER_4
 10
465.003
 20
222.35
 42
0.3184
  0
VERTEX
  8
LAYER_4
 10
464.603
 20
221.95
 42
0.3165
  0
VERTEX
  8
LAYER_4
 10
465.003
 20
221.55
  0
SEQEND
  0
POLYLINE
  8
LAYER_4
 40
0.105834
 41
0.105834
 66
1
 10
0
 20
0
 30
0
  0
VERTEX
  8
LAYER_4
 10
466.003
 20
219.55
 42
0.3249
  0
VERTEX
  8
LAYER_4
 10
466.403
 20
219.95
 42
0.3568
  0
VERTEX
  8
LAYER_4
 10
466.003
 20
220.35
  0
SEQEND
  0
POLYLINE
  8
LAYER_4
 40
0.105834
 41
0.105834
 66
1
 10
0
 20
0
 30
0
  0
VERTEX
  8
LAYER_4
 10
465.003
 20
220.35
 42
0.3166
  0
VERTEX
  8
LAYER_4
 10
464.603
 20
219.95
 42
0.3288
  0
VERTEX
  8
LAYER_4
 10
465.003
 20
219.55
  0
SEQEND
  0
POLYLINE
  8
LAYER_4
 40
0.105834
 41
0.105834
 66
1
 10
0
 20
0
 30
0
  0
VERTEX
  8
LAYER_4
 10
466.003
 20
217.55
 42
0.3549
  0
VERTEX
  8
LAYER_4
 10
466.403
 20
217.95
 42
0.3288
  0
VERTEX
  8
LAYER_4
 10
466.003
 20
218.35
  0
SEQEND
  0
POLYLINE
  8
LAYER_4
 40
0.105834
 41
0.105834
 66
1
 10
0
 20
0
 30
0
  0
VERTEX
  8
LAYER_4
 10
465.003
 20
218.35
 42
0.3298
  0
VERTEX
  8
LAYER_4
 10
464.603
 20
217.95
 42
0.3288
  0
VERTEX
  8
LAYER_4
 10
465.003
 20
217.55
  0
SEQEND
  0
POLYLINE
  8
LAYER_4
 40
0.105834
 41
0.105834
 66
1
 10
0
 20
0
 30
0
  0
VERTEX
  8
LAYER_4
 10
466.003
 20
215.55
 42
0.3109
  0
VERTEX
  8
LAYER_4
 10
466.403
 20
215.95
 42
0.3288
  0
VERTEX
  8
LAYER_4
 10
466.003
 20
216.35
  0
SEQEND
  0
POLYLINE
  8
LAYER_4
 40
0.105834
 41
0.105834
 66
1
 10
0
 20
0
 30
0
  0
VERTEX
  8
LAYER_4
 10
465.003
 20
216.35
 42
0.3184
  0
VERTEX
  8
LAYER_4
 10
464.603
 20
215.95
 42
0.3568
  0
VERTEX
  8
LAYER_4
 10
465.003
 20
215.55
  0
SEQEND
  0
POLYLINE
  8
LAYER_4
 40
0.105834
 41
0.105834
 66
1
 10
0
 20
0
 30
0
  0
VERTEX
  8
LAYER_4
 10
466.003
 20
213.55
 42
0.3249
  0
VERTEX
  8
LAYER_4
 10
466.403
 20
213.95
 42
0.3157
  0
VERTEX
  8
LAYER_4
 10
466.003
 20
214.35
  0
SEQEND
  0
POLYLINE
  8
LAYER_4
 40
0.105834
 41
0.105834
 66
1
 10
0
 20
0
 30
0
  0
VERTEX
  8
LAYER_4
 10
465.003
 20
214.35
 42
0.3166
  0
VERTEX
  8
LAYER_4
 10
464.603
 20
213.95
 42
0.3288
  0
VERTEX
  8
LAYER_4
 10
465.003
 20
213.55
  0
SEQEND
  0
POLYLINE
  8
LAYER_4
 40
0.105834
 41
0.105834
 66
1
 10
0
 20
0
 30
0
  0
VERTEX
  8
LAYER_4
 10
466.003
 20
211.55
 42
0.3112
  0
VERTEX
  8
LAYER_4
 10
466.403
 20
211.95
 42
0.3288
  0
VERTEX
  8
LAYER_4
 10
466.003
 20
212.35
  0
SEQEND
  0
POLYLINE
  8
LAYER_4
 40
0.105834
 41
0.105834
 66
1
 10
0
 20
0
 30
0
  0
VERTEX
  8
LAYER_4
 10
465.003
 20
212.35
 42
0.3298
  0
VERTEX
  8
LAYER_4
 10
464.603
 20
211.95
 42
0.3166
  0
VERTEX
  8
LAYER_4
 10
465.003
 20
211.55
  0
SEQEND
  0
POLYLINE
  8
LAYER_4
 40
0.105834
 41
0.105834
 66
1
 10
0
 20
0
 30
0
  0
VERTEX
  8
LAYER_4
 10
466.003
 20
209.55
 42
0.3109
  0
VERTEX
  8
LAYER_4
 10
466.403
 20
209.95
 42
0.3157
  0
VERTEX
  8
LAYER_4
 10
466.003
 20
210.35
  0
SEQEND
  0
POLYLINE
  8
LAYER_4
 40
0.105834
 41
0.105834
 66
1
 10
0
 20
0
 30
0
  0
VERTEX
  8
LAYER_4
 10
465.003
 20
210.35
 42
0.3167
  0
VERTEX
  8
LAYER_4
 10
464.603
 20
209.95
 42
0.3568
  0
VERTEX
  8
LAYER_4
 10
465.003
 20
209.55
  0
SEQEND
  0
POLYLINE
  8
LAYER_4
 40
0.105834
 41
0.105834
 66
1
 10
0
 20
0
 30
0
  0
VERTEX
  8
LAYER_4
 10
466.003
 20
207.55
 42
0.3249
  0
VERTEX
  8
LAYER_4
 10
466.403
 20
207.95
 42
0.3157
  0
VERTEX
  8
LAYER_4
 10
466.003
 20
208.35
  0
SEQEND
  0
POLYLINE
  8
LAYER_4
 40
0.105834
 41
0.105834
 66
1
 10
0
 20
0
 30
0
  0
VERTEX
  8
LAYER_4
 10
465.003
 20
208.35
 42
0.3166
  0
VERTEX
  8
LAYER_4
 10
464.603
 20
207.95
 42
0.3288
  0
VERTEX
  8
LAYER_4
 10
465.003
 20
207.55
  0
SEQEND
  0
POLYLINE
  8
LAYER_4
 40
0.105834
 41
0.105834
 66
1
 10
0
 20
0
 30
0
  0
VERTEX
  8
LAYER_4
 10
466.003
 20
205.55
 42
0.3109
  0
VERTEX
  8
LAYER_4
 10
466.403
 20
205.95
 42
0.3288
  0
VERTEX
  8
LAYER_4
 10
466.003
 20
206.35
  0
SEQEND
  0
POLYLINE
  8
LAYER_4
 40
0.105834
 41
0.105834
 66
1
 10
0
 20
0
 30
0
  0
VERTEX
  8
LAYER_4
 10
465.003
 20
206.35
 42
0.3184
  0
VERTEX
  8
LAYER_4
 10
464.603
 20
205.95
 42
0.3165
  0
VERTEX
  8
LAYER_4
 10
465.003
 20
205.55
  0
SEQEND
  0
POLYLINE
  8
LAYER_4
 40
0.105834
 41
0.105834
 66
1
 10
0
 20
0
 30
0
  0
VERTEX
  8
LAYER_4
 10
466.003
 20
203.55
 42
0.3102
  0
VERTEX
  8
LAYER_4
 10
466.403
 20
203.95
 42
0.3157
  0
VERTEX
  8
LAYER_4
 10
466.003
 20
204.35
  0
SEQEND
  0
POLYLINE
  8
LAYER_4
 40
0.105834
 41
0.105834
 66
1
 10
0
 20
0
 30
0
  0
VERTEX
  8
LAYER_4
 10
465.003
 20
204.35
 42
0.3176
  0
VERTEX
  8
LAYER_4
 10
464.603
 20
203.95
 42
0.3566
  0
VERTEX
  8
LAYER_4
 10
465.003
 20
203.55
  0
SEQEND
  0
POLYLINE
  8
LAYER_4
 40
0.105834
 41
0.105834
 66
1
 10
0
 20
0
 30
0
  0
VERTEX
  8
LAYER_4
 10
469.203
 20
221.55
 42
0.3927
  0
VERTEX
  8
LAYER_4
 10
469.603
 20
221.95
 42
0.3587
  0
VERTEX
  8
LAYER_4
 10
469.203
 20
222.35
  0
SEQEND
  0
POLYLINE
  8
LAYER_4
 40
0.105834
 41
0.105834
 66
1
 10
0
 20
0
 30
0
  0
VERTEX
  8
LAYER_4
 10
468.203
 20
222.35
 42
0.3178
  0
VERTEX
  8
LAYER_4
 10
467.804
 20
221.95
 42
0.3285
  0
VERTEX
  8
LAYER_4
 10
468.203
 20
221.55
  0
SEQEND
  0
POLYLINE
  8
LAYER_4
 40
0.105834
 41
0.105834
 66
1
 10
0
 20
0
 30
0
  0
VERTEX
  8
LAYER_4
 10
469.203
 20
219.55
 42
0.3127
  0
VERTEX
  8
LAYER_4
 10
469.603
 20
219.95
 42
0.3184
  0
VERTEX
  8
LAYER_4
 10
469.203
 20
220.35
  0
SEQEND
  0
POLYLINE
  8
LAYER_4
 40
0.105834
 41
0.105834
 66
1
 10
0
 20
0
 30
0
  0
VERTEX
  8
LAYER_4
 10
468.203
 20
220.35
 42
0.3168
  0
VERTEX
  8
LAYER_4
 10
467.804
 20
219.95
 42
0.3745
  0
VERTEX
  8
LAYER_4
 10
468.203
 20
219.55
  0
SEQEND
  0
POLYLINE
  8
LAYER_4
 40
0.105834
 41
0.105834
 66
1
 10
0
 20
0
 30
0
  0
VERTEX
  8
LAYER_4
 10
469.203
 20
217.55
 42
0.3121
  0
VERTEX
  8
LAYER_4
 10
469.603
 20
217.95
 42
0.3185
  0
VERTEX
  8
LAYER_4
 10
469.203
 20
218.35
  0
SEQEND
  0
POLYLINE
  8
LAYER_4
 40
0.105834
 41
0.105834
 66
1
 10
0
 20
0
 30
0
  0
VERTEX
  8
LAYER_4
 10
468.203
 20
218.35
 42
0.3168
  0
VERTEX
  8
LAYER_4
 10
467.804
 20
217.95
 42
0.3292
  0
VERTEX
  8
LAYER_4
 10
468.203
 20
217.55
  0
SEQEND
  0
POLYLINE
  8
LAYER_4
 40
0.105834
 41
0.105834
 66
1
 10
0
 20
0
 30
0
  0
VERTEX
  8
LAYER_4
 10
469.203
 20
215.55
 42
0.3927
  0
VERTEX
  8
LAYER_4
 10
469.603
 20
215.95
 42
0.3587
  0
VERTEX
  8
LAYER_4
 10
469.203
 20
216.35
  0
SEQEND
  0
POLYLINE
  8
LAYER_4
 40
0.105834
 41
0.105834
 66
1
 10
0
 20
0
 30
0
  0
VERTEX
  8
LAYER_4
 10
468.203
 20
216.35
 42
0.3178
  0
VERTEX
  8
LAYER_4
 10
467.804
 20
215.95
 42
0.3285
  0
VERTEX
  8
LAYER_4
 10
468.203
 20
215.55
  0
SEQEND
  0
POLYLINE
  8
LAYER_4
 40
0.105834
 41
0.105834
 66
1
 10
0
 20
0
 30
0
  0
VERTEX
  8
LAYER_4
 10
469.203
 20
213.55
 42
0.3127
  0
VERTEX
  8
LAYER_4
 10
469.603
 20
213.95
 42
0.3184
  0
VERTEX
  8
LAYER_4
 10
469.203
 20
214.35
  0
SEQEND
  0
POLYLINE
  8
LAYER_4
 40
0.105834
 41
0.105834
 66
1
 10
0
 20
0
 30
0
  0
VERTEX
  8
LAYER_4
 10
468.203
 20
214.35
 42
0.3168
  0
VERTEX
  8
LAYER_4
 10
467.804
 20
213.95
 42
0.3745
  0
VERTEX
  8
LAYER_4
 10
468.203
 20
213.55
  0
SEQEND
  0
POLYLINE
  8
LAYER_4
 40
0.105834
 41
0.105834
 66
1
 10
0
 20
0
 30
0
  0
VERTEX
  8
LAYER_4
 10
469.203
 20
211.55
 42
0.3118
  0
VERTEX
  8
LAYER_4
 10
469.603
 20
211.95
 42
0.3185
  0
VERTEX
  8
LAYER_4
 10
469.203
 20
212.35
  0
SEQEND
  0
POLYLINE
  8
LAYER_4
 40
0.105834
 41
0.105834
 66
1
 10
0
 20
0
 30
0
  0
VERTEX
  8
LAYER_4
 10
468.203
 20
212.35
 42
0.3745
  0
VERTEX
  8
LAYER_4
 10
467.804
 20
211.95
 42
0.3286
  0
VERTEX
  8
LAYER_4
 10
468.203
 20
211.55
  0
SEQEND
  0
POLYLINE
  8
LAYER_4
 40
0.105834
 41
0.105834
 66
1
 10
0
 20
0
 30
0
  0
VERTEX
  8
LAYER_4
 10
469.203
 20
209.55
 42
0.3927
  0
VERTEX
  8
LAYER_4
 10
469.603
 20
209.95
 42
0.3184
  0
VERTEX
  8
LAYER_4
 10
469.203
 20
210.35
  0
SEQEND
  0
POLYLINE
  8
LAYER_4
 40
0.105834
 41
0.105834
 66
1
 10
0
 20
0
 30
0
  0
VERTEX
  8
LAYER_4
 10
468.203
 20
210.35
 42
0.3743
  0
VERTEX
  8
LAYER_4
 10
467.804
 20
209.95
 42
0.3161
  0
VERTEX
  8
LAYER_4
 10
468.203
 20
209.55
  0
SEQEND
  0
POLYLINE
  8
LAYER_4
 40
0.105834
 41
0.105834
 66
1
 10
0
 20
0
 30
0
  0
VERTEX
  8
LAYER_4
 10
469.203
 20
207.55
 42
0.3127
  0
VERTEX
  8
LAYER_4
 10
469.603
 20
207.95
 42
0.3184
  0
VERTEX
  8
LAYER_4
 10
469.203
 20
208.35
  0
SEQEND
  0
POLYLINE
  8
LAYER_4
 40
0.105834
 41
0.105834
 66
1
 10
0
 20
0
 30
0
  0
VERTEX
  8
LAYER_4
 10
468.203
 20
208.35
 42
0.3168
  0
VERTEX
  8
LAYER_4
 10
467.804
 20
207.95
 42
0.3745
  0
VERTEX
  8
LAYER_4
 10
468.203
 20
207.55
  0
SEQEND
  0
POLYLINE
  8
LAYER_4
 40
0.105834
 41
0.105834
 66
1
 10
0
 20
0
 30
0
  0
VERTEX
  8
LAYER_4
 10
469.203
 20
205.55
 42
0.3927
  0
VERTEX
  8
LAYER_4
 10
469.603
 20
205.95
 42
0.3185
  0
VERTEX
  8
LAYER_4
 10
469.203
 20
206.35
  0
SEQEND
  0
POLYLINE
  8
LAYER_4
 40
0.105834
 41
0.105834
 66
1
 10
0
 20
0
 30
0
  0
VERTEX
  8
LAYER_4
 10
468.203
 20
206.35
 42
0.3745
  0
VERTEX
  8
LAYER_4
 10
467.804
 20
205.95
 42
0.3286
  0
VERTEX
  8
LAYER_4
 10
468.203
 20
205.55
  0
SEQEND
  0
POLYLINE
  8
LAYER_4
 40
0.105834
 41
0.105834
 66
1
 10
0
 20
0
 30
0
  0
VERTEX
  8
LAYER_4
 10
469.203
 20
203.55
 42
0.3927
  0
VERTEX
  8
LAYER_4
 10
469.603
 20
203.95
 42
0.3184
  0
VERTEX
  8
LAYER_4
 10
469.203
 20
204.35
  0
SEQEND
  0
POLYLINE
  8
LAYER_4
 40
0.105834
 41
0.105834
 66
1
 10
0
 20
0
 30
0
  0
VERTEX
  8
LAYER_4
 10
468.203
 20
204.35
 42
0.3743
  0
VERTEX
  8
LAYER_4
 10
467.804
 20
203.95
 42
0.3161
  0
VERTEX
  8
LAYER_4
 10
468.203
 20
203.55
  0
SEQEND
  0
POLYLINE
  8
LAYER_4
 40
0.105834
 41
0.105834
 66
1
 10
0
 20
0
 30
0
  0
VERTEX
  8
LAYER_4
 10
472.403
 20
221.55
 42
0.3239
  0
VERTEX
  8
LAYER_4
 10
472.803
 20
221.95
 42
0.3288
  0
VERTEX
  8
LAYER_4
 10
472.403
 20
222.35
  0
SEQEND
  0
POLYLINE
  8
LAYER_4
 40
0.105834
 41
0.105834
 66
1
 10
0
 20
0
 30
0
  0
VERTEX
  8
LAYER_4
 10
471.403
 20
222.35
 42
0.3184
  0
VERTEX
  8
LAYER_4
 10
471.003
 20
221.95
 42
0.3165
  0
VERTEX
  8
LAYER_4
 10
471.403
 20
221.55
  0
SEQEND
  0
POLYLINE
  8
LAYER_4
 40
0.105834
 41
0.105834
 66
1
 10
0
 20
0
 30
0
  0
VERTEX
  8
LAYER_4
 10
472.403
 20
219.55
 42
0.3242
  0
VERTEX
  8
LAYER_4
 10
472.803
 20
219.95
 42
0.3568
  0
VERTEX
  8
LAYER_4
 10
472.403
 20
220.35
  0
SEQEND
  0
POLYLINE
  8
LAYER_4
 40
0.105834
 41
0.105834
 66
1
 10
0
 20
0
 30
0
  0
VERTEX
  8
LAYER_4
 10
471.403
 20
220.35
 42
0.3166
  0
VERTEX
  8
LAYER_4
 10
471.003
 20
219.95
 42
0.3288
  0
VERTEX
  8
LAYER_4
 10
471.403
 20
219.55
  0
SEQEND
  0
POLYLINE
  8
LAYER_4
 40
0.105834
 41
0.105834
 66
1
 10
0
 20
0
 30
0
  0
VERTEX
  8
LAYER_4
 10
472.403
 20
217.55
 42
0.3116
  0
VERTEX
  8
LAYER_4
 10
472.803
 20
217.95
 42
0.3288
  0
VERTEX
  8
LAYER_4
 10
472.403
 20
218.35
  0
SEQEND
  0
POLYLINE
  8
LAYER_4
 40
0.105834
 41
0.105834
 66
1
 10
0
 20
0
 30
0
  0
VERTEX
  8
LAYER_4
 10
471.403
 20
218.35
 42
0.343
  0
VERTEX
  8
LAYER_4
 10
471.003
 20
217.95
 42
0.3288
  0
VERTEX
  8
LAYER_4
 10
471.403
 20
217.55
  0
SEQEND
  0
POLYLINE
  8
LAYER_4
 40
0.105834
 41
0.105834
 66
1
 10
0
 20
0
 30
0
  0
VERTEX
  8
LAYER_4
 10
472.403
 20
215.55
 42
0.3239
  0
VERTEX
  8
LAYER_4
 10
472.803
 20
215.95
 42
0.3288
  0
VERTEX
  8
LAYER_4
 10
472.403
 20
216.35
  0
SEQEND
  0
POLYLINE
  8
LAYER_4
 40
0.105834
 41
0.105834
 66
1
 10
0
 20
0
 30
0
  0
VERTEX
  8
LAYER_4
 10
471.403
 20
216.35
 42
0.3184
  0
VERTEX
  8
LAYER_4
 10
471.003
 20
215.95
 42
0.3568
  0
VERTEX
  8
LAYER_4
 10
471.403
 20
215.55
  0
SEQEND
  0
POLYLINE
  8
LAYER_4
 40
0.105834
 41
0.105834
 66
1
 10
0
 20
0
 30
0
  0
VERTEX
  8
LAYER_4
 10
472.403
 20
213.55
 42
0.3249
  0
VERTEX
  8
LAYER_4
 10
472.803
 20
213.95
 42
0.3165
  0
VERTEX
  8
LAYER_4
 10
472.403
 20
214.35
  0
SEQEND
  0
POLYLINE
  8
LAYER_4
 40
0.105834
 41
0.105834
 66
1
 10
0
 20
0
 30
0
  0
VERTEX
  8
LAYER_4
 10
471.403
 20
214.35
 42
0.3166
  0
VERTEX
  8
LAYER_4
 10
471.003
 20
213.95
 42
0.3288
  0
VERTEX
  8
LAYER_4
 10
471.403
 20
213.55
  0
SEQEND
  0
POLYLINE
  8
LAYER_4
 40
0.105834
 41
0.105834
 66
1
 10
0
 20
0
 30
0
  0
VERTEX
  8
LAYER_4
 10
472.403
 20
211.55
 42
0.3113
  0
VERTEX
  8
LAYER_4
 10
472.803
 20
211.95
 42
0.3288
  0
VERTEX
  8
LAYER_4
 10
472.403
 20
212.35
  0
SEQEND
  0
POLYLINE
  8
LAYER_4
 40
0.105834
 41
0.105834
 66
1
 10
0
 20
0
 30
0
  0
VERTEX
  8
LAYER_4
 10
471.403
 20
212.35
 42
0.3298
  0
VERTEX
  8
LAYER_4
 10
471.003
 20
211.95
 42
0.3166
  0
VERTEX
  8
LAYER_4
 10
471.403
 20
211.55
  0
SEQEND
  0
POLYLINE
  8
LAYER_4
 40
0.105834
 41
0.105834
 66
1
 10
0
 20
0
 30
0
  0
VERTEX
  8
LAYER_4
 10
472.403
 20
209.55
 42
0.3239
  0
VERTEX
  8
LAYER_4
 10
472.803
 20
209.95
 42
0.3164
  0
VERTEX
  8
LAYER_4
 10
472.403
 20
210.35
  0
SEQEND
  0
POLYLINE
  8
LAYER_4
 40
0.105834
 41
0.105834
 66
1
 10
0
 20
0
 30
0
  0
VERTEX
  8
LAYER_4
 10
471.403
 20
210.35
 42
0.3167
  0
VERTEX
  8
LAYER_4
 10
471.003
 20
209.95
 42
0.3568
  0
VERTEX
  8
LAYER_4
 10
471.403
 20
209.55
  0
SEQEND
  0
POLYLINE
  8
LAYER_4
 40
0.105834
 41
0.105834
 66
1
 10
0
 20
0
 30
0
  0
VERTEX
  8
LAYER_4
 10
472.403
 20
207.55
 42
0.3249
  0
VERTEX
  8
LAYER_4
 10
472.803
 20
207.95
 42
0.3165
  0
VERTEX
  8
LAYER_4
 10
472.403
 20
208.35
  0
SEQEND
  0
POLYLINE
  8
LAYER_4
 40
0.105834
 41
0.105834
 66
1
 10
0
 20
0
 30
0
  0
VERTEX
  8
LAYER_4
 10
471.403
 20
208.35
 42
0.3166
  0
VERTEX
  8
LAYER_4
 10
471.003
 20
207.95
 42
0.3288
  0
VERTEX
  8
LAYER_4
 10
471.403
 20
207.55
  0
SEQEND
  0
POLYLINE
  8
LAYER_4
 40
0.105834
 41
0.105834
 66
1
 10
0
 20
0
 30
0
  0
VERTEX
  8
LAYER_4
 10
472.403
 20
205.55
 42
0.3239
  0
VERTEX
  8
LAYER_4
 10
472.803
 20
205.95
 42
0.3288
  0
VERTEX
  8
LAYER_4
 10
472.403
 20
206.35
  0
SEQEND
  0
POLYLINE
  8
LAYER_4
 40
0.105834
 41
0.105834
 66
1
 10
0
 20
0
 30
0
  0
VERTEX
  8
LAYER_4
 10
471.403
 20
206.35
 42
0.3184
  0
VERTEX
  8
LAYER_4
 10
471.003
 20
205.95
 42
0.3165
  0
VERTEX
  8
LAYER_4
 10
471.403
 20
205.55
  0
SEQEND
  0
POLYLINE
  8
LAYER_4
 40
0.105834
 41
0.105834
 66
1
 10
0
 20
0
 30
0
  0
VERTEX
  8
LAYER_4
 10
472.403
 20
203.55
 42
0.3239
  0
VERTEX
  8
LAYER_4
 10
472.803
 20
203.95
 42
0.3164
  0
VERTEX
  8
LAYER_4
 10
472.403
 20
204.35
  0
SEQEND
  0
POLYLINE
  8
LAYER_4
 40
0.105834
 41
0.105834
 66
1
 10
0
 20
0
 30
0
  0
VERTEX
  8
LAYER_4
 10
471.403
 20
204.35
 42
0.3176
  0
VERTEX
  8
LAYER_4
 10
471.003
 20
203.95
 42
0.3566
  0
VERTEX
  8
LAYER_4
 10
471.403
 20
203.55
  0
SEQEND
  0
POLYLINE
  8
LAYER_4
 40
0.105834
 41
0.105834
 66
1
 10
0
 20
0
 30
0
  0
VERTEX
  8
LAYER_4
 10
466.003
 20
201.55
 42
0.3116
  0
VERTEX
  8
LAYER_4
 10
466.403
 20
201.95
 42
0.3157
  0
VERTEX
  8
LAYER_4
 10
466.003
 20
202.35
  0
SEQEND
  0
POLYLINE
  8
LAYER_4
 40
0.105834
 41
0.105834
 66
1
 10
0
 20
0
 30
0
  0
VERTEX
  8
LAYER_4
 10
465.003
 20
202.35
 42
0.3166
  0
VERTEX
  8
LAYER_4
 10
464.603
 20
201.95
 42
0.3166
  0
VERTEX
  8
LAYER_4
 10
465.003
 20
201.55
  0
SEQEND
  0
POLYLINE
  8
LAYER_4
 40
0.105834
 41
0.105834
 66
1
 10
0
 20
0
 30
0
  0
VERTEX
  8
LAYER_4
 10
466.003
 20
199.55
 42
0.3109
  0
VERTEX
  8
LAYER_4
 10
466.403
 20
199.95
 42
0.3288
  0
VERTEX
  8
LAYER_4
 10
466.003
 20
200.35
  0
SEQEND
  0
POLYLINE
  8
LAYER_4
 40
0.105834
 41
0.105834
 66
1
 10
0
 20
0
 30
0
  0
VERTEX
  8
LAYER_4
 10
465.003
 20
200.35
 42
0.3184
  0
VERTEX
  8
LAYER_4
 10
464.603
 20
199.95
 42
0.3165
  0
VERTEX
  8
LAYER_4
 10
465.003
 20
199.55
  0
SEQEND
  0
POLYLINE
  8
LAYER_4
 40
0.105834
 41
0.105834
 66
1
 10
0
 20
0
 30
0
  0
VERTEX
  8
LAYER_4
 10
466.003
 20
197.55
 42
0.3105
  0
VERTEX
  8
LAYER_4
 10
466.403
 20
197.95
 42
0.3156
  0
VERTEX
  8
LAYER_4
 10
466.003
 20
198.35
  0
SEQEND
  0
POLYLINE
  8
LAYER_4
 40
0.105834
 41
0.105834
 66
1
 10
0
 20
0
 30
0
  0
VERTEX
  8
LAYER_4
 10
465.003
 20
198.35
 42
0.3166
  0
VERTEX
  8
LAYER_4
 10
464.603
 20
197.95
 42
0.3164
  0
VERTEX
  8
LAYER_4
 10
465.003
 20
197.55
  0
SEQEND
  0
POLYLINE
  8
LAYER_4
 40
0.105834
 41
0.105834
 66
1
 10
0
 20
0
 30
0
  0
VERTEX
  8
LAYER_4
 10
466.003
 20
195.55
 42
0.3116
  0
VERTEX
  8
LAYER_4
 10
466.403
 20
195.95
 42
0.3157
  0
VERTEX
  8
LAYER_4
 10
466.003
 20
196.35
  0
SEQEND
  0
POLYLINE
  8
LAYER_4
 40
0.105834
 41
0.105834
 66
1
 10
0
 20
0
 30
0
  0
VERTEX
  8
LAYER_4
 10
465.003
 20
196.35
 42
0.3288
  0
VERTEX
  8
LAYER_4
 10
464.603
 20
195.95
 42
0.3165
  0
VERTEX
  8
LAYER_4
 10
465.003
 20
195.55
  0
SEQEND
  0
POLYLINE
  8
LAYER_4
 40
0.105834
 41
0.105834
 66
1
 10
0
 20
0
 30
0
  0
VERTEX
  8
LAYER_4
 10
466.003
 20
193.55
 42
0.3109
  0
VERTEX
  8
LAYER_4
 10
466.403
 20
193.95
 42
0.3156
  0
VERTEX
  8
LAYER_4
 10
466.003
 20
194.35
  0
SEQEND
  0
POLYLINE
  8
LAYER_4
 40
0.105834
 41
0.105834
 66
1
 10
0
 20
0
 30
0
  0
VERTEX
  8
LAYER_4
 10
465.003
 20
194.35
 42
0.3167
  0
VERTEX
  8
LAYER_4
 10
464.603
 20
193.95
 42
0.3165
  0
VERTEX
  8
LAYER_4
 10
465.003
 20
193.55
  0
SEQEND
  0
POLYLINE
  8
LAYER_4
 40
0.105834
 41
0.105834
 66
1
 10
0
 20
0
 30
0
  0
VERTEX
  8
LAYER_4
 10
466.003
 20
191.55
 42
0.3249
  0
VERTEX
  8
LAYER_4
 10
466.403
 20
191.95
 42
0.3157
  0
VERTEX
  8
LAYER_4
 10
466.003
 20
192.35
  0
SEQEND
  0
POLYLINE
  8
LAYER_4
 40
0.105834
 41
0.105834
 66
1
 10
0
 20
0
 30
0
  0
VERTEX
  8
LAYER_4
 10
465.003
 20
192.35
 42
0.3166
  0
VERTEX
  8
LAYER_4
 10
464.603
 20
191.95
 42
0.3288
  0
VERTEX
  8
LAYER_4
 10
465.003
 20
191.55
  0
SEQEND
  0
POLYLINE
  8
LAYER_4
 40
0.105834
 41
0.105834
 66
1
 10
0
 20
0
 30
0
  0
VERTEX
  8
LAYER_4
 10
466.003
 20
189.55
 42
0.3549
  0
VERTEX
  8
LAYER_4
 10
466.403
 20
189.95
 42
0.3288
  0
VERTEX
  8
LAYER_4
 10
466.003
 20
190.35
  0
SEQEND
  0
POLYLINE
  8
LAYER_4
 40
0.105834
 41
0.105834
 66
1
 10
0
 20
0
 30
0
  0
VERTEX
  8
LAYER_4
 10
465.003
 20
190.35
 42
0.3175
  0
VERTEX
  8
LAYER_4
 10
464.603
 20
189.95
 42
0.3165
  0
VERTEX
  8
LAYER_4
 10
465.003
 20
189.55
  0
SEQEND
  0
POLYLINE
  8
LAYER_4
 40
0.105834
 41
0.105834
 66
1
 10
0
 20
0
 30
0
  0
VERTEX
  8
LAYER_4
 10
466.003
 20
187.55
 42
0.311
  0
VERTEX
  8
LAYER_4
 10
466.403
 20
187.95
 42
0.3281
  0
VERTEX
  8
LAYER_4
 10
466.003
 20
188.35
  0
SEQEND
  0
POLYLINE
  8
LAYER_4
 40
0.105834
 41
0.105834
 66
1
 10
0
 20
0
 30
0
  0
VERTEX
  8
LAYER_4
 10
465.003
 20
188.35
 42
0.3166
  0
VERTEX
  8
LAYER_4
 10
464.603
 20
187.95
 42
0.3164
  0
VERTEX
  8
LAYER_4
 10
465.003
 20
187.55
  0
SEQEND
  0
POLYLINE
  8
LAYER_4
 40
0.105834
 41
0.105834
 66
1
 10
0
 20
0
 30
0
  0
VERTEX
  8
LAYER_4
 10
469.203
 20
201.55
 42
0.3124
  0
VERTEX
  8
LAYER_4
 10
469.603
 20
201.95
 42
0.3184
  0
VERTEX
  8
LAYER_4
 10
469.203
 20
202.35
  0
SEQEND
  0
POLYLINE
  8
LAYER_4
 40
0.105834
 41
0.105834
 66
1
 10
0
 20
0
 30
0
  0
VERTEX
  8
LAYER_4
 10
468.203
 20
202.35
 42
0.3168
  0
VERTEX
  8
LAYER_4
 10
467.804
 20
201.95
 42
0.3745
  0
VERTEX
  8
LAYER_4
 10
468.203
 20
201.55
  0
SEQEND
  0
POLYLINE
  8
LAYER_4
 40
0.105834
 41
0.105834
 66
1
 10
0
 20
0
 30
0
  0
VERTEX
  8
LAYER_4
 10
469.203
 20
199.55
 42
0.3927
  0
VERTEX
  8
LAYER_4
 10
469.603
 20
199.95
 42
0.3587
  0
VERTEX
  8
LAYER_4
 10
469.203
 20
200.35
  0
SEQEND
  0
POLYLINE
  8
LAYER_4
 40
0.105834
 41
0.105834
 66
1
 10
0
 20
0
 30
0
  0
VERTEX
  8
LAYER_4
 10
468.203
 20
200.35
 42
0.3175
  0
VERTEX
  8
LAYER_4
 10
467.804
 20
199.95
 42
0.3285
  0
VERTEX
  8
LAYER_4
 10
468.203
 20
199.55
  0
SEQEND
  0
POLYLINE
  8
LAYER_4
 40
0.105834
 41
0.105834
 66
1
 10
0
 20
0
 30
0
  0
VERTEX
  8
LAYER_4
 10
469.203
 20
197.55
 42
0.3114
  0
VERTEX
  8
LAYER_4
 10
469.603
 20
197.95
 42
0.3184
  0
VERTEX
  8
LAYER_4
 10
469.203
 20
198.35
  0
SEQEND
  0
POLYLINE
  8
LAYER_4
 40
0.105834
 41
0.105834
 66
1
 10
0
 20
0
 30
0
  0
VERTEX
  8
LAYER_4
 10
468.203
 20
198.35
 42
0.3168
  0
VERTEX
  8
LAYER_4
 10
467.804
 20
197.95
 42
0.3285
  0
VERTEX
  8
LAYER_4
 10
468.203
 20
197.55
  0
SEQEND
  0
POLYLINE
  8
LAYER_4
 40
0.105834
 41
0.105834
 66
1
 10
0
 20
0
 30
0
  0
VERTEX
  8
LAYER_4
 10
469.203
 20
195.55
 42
0.3118
  0
VERTEX
  8
LAYER_4
 10
469.603
 20
195.95
 42
0.3184
  0
VERTEX
  8
LAYER_4
 10
469.203
 20
196.35
  0
SEQEND
  0
POLYLINE
  8
LAYER_4
 40
0.105834
 41
0.105834
 66
1
 10
0
 20
0
 30
0
  0
VERTEX
  8
LAYER_4
 10
468.203
 20
196.35
 42
0.3168
  0
VERTEX
  8
LAYER_4
 10
467.804
 20
195.95
 42
0.3745
  0
VERTEX
  8
LAYER_4
 10
468.203
 20
195.55
  0
SEQEND
  0
POLYLINE
  8
LAYER_4
 40
0.105834
 41
0.105834
 66
1
 10
0
 20
0
 30
0
  0
VERTEX
  8
LAYER_4
 10
469.203
 20
193.55
 42
0.3927
  0
VERTEX
  8
LAYER_4
 10
469.603
 20
193.95
 42
0.3184
  0
VERTEX
  8
LAYER_4
 10
469.203
 20
194.35
  0
SEQEND
  0
POLYLINE
  8
LAYER_4
 40
0.105834
 41
0.105834
 66
1
 10
0
 20
0
 30
0
  0
VERTEX
  8
LAYER_4
 10
468.203
 20
194.35
 42
0.3286
  0
VERTEX
  8
LAYER_4
 10
467.804
 20
193.95
 42
0.3162
  0
VERTEX
  8
LAYER_4
 10
468.203
 20
193.55
  0
SEQEND
  0
POLYLINE
  8
LAYER_4
 40
0.105834
 41
0.105834
 66
1
 10
0
 20
0
 30
0
  0
VERTEX
  8
LAYER_4
 10
469.203
 20
191.55
 42
0.3127
  0
VERTEX
  8
LAYER_4
 10
469.603
 20
191.95
 42
0.3184
  0
VERTEX
  8
LAYER_4
 10
469.203
 20
192.35
  0
SEQEND
  0
POLYLINE
  8
LAYER_4
 40
0.105834
 41
0.105834
 66
1
 10
0
 20
0
 30
0
  0
VERTEX
  8
LAYER_4
 10
468.203
 20
192.35
 42
0.3168
  0
VERTEX
  8
LAYER_4
 10
467.804
 20
191.95
 42
0.3745
  0
VERTEX
  8
LAYER_4
 10
468.203
 20
191.55
  0
SEQEND
  0
POLYLINE
  8
LAYER_4
 40
0.105834
 41
0.105834
 66
1
 10
0
 20
0
 30
0
  0
VERTEX
  8
LAYER_4
 10
469.203
 20
189.55
 42
0.3118
  0
VERTEX
  8
LAYER_4
 10
469.603
 20
189.95
 42
0.3185
  0
VERTEX
  8
LAYER_4
 10
469.203
 20
190.35
  0
SEQEND
  0
POLYLINE
  8
LAYER_4
 40
0.105834
 41
0.105834
 66
1
 10
0
 20
0
 30
0
  0
VERTEX
  8
LAYER_4
 10
468.203
 20
190.35
 42
0.3745
  0
VERTEX
  8
LAYER_4
 10
467.804
 20
189.95
 42
0.3292
  0
VERTEX
  8
LAYER_4
 10
468.203
 20
189.55
  0
SEQEND
  0
POLYLINE
  8
LAYER_4
 40
0.105834
 41
0.105834
 66
1
 10
0
 20
0
 30
0
  0
VERTEX
  8
LAYER_4
 10
469.203
 20
187.55
 42
0.3117
  0
VERTEX
  8
LAYER_4
 10
469.603
 20
187.95
 42
0.3748
  0
VERTEX
  8
LAYER_4
 10
469.203
 20
188.35
  0
SEQEND
  0
POLYLINE
  8
LAYER_4
 40
0.105834
 41
0.105834
 66
1
 10
0
 20
0
 30
0
  0
VERTEX
  8
LAYER_4
 10
468.203
 20
188.35
 42
0.3164
  0
VERTEX
  8
LAYER_4
 10
467.804
 20
187.95
 42
0.3743
  0
VERTEX
  8
LAYER_4
 10
468.203
 20
187.55
  0
SEQEND
  0
POLYLINE
  8
LAYER_4
 40
0.105834
 41
0.105834
 66
1
 10
0
 20
0
 30
0
  0
VERTEX
  8
LAYER_4
 10
472.403
 20
201.55
 42
0.3116
  0
VERTEX
  8
LAYER_4
 10
472.803
 20
201.95
 42
0.3165
  0
VERTEX
  8
LAYER_4
 10
472.403
 20
202.35
  0
SEQEND
  0
POLYLINE
  8
LAYER_4
 40
0.105834
 41
0.105834
 66
1
 10
0
 20
0
 30
0
  0
VERTEX
  8
LAYER_4
 10
471.403
 20
202.35
 42
0.3166
  0
VERTEX
  8
LAYER_4
 10
471.003
 20
201.95
 42
0.3166
  0
VERTEX
  8
LAYER_4
 10
471.403
 20
201.55
  0
SEQEND
  0
POLYLINE
  8
LAYER_4
 40
0.105834
 41
0.105834
 66
1
 10
0
 20
0
 30
0
  0
VERTEX
  8
LAYER_4
 10
472.403
 20
199.55
 42
0.3239
  0
VERTEX
  8
LAYER_4
 10
472.803
 20
199.95
 42
0.3288
  0
VERTEX
  8
LAYER_4
 10
472.403
 20
200.35
  0
SEQEND
  0
POLYLINE
  8
LAYER_4
 40
0.105834
 41
0.105834
 66
1
 10
0
 20
0
 30
0
  0
VERTEX
  8
LAYER_4
 10
471.403
 20
200.35
 42
0.3184
  0
VERTEX
  8
LAYER_4
 10
471.003
 20
199.95
 42
0.3165
  0
VERTEX
  8
LAYER_4
 10
471.403
 20
199.55
  0
SEQEND
  0
POLYLINE
  8
LAYER_4
 40
0.105834
 41
0.105834
 66
1
 10
0
 20
0
 30
0
  0
VERTEX
  8
LAYER_4
 10
472.403
 20
197.55
 42
0.3107
  0
VERTEX
  8
LAYER_4
 10
472.803
 20
197.95
 42
0.3165
  0
VERTEX
  8
LAYER_4
 10
472.403
 20
198.35
  0
SEQEND
  0
POLYLINE
  8
LAYER_4
 40
0.105834
 41
0.105834
 66
1
 10
0
 20
0
 30
0
  0
VERTEX
  8
LAYER_4
 10
471.403
 20
198.35
 42
0.3166
  0
VERTEX
  8
LAYER_4
 10
471.003
 20
197.95
 42
0.3164
  0
VERTEX
  8
LAYER_4
 10
471.403
 20
197.55
  0
SEQEND
  0
POLYLINE
  8
LAYER_4
 40
0.105834
 41
0.105834
 66
1
 10
0
 20
0
 30
0
  0
VERTEX
  8
LAYER_4
 10
472.403
 20
195.55
 42
0.3116
  0
VERTEX
  8
LAYER_4
 10
472.803
 20
195.95
 42
0.3166
  0
VERTEX
  8
LAYER_4
 10
472.403
 20
196.35
  0
SEQEND
  0
POLYLINE
  8
LAYER_4
 40
0.105834
 41
0.105834
 66
1
 10
0
 20
0
 30
0
  0
VERTEX
  8
LAYER_4
 10
471.403
 20
196.35
 42
0.3288
  0
VERTEX
  8
LAYER_4
 10
471.003
 20
195.95
 42
0.3165
  0
VERTEX
  8
LAYER_4
 10
471.403
 20
195.55
  0
SEQEND
  0
POLYLINE
  8
LAYER_4
 40
0.105834
 41
0.105834
 66
1
 10
0
 20
0
 30
0
  0
VERTEX
  8
LAYER_4
 10
472.403
 20
193.55
 42
0.3239
  0
VERTEX
  8
LAYER_4
 10
472.803
 20
193.95
 42
0.3164
  0
VERTEX
  8
LAYER_4
 10
472.403
 20
194.35
  0
SEQEND
  0
POLYLINE
  8
LAYER_4
 40
0.105834
 41
0.105834
 66
1
 10
0
 20
0
 30
0
  0
VERTEX
  8
LAYER_4
 10
471.403
 20
194.35
 42
0.3167
  0
VERTEX
  8
LAYER_4
 10
471.003
 20
193.95
 42
0.3165
  0
VERTEX
  8
LAYER_4
 10
471.403
 20
193.55
  0
SEQEND
  0
POLYLINE
  8
LAYER_4
 40
0.105834
 41
0.105834
 66
1
 10
0
 20
0
 30
0
  0
VERTEX
  8
LAYER_4
 10
472.403
 20
191.55
 42
0.3116
  0
VERTEX
  8
LAYER_4
 10
472.803
 20
191.95
 42
0.3165
  0
VERTEX
  8
LAYER_4
 10
472.403
 20
192.35
  0
SEQEND
  0
POLYLINE
  8
LAYER_4
 40
0.105834
 41
0.105834
 66
1
 10
0
 20
0
 30
0
  0
VERTEX
  8
LAYER_4
 10
471.403
 20
192.35
 42
0.3166
  0
VERTEX
  8
LAYER_4
 10
471.003
 20
191.95
 42
0.3288
  0
VERTEX
  8
LAYER_4
 10
471.403
 20
191.55
  0
SEQEND
  0
POLYLINE
  8
LAYER_4
 40
0.105834
 41
0.105834
 66
1
 10
0
 20
0
 30
0
  0
VERTEX
  8
LAYER_4
 10
472.403
 20
189.55
 42
0.3549
  0
VERTEX
  8
LAYER_4
 10
472.803
 20
189.95
 42
0.3288
  0
VERTEX
  8
LAYER_4
 10
472.403
 20
190.35
  0
SEQEND
  0
POLYLINE
  8
LAYER_4
 40
0.105834
 41
0.105834
 66
1
 10
0
 20
0
 30
0
  0
VERTEX
  8
LAYER_4
 10
471.403
 20
190.35
 42
0.3298
  0
VERTEX
  8
LAYER_4
 10
471.003
 20
189.95
 42
0.3165
  0
VERTEX
  8
LAYER_4
 10
471.403
 20
189.55
  0
SEQEND
  0
POLYLINE
  8
LAYER_4
 40
0.105834
 41
0.105834
 66
1
 10
0
 20
0
 30
0
  0
VERTEX
  8
LAYER_4
 10
472.403
 20
187.55
 42
0.3107
  0
VERTEX
  8
LAYER_4
 10
472.803
 20
187.95
 42
0.3288
  0
VERTEX
  8
LAYER_4
 10
472.403
 20
188.35
  0
SEQEND
  0
POLYLINE
  8
LAYER_4
 40
0.105834
 41
0.105834
 66
1
 10
0
 20
0
 30
0
  0
VERTEX
  8
LAYER_4
 10
471.403
 20
188.35
 42
0.3166
  0
VERTEX
  8
LAYER_4
 10
471.003
 20
187.95
 42
0.3164
  0
VERTEX
  8
LAYER_4
 10
471.403
 20
187.55
  0
SEQEND
  0
POLYLINE
  8
LAYER_4
 40
0.105834
 41
0.105834
 66
1
 10
0
 20
0
 30
0
  0
VERTEX
  8
LAYER_4
 10
466.003
 20
185.55
 42
0.3249
  0
VERTEX
  8
LAYER_4
 10
466.403
 20
185.95
 42
0.3157
  0
VERTEX
  8
LAYER_4
 10
466.003
 20
186.35
  0
SEQEND
  0
POLYLINE
  8
LAYER_4
 40
0.105834
 41
0.105834
 66
1
 10
0
 20
0
 30
0
  0
VERTEX
  8
LAYER_4
 10
465.003
 20
186.35
 42
0.3288
  0
VERTEX
  8
LAYER_4
 10
464.603
 20
185.95
 42
0.3288
  0
VERTEX
  8
LAYER_4
 10
465.003
 20
185.55
  0
SEQEND
  0
POLYLINE
  8
LAYER_4
 40
0.105834
 41
0.105834
 66
1
 10
0
 20
0
 30
0
  0
VERTEX
  8
LAYER_4
 10
466.003
 20
183.55
 42
0.3109
  0
VERTEX
  8
LAYER_4
 10
466.403
 20
183.95
 42
0.3288
  0
VERTEX
  8
LAYER_4
 10
466.003
 20
184.35
  0
SEQEND
  0
POLYLINE
  8
LAYER_4
 40
0.105834
 41
0.105834
 66
1
 10
0
 20
0
 30
0
  0
VERTEX
  8
LAYER_4
 10
465.003
 20
184.35
 42
0.3184
  0
VERTEX
  8
LAYER_4
 10
464.603
 20
183.95
 42
0.3165
  0
VERTEX
  8
LAYER_4
 10
465.003
 20
183.55
  0
SEQEND
  0
POLYLINE
  8
LAYER_4
 40
0.105834
 41
0.105834
 66
1
 10
0
 20
0
 30
0
  0
VERTEX
  8
LAYER_4
 10
468.203
 20
186.35
 42
0.3168
  0
VERTEX
  8
LAYER_4
 10
467.804
 20
185.95
 42
0.3745
  0
VERTEX
  8
LAYER_4
 10
468.203
 20
185.55
  0
SEQEND
  0
POLYLINE
  8
LAYER_4
 40
0.105834
 41
0.105834
 66
1
 10
0
 20
0
 30
0
  0
VERTEX
  8
LAYER_4
 10
469.203
 20
185.55
 42
0.3127
  0
VERTEX
  8
LAYER_4
 10
469.603
 20
185.95
 42
0.3184
  0
VERTEX
  8
LAYER_4
 10
469.203
 20
186.35
  0
SEQEND
  0
POLYLINE
  8
LAYER_4
 40
0.105834
 41
0.105834
 66
1
 10
0
 20
0
 30
0
  0
VERTEX
  8
LAYER_4
 10
468.203
 20
184.35
 42
0.3175
  0
VERTEX
  8
LAYER_4
 10
467.804
 20
183.95
 42
0.3285
  0
VERTEX
  8
LAYER_4
 10
468.203
 20
183.55
  0
SEQEND
  0
POLYLINE
  8
LAYER_4
 40
0.105834
 41
0.105834
 66
1
 10
0
 20
0
 30
0
  0
VERTEX
  8
LAYER_4
 10
469.203
 20
183.55
 42
0.3927
  0
VERTEX
  8
LAYER_4
 10
469.603
 20
183.95
 42
0.3587
  0
VERTEX
  8
LAYER_4
 10
469.203
 20
184.35
  0
SEQEND
  0
POLYLINE
  8
LAYER_4
 40
0.105834
 41
0.105834
 66
1
 10
0
 20
0
 30
0
  0
VERTEX
  8
LAYER_4
 10
472.403
 20
185.55
 42
0.3249
  0
VERTEX
  8
LAYER_4
 10
472.803
 20
185.95
 42
0.3165
  0
VERTEX
  8
LAYER_4
 10
472.403
 20
186.35
  0
SEQEND
  0
POLYLINE
  8
LAYER_4
 40
0.105834
 41
0.105834
 66
1
 10
0
 20
0
 30
0
  0
VERTEX
  8
LAYER_4
 10
471.403
 20
186.35
 42
0.3288
  0
VERTEX
  8
LAYER_4
 10
471.003
 20
185.95
 42
0.3288
  0
VERTEX
  8
LAYER_4
 10
471.403
 20
185.55
  0
SEQEND
  0
POLYLINE
  8
LAYER_4
 40
0.105834
 41
0.105834
 66
1
 10
0
 20
0
 30
0
  0
VERTEX
  8
LAYER_4
 10
472.403
 20
183.55
 42
0.3106
  0
VERTEX
  8
LAYER_4
 10
472.803
 20
183.95
 42
0.3288
  0
VERTEX
  8
LAYER_4
 10
472.403
 20
184.35
  0
SEQEND
  0
POLYLINE
  8
LAYER_4
 40
0.105834
 41
0.105834
 66
1
 10
0
 20
0
 30
0
  0
VERTEX
  8
LAYER_4
 10
471.403
 20
184.35
 42
0.318
  0
VERTEX
  8
LAYER_4
 10
471.003
 20
183.95
 42
0.3165
  0
VERTEX
  8
LAYER_4
 10
471.403
 20
183.55
  0
SEQEND
  0
POLYLINE
  8
LAYER_4
 40
0.105834
 41
0.105834
 66
1
 10
0
 20
0
 30
0
  0
VERTEX
  8
LAYER_4
 10
187.895
 20
388.816
 42
0.3587
  0
VERTEX
  8
LAYER_4
 10
187.495
 20
388.416
  0
SEQEND
  0
POLYLINE
  8
LAYER_4
 40
0.105834
 41
0.105834
 66
1
 10
0
 20
0
 30
0
  0
VERTEX
  8
LAYER_4
 10
197.495
 20
388.416
 42
0.316
  0
VERTEX
  8
LAYER_4
 10
197.095
 20
388.816
  0
SEQEND
  0
POLYLINE
  8
LAYER_4
 40
0.105834
 41
0.105834
 66
1
 10
0
 20
0
 30
0
  0
VERTEX
  8
LAYER_4
 10
342.295
 20
388.816
 42
0.3587
  0
VERTEX
  8
LAYER_4
 10
341.895
 20
388.416
  0
SEQEND
  0
POLYLINE
  8
LAYER_4
 40
0.105834
 41
0.105834
 66
1
 10
0
 20
0
 30
0
  0
VERTEX
  8
LAYER_4
 10
351.895
 20
388.416
 42
0.3177
  0
VERTEX
  8
LAYER_4
 10
351.495
 20
388.816
  0
SEQEND
  0
POLYLINE
  8
LAYER_4
 40
0.105834
 41
0.105834
 66
1
 10
0
 20
0
 30
0
  0
VERTEX
  8
LAYER_4
 10
199.795
 20
377.346
 42
0.0236
  0
VERTEX
  8
LAYER_4
 10
199.995
 20
377.233
  0
SEQEND
  0
POLYLINE
  8
LAYER_4
 40
0.105834
 41
0.105834
 66
1
 10
0
 20
0
 30
0
 70
1
  0
VERTEX
  8
LAYER_4
 10
205.435
 20
377.34
 42
0.3291
  0
VERTEX
  8
LAYER_4
 10
204.895
 20
377.88
 42
0.3182
  0
VERTEX
  8
LAYER_4
 10
204.355
 20
377.34
 42
0.3184
  0
VERTEX
  8
LAYER_4
 10
204.895
 20
376.8
 42
0.3125
  0
SEQEND
  0
POLYLINE
  8
LAYER_4
 40
0.105834
 41
0.105834
 66
1
 10
0
 20
0
 30
0
  0
VERTEX
  8
LAYER_4
 10
199.355
 20
376.661
 42
0.31
  0
VERTEX
  8
LAYER_4
 10
199.555
 20
376.861
  0
SEQEND
  0
POLYLINE
  8
LAYER_4
 40
0.105834
 41
0.105834
 66
1
 10
0
 20
0
 30
0
  0
VERTEX
  8
LAYER_4
 10
194.235
 20
376.861
 42
0.3153
  0
VERTEX
  8
LAYER_4
 10
194.435
 20
376.661
  0
SEQEND
  0
POLYLINE
  8
LAYER_4
 40
0.105834
 41
0.105834
 66
1
 10
0
 20
0
 30
0
  0
VERTEX
  8
LAYER_4
 10
194.435
 20
382.429
 42
0.314
  0
VERTEX
  8
LAYER_4
 10
194.235
 20
382.229
  0
SEQEND
  0
POLYLINE
  8
LAYER_4
 40
0.105834
 41
0.105834
 66
1
 10
0
 20
0
 30
0
  0
VERTEX
  8
LAYER_4
 10
199.555
 20
382.229
 42
0.3149
  0
VERTEX
  8
LAYER_4
 10
199.355
 20
382.429
  0
SEQEND
  0
POLYLINE
  8
LAYER_4
 40
0.105834
 41
0.105834
 66
1
 10
0
 20
0
 30
0
  0
VERTEX
  8
LAYER_4
 10
337.695
 20
377.696
 42
0.316
  0
VERTEX
  8
LAYER_4
 10
338.095
 20
377.296
  0
SEQEND
  0
POLYLINE
  8
LAYER_4
 40
0.105834
 41
0.105834
 66
1
 10
0
 20
0
 30
0
  0
VERTEX
  8
LAYER_4
 10
338.095
 20
383.297
 42
0.3288
  0
VERTEX
  8
LAYER_4
 10
337.695
 20
382.897
  0
SEQEND
  0
POLYLINE
  8
LAYER_4
 40
0.105834
 41
0.105834
 66
1
 10
0
 20
0
 30
0
  0
VERTEX
  8
LAYER_4
 10
346.095
 20
382.897
 42
0.3167
  0
VERTEX
  8
LAYER_4
 10
345.695
 20
383.297
  0
SEQEND
  0
POLYLINE
  8
LAYER_4
 40
0.105834
 41
0.105834
 66
1
 10
0
 20
0
 30
0
  0
VERTEX
  8
LAYER_4
 10
345.695
 20
377.296
 42
0.323
  0
VERTEX
  8
LAYER_4
 10
346.095
 20
377.696
  0
SEQEND
  0
POLYLINE
  8
LAYER_4
 40
0.105834
 41
0.105834
 66
1
 10
0
 20
0
 30
0
  0
VERTEX
  8
LAYER_4
 10
270.021
 20
373.616
 42
0.2821
  0
VERTEX
  8
LAYER_4
 10
270.495
 20
373.276
 42
0.1381
  0
VERTEX
  8
LAYER_4
 10
270.755
 20
373.349
  0
SEQEND
  0
POLYLINE
  8
LAYER_4
 40
0.105834
 41
0.105834
 66
1
 10
0
 20
0
 30
0
  0
VERTEX
  8
LAYER_4
 10
288.057
 20
374.017
 42
0.1054
  0
VERTEX
  8
LAYER_4
 10
287.997
 20
373.817
  0
SEQEND
  0
POLYLINE
  8
LAYER_4
 40
0.105834
 41
0.105834
 66
1
 10
0
 20
0
 30
0
  0
VERTEX
  8
LAYER_4
 10
246.432
 20
385.317
  0
VERTEX
  8
LAYER_4
 10
246.395
 20
385.377
  0
SEQEND
  0
POLYLINE
  8
LAYER_4
 40
0.105834
 41
0.105834
 66
1
 10
0
 20
0
 30
0
  0
VERTEX
  8
LAYER_4
 10
239.375
 20
385.377
  0
VERTEX
  8
LAYER_4
 10
239.338
 20
385.317
  0
SEQEND
  0
POLYLINE
  8
LAYER_4
 40
0.105834
 41
0.105834
 66
1
 10
0
 20
0
 30
0
  0
VERTEX
  8
LAYER_4
 10
210.383
 20
382.097
 42
0.0583
  0
VERTEX
  8
LAYER_4
 10
210.303
 20
382.088
  0
SEQEND
  0
POLYLINE
  8
LAYER_4
 40
0.105834
 41
0.105834
 66
1
 10
0
 20
0
 30
0
  0
VERTEX
  8
LAYER_4
 10
218.416
 20
382.088
 42
0.0555
  0
VERTEX
  8
LAYER_4
 10
218.335
 20
382.097
  0
SEQEND
  0
POLYLINE
  8
LAYER_4
 40
0.105834
 41
0.105834
 66
1
 10
0
 20
0
 30
0
  0
VERTEX
  8
LAYER_4
 10
321.695
 20
382.497
 42
0.3182
  0
VERTEX
  8
LAYER_4
 10
321.295
 20
382.097
  0
SEQEND
  0
POLYLINE
  8
LAYER_4
 40
0.105834
 41
0.105834
 66
1
 10
0
 20
0
 30
0
  0
VERTEX
  8
LAYER_4
 10
334.095
 20
382.097
 42
0.3158
  0
VERTEX
  8
LAYER_4
 10
333.695
 20
382.497
  0
SEQEND
  0
POLYLINE
  8
LAYER_4
 40
0.105834
 41
0.105834
 66
1
 10
0
 20
0
 30
0
  0
VERTEX
  8
LAYER_4
 10
333.695
 20
373.297
 42
0.3242
  0
VERTEX
  8
LAYER_4
 10
334.095
 20
373.697
  0
SEQEND
  0
POLYLINE
  8
LAYER_4
 40
0.105834
 41
0.105834
 66
1
 10
0
 20
0
 30
0
  0
VERTEX
  8
LAYER_4
 10
321.295
 20
373.697
 42
0.3177
  0
VERTEX
  8
LAYER_4
 10
321.695
 20
373.297
  0
SEQEND
  0
POLYLINE
  8
LAYER_4
 40
0.105834
 41
0.105834
 66
1
 10
0
 20
0
 30
0
  0
VERTEX
  8
LAYER_4
 10
323.695
 20
381.096
 42
0.3744
  0
VERTEX
  8
LAYER_4
 10
322.895
 20
380.296
  0
SEQEND
  0
POLYLINE
  8
LAYER_4
 40
0.105834
 41
0.105834
 66
1
 10
0
 20
0
 30
0
  0
VERTEX
  8
LAYER_4
 10
332.495
 20
380.296
 42
0.3433
  0
VERTEX
  8
LAYER_4
 10
331.695
 20
381.096
  0
SEQEND
  0
POLYLINE
  8
LAYER_4
 40
0.105834
 41
0.105834
 66
1
 10
0
 20
0
 30
0
  0
VERTEX
  8
LAYER_4
 10
321.375
 20
373.697
 42
0.3167
  0
VERTEX
  8
LAYER_4
 10
321.695
 20
373.376
  0
SEQEND
  0
POLYLINE
  8
LAYER_4
 40
0.105834
 41
0.105834
 66
1
 10
0
 20
0
 30
0
  0
VERTEX
  8
LAYER_4
 10
323.695
 20
381.496
 42
0.3306
  0
VERTEX
  8
LAYER_4
 10
322.495
 20
380.296
  0
SEQEND
  0
POLYLINE
  8
LAYER_4
 40
0.105834
 41
0.105834
 66
1
 10
0
 20
0
 30
0
  0
VERTEX
  8
LAYER_4
 10
334.015
 20
382.097
 42
0.3161
  0
VERTEX
  8
LAYER_4
 10
333.695
 20
382.416
  0
SEQEND
  0
POLYLINE
  8
LAYER_4
 40
0.105834
 41
0.105834
 66
1
 10
0
 20
0
 30
0
  0
VERTEX
  8
LAYER_4
 10
332.895
 20
380.296
 42
0.3431
  0
VERTEX
  8
LAYER_4
 10
331.695
 20
381.496
  0
SEQEND
  0
POLYLINE
  8
LAYER_4
 40
0.105834
 41
0.105834
 66
1
 10
0
 20
0
 30
0
  0
VERTEX
  8
LAYER_4
 10
321.695
 20
382.416
 42
0.3175
  0
VERTEX
  8
LAYER_4
 10
321.375
 20
382.097
  0
SEQEND
  0
POLYLINE
  8
LAYER_4
 40
0.105834
 41
0.105834
 66
1
 10
0
 20
0
 30
0
  0
VERTEX
  8
LAYER_4
 10
333.695
 20
373.376
 42
0.3223
  0
VERTEX
  8
LAYER_4
 10
334.015
 20
373.697
  0
SEQEND
  0
POLYLINE
  8
LAYER_4
 40
0.105834
 41
0.105834
 66
1
 10
0
 20
0
 30
0
 70
1
  0
VERTEX
  8
LAYER_4
 10
320.235
 20
377.896
 42
0.3178
  0
VERTEX
  8
LAYER_4
 10
319.695
 20
378.436
 42
0.318
  0
VERTEX
  8
LAYER_4
 10
319.155
 20
377.896
 42
0.3186
  0
VERTEX
  8
LAYER_4
 10
319.695
 20
377.356
 42
0.3734
  0
SEQEND
  0
POLYLINE
  8
LAYER_4
 40
0.105834
 41
0.105834
 66
1
 10
0
 20
0
 30
0
 70
1
  0
VERTEX
  8
LAYER_4
 10
336.235
 20
377.896
 42
0.3174
  0
VERTEX
  8
LAYER_4
 10
335.695
 20
378.436
 42
0.3181
  0
VERTEX
  8
LAYER_4
 10
335.155
 20
377.896
 42
0.3585
  0
VERTEX
  8
LAYER_4
 10
335.695
 20
377.356
 42
0.3126
  0
SEQEND
  0
POLYLINE
  8
LAYER_4
 40
0.105834
 41
0.105834
 66
1
 10
0
 20
0
 30
0
 70
1
  0
VERTEX
  8
LAYER_4
 10
349.635
 20
380.496
 42
0.3179
  0
VERTEX
  8
LAYER_4
 10
349.095
 20
381.037
 42
0.3931
  0
VERTEX
  8
LAYER_4
 10
348.555
 20
380.496
 42
0.318
  0
VERTEX
  8
LAYER_4
 10
349.095
 20
379.956
 42
0.3732
  0
SEQEND
  0
POLYLINE
  8
LAYER_4
 40
0.105834
 41
0.105834
 66
1
 10
0
 20
0
 30
0
  0
VERTEX
  8
LAYER_4
 10
346.295
 20
380.438
 42
0.0766
  0
VERTEX
  8
LAYER_4
 10
346.095
 20
380.321
  0
SEQEND
  0
POLYLINE
  8
LAYER_4
 40
0.105834
 41
0.105834
 66
1
 10
0
 20
0
 30
0
  0
VERTEX
  8
LAYER_4
 10
337.696
 20
382.721
 42
0.0787
  0
VERTEX
  8
LAYER_4
 10
337.495
 20
382.838
  0
SEQEND
  0
POLYLINE
  8
LAYER_4
 40
0.105834
 41
0.105834
 66
1
 10
0
 20
0
 30
0
  0
VERTEX
  8
LAYER_4
 10
318.895
 20
380.496
 42
0.1982
  0
VERTEX
  8
LAYER_4
 10
318.295
 20
380.225
  0
SEQEND
  0
POLYLINE
  8
LAYER_4
 40
0.105834
 41
0.105834
 66
1
 10
0
 20
0
 30
0
 70
1
  0
VERTEX
  8
LAYER_4
 10
230.995
 20
378.816
 42
0.3176
  0
VERTEX
  8
LAYER_4
 10
230.295
 20
379.517
 42
0.3186
  0
VERTEX
  8
LAYER_4
 10
229.595
 20
378.816
 42
0.3188
  0
VERTEX
  8
LAYER_4
 10
230.295
 20
378.116
 42
0.3139
  0
SEQEND
  0
POLYLINE
  8
LAYER_4
 40
0.105834
 41
0.105834
 66
1
 10
0
 20
0
 30
0
 70
1
  0
VERTEX
  8
LAYER_4
 10
261.795
 20
378.816
 42
0.3176
  0
VERTEX
  8
LAYER_4
 10
261.095
 20
379.517
 42
0.3744
  0
VERTEX
  8
LAYER_4
 10
260.395
 20
378.816
 42
0.3188
  0
VERTEX
  8
LAYER_4
 10
261.095
 20
378.116
 42
0.3264
  0
SEQEND
  0
POLYLINE
  8
LAYER_4
 40
0.105834
 41
0.105834
 66
1
 10
0
 20
0
 30
0
  0
VERTEX
  8
LAYER_4
 10
252.895
 20
373.249
 42
0.383
  0
VERTEX
  8
LAYER_4
 10
257.895
 20
378.816
 42
0.1027
  0
VERTEX
  8
LAYER_4
 10
257.417
 20
381.081
  0
SEQEND
  0
POLYLINE
  8
LAYER_4
 40
0.105834
 41
0.105834
 66
1
 10
0
 20
0
 30
0
  0
VERTEX
  8
LAYER_4
 10
252.895
 20
375.267
 42
0.3654
  0
VERTEX
  8
LAYER_4
 10
255.895
 20
378.816
 42
0.0891
  0
VERTEX
  8
LAYER_4
 10
255.669
 20
380.072
  0
SEQEND
  0
POLYLINE
  8
LAYER_4
 40
0.105834
 41
0.105834
 66
1
 10
0
 20
0
 30
0
  0
VERTEX
  8
LAYER_4
 10
247.024
 20
380.705
 42
0.0851
  0
VERTEX
  8
LAYER_4
 10
246.695
 20
378.816
 42
0.3825
  0
VERTEX
  8
LAYER_4
 10
251.695
 20
373.249
  0
SEQEND
  0
POLYLINE
  8
LAYER_4
 40
0.105834
 41
0.105834
 66
1
 10
0
 20
0
 30
0
  0
VERTEX
  8
LAYER_4
 10
248.8
 20
379.68
 42
0.0629
  0
VERTEX
  8
LAYER_4
 10
248.695
 20
378.816
 42
0.3505
  0
VERTEX
  8
LAYER_4
 10
251.695
 20
375.267
  0
SEQEND
  0
POLYLINE
  8
LAYER_4
 40
0.105834
 41
0.105834
 66
1
 10
0
 20
0
 30
0
  0
VERTEX
  8
LAYER_4
 10
255.069
 20
381.111
 42
0.2199
  0
VERTEX
  8
LAYER_4
 10
252.295
 20
382.416
 42
0.1868
  0
VERTEX
  8
LAYER_4
 10
249.8
 20
381.412
  0
SEQEND
  0
POLYLINE
  8
LAYER_4
 40
0.105834
 41
0.105834
 66
1
 10
0
 20
0
 30
0
  0
VERTEX
  8
LAYER_4
 10
256.817
 20
382.12
 42
0.2394
  0
VERTEX
  8
LAYER_4
 10
252.295
 20
384.417
 42
0.2203
  0
VERTEX
  8
LAYER_4
 10
248.023
 20
382.437
  0
SEQEND
  0
POLYLINE
  8
LAYER_4
 40
0.105834
 41
0.105834
 66
1
 10
0
 20
0
 30
0
  0
VERTEX
  8
LAYER_4
 10
235.921
 20
376.522
 42
0.2193
  0
VERTEX
  8
LAYER_4
 10
238.695
 20
375.216
 42
0.1872
  0
VERTEX
  8
LAYER_4
 10
241.19
 20
376.221
  0
SEQEND
  0
POLYLINE
  8
LAYER_4
 40
0.105834
 41
0.105834
 66
1
 10
0
 20
0
 30
0
  0
VERTEX
  8
LAYER_4
 10
234.173
 20
375.513
 42
0.2304
  0
VERTEX
  8
LAYER_4
 10
238.695
 20
373.216
 42
0.2169
  0
VERTEX
  8
LAYER_4
 10
242.967
 20
375.195
  0
SEQEND
  0
POLYLINE
  8
LAYER_4
 40
0.105834
 41
0.105834
 66
1
 10
0
 20
0
 30
0
  0
VERTEX
  8
LAYER_4
 10
242.19
 20
377.953
 42
0.0605
  0
VERTEX
  8
LAYER_4
 10
242.295
 20
378.816
 42
0.3657
  0
VERTEX
  8
LAYER_4
 10
239.295
 20
382.366
  0
SEQEND
  0
POLYLINE
  8
LAYER_4
 40
0.105834
 41
0.105834
 66
1
 10
0
 20
0
 30
0
  0
VERTEX
  8
LAYER_4
 10
243.967
 20
376.928
 42
0.0856
  0
VERTEX
  8
LAYER_4
 10
244.295
 20
378.816
 42
0.3831
  0
VERTEX
  8
LAYER_4
 10
239.295
 20
384.384
  0
SEQEND
  0
POLYLINE
  8
LAYER_4
 40
0.105834
 41
0.105834
 66
1
 10
0
 20
0
 30
0
  0
VERTEX
  8
LAYER_4
 10
238.095
 20
382.366
 42
0.3659
  0
VERTEX
  8
LAYER_4
 10
235.095
 20
378.816
 42
0.0892
  0
VERTEX
  8
LAYER_4
 10
235.321
 20
377.561
  0
SEQEND
  0
POLYLINE
  8
LAYER_4
 40
0.105834
 41
0.105834
 66
1
 10
0
 20
0
 30
0
  0
VERTEX
  8
LAYER_4
 10
238.095
 20
384.384
 42
0.3831
  0
VERTEX
  8
LAYER_4
 10
233.095
 20
378.816
 42
0.1028
  0
VERTEX
  8
LAYER_4
 10
233.573
 20
376.552
  0
SEQEND
  0
POLYLINE
  8
LAYER_4
 40
0.105834
 41
0.105834
 66
1
 10
0
 20
0
 30
0
  0
VERTEX
  8
LAYER_4
 10
229.575
 20
384.597
 42
0.3303
  0
VERTEX
  8
LAYER_4
 10
228.775
 20
383.796
  0
SEQEND
  0
POLYLINE
  8
LAYER_4
 40
0.105834
 41
0.105834
 66
1
 10
0
 20
0
 30
0
  0
VERTEX
  8
LAYER_4
 10
228.775
 20
373.837
 42
0.3744
  0
VERTEX
  8
LAYER_4
 10
229.575
 20
373.036
  0
SEQEND
  0
POLYLINE
  8
LAYER_4
 40
0.105834
 41
0.105834
 66
1
 10
0
 20
0
 30
0
  0
VERTEX
  8
LAYER_4
 10
262.615
 20
383.796
 42
0.3299
  0
VERTEX
  8
LAYER_4
 10
261.815
 20
384.597
  0
SEQEND
  0
POLYLINE
  8
LAYER_4
 40
0.105834
 41
0.105834
 66
1
 10
0
 20
0
 30
0
  0
VERTEX
  8
LAYER_4
 10
261.815
 20
373.036
 42
0.3139
  0
VERTEX
  8
LAYER_4
 10
262.615
 20
373.837
  0
SEQEND
  0
POLYLINE
  8
LAYER_4
 40
0.105834
 41
0.105834
 66
1
 10
0
 20
0
 30
0
 70
1
  0
VERTEX
  8
LAYER_4
 10
246.195
 20
378.816
 42
0.3185
  0
VERTEX
  8
LAYER_4
 10
245.495
 20
379.517
 42
0.3296
  0
VERTEX
  8
LAYER_4
 10
244.795
 20
378.816
 42
0.3428
  0
VERTEX
  8
LAYER_4
 10
245.495
 20
378.116
 42
0.3406
  0
SEQEND
  0
POLYLINE
  8
LAYER_4
 40
0.105834
 41
0.105834
 66
1
 10
0
 20
0
 30
0
  0
VERTEX
  8
LAYER_4
 10
333.813
 20
373.108
 42
0.0998
  0
VERTEX
  8
LAYER_4
 10
333.563
 20
373.297
  0
SEQEND
  0
POLYLINE
  8
LAYER_4
 40
0.105834
 41
0.105834
 66
1
 10
0
 20
0
 30
0
  0
VERTEX
  8
LAYER_4
 10
348.825
 20
380.964
 42
0.1008
  0
VERTEX
  8
LAYER_4
 10
348.755
 20
380.617
 42
0.1922
  0
VERTEX
  8
LAYER_4
 10
349.04
 20
379.96
  0
SEQEND
  0
POLYLINE
  8
LAYER_4
 40
0.105834
 41
0.105834
 66
1
 10
0
 20
0
 30
0
  0
VERTEX
  8
LAYER_4
 10
346.175
 20
381.351
 42
0.0261
  0
VERTEX
  8
LAYER_4
 10
346.095
 20
381.402
  0
SEQEND
  0
POLYLINE
  8
LAYER_4
 40
0.105834
 41
0.105834
 66
1
 10
0
 20
0
 30
0
  0
VERTEX
  8
LAYER_4
 10
318.531
 20
380.408
 42
0.0638
  0
VERTEX
  8
LAYER_4
 10
318.555
 20
380.617
 42
0.1745
  0
VERTEX
  8
LAYER_4
 10
318.326
 20
381.217
  0
SEQEND
  0
POLYLINE
  8
LAYER_4
 40
0.105834
 41
0.105834
 66
1
 10
0
 20
0
 30
0
  0
VERTEX
  8
LAYER_4
 10
348.985
 20
375.216
  0
VERTEX
  8
LAYER_4
 10
349.023
 20
375.176
  0
SEQEND
  0
POLYLINE
  8
LAYER_4
 40
0.105834
 41
0.105834
 66
1
 10
0
 20
0
 30
0
  0
VERTEX
  8
LAYER_4
 10
336.208
 20
377.727
 42
0.1642
  0
VERTEX
  8
LAYER_4
 10
335.655
 20
377.916
 42
0.1403
  0
VERTEX
  8
LAYER_4
 10
335.17
 20
377.774
  0
SEQEND
  0
POLYLINE
  8
LAYER_4
 40
0.105834
 41
0.105834
 66
1
 10
0
 20
0
 30
0
  0
VERTEX
  8
LAYER_4
 10
288.067
 20
373.816
 42
0.0964
  0
VERTEX
  8
LAYER_4
 10
288.326
 20
374.016
  0
SEQEND
  0
POLYLINE
  8
LAYER_4
 40
0.105834
 41
0.105834
 66
1
 10
0
 20
0
 30
0
  0
VERTEX
  8
LAYER_4
 10
286.895
 20
374.135
 42
0.1301
  0
VERTEX
  8
LAYER_4
 10
287.243
 20
373.816
  0
SEQEND
  0
POLYLINE
  8
LAYER_4
 40
0.105834
 41
0.105834
 66
1
 10
0
 20
0
 30
0
  0
VERTEX
  8
LAYER_4
 10
290.8
 20
374.897
 42
0.0798
  0
VERTEX
  8
LAYER_4
 10
290.755
 20
374.617
 42
0.1416
  0
VERTEX
  8
LAYER_4
 10
290.895
 20
374.135
  0
SEQEND
  0
POLYLINE
  8
LAYER_4
 40
0.105834
 41
0.105834
 66
1
 10
0
 20
0
 30
0
  0
VERTEX
  8
LAYER_4
 10
320.207
 20
377.727
 42
0.1604
  0
VERTEX
  8
LAYER_4
 10
319.655
 20
377.916
 42
0.1419
  0
VERTEX
  8
LAYER_4
 10
319.17
 20
377.774
  0
SEQEND
  0
POLYLINE
  8
LAYER_4
 40
0.105834
 41
0.105834
 66
1
 10
0
 20
0
 30
0
 70
1
  0
VERTEX
  8
LAYER_4
 10
261.635
 20
378.816
 42
0.3178
  0
VERTEX
  8
LAYER_4
 10
261.095
 20
379.356
 42
0.318
  0
VERTEX
  8
LAYER_4
 10
260.555
 20
378.816
 42
0.3173
  0
VERTEX
  8
LAYER_4
 10
261.095
 20
378.276
 42
0.3732
  0
SEQEND
  0
POLYLINE
  8
LAYER_4
 40
0.105834
 41
0.105834
 66
1
 10
0
 20
0
 30
0
 70
1
  0
VERTEX
  8
LAYER_4
 10
230.835
 20
378.816
 42
0.3184
  0
VERTEX
  8
LAYER_4
 10
230.295
 20
379.356
 42
0.318
  0
VERTEX
  8
LAYER_4
 10
229.755
 20
378.816
 42
0.3173
  0
VERTEX
  8
LAYER_4
 10
230.295
 20
378.276
 42
0.3732
  0
SEQEND
  0
POLYLINE
  8
LAYER_4
 40
0.105834
 41
0.105834
 66
1
 10
0
 20
0
 30
0
 70
1
  0
VERTEX
  8
LAYER_4
 10
320.395
 20
377.896
 42
0.3931
  0
VERTEX
  8
LAYER_4
 10
319.695
 20
378.597
 42
0.3186
  0
VERTEX
  8
LAYER_4
 10
318.995
 20
377.896
 42
0.3308
  0
VERTEX
  8
LAYER_4
 10
319.695
 20
377.196
 42
0.393
  0
SEQEND
  0
POLYLINE
  8
LAYER_4
 40
0.105834
 41
0.105834
 66
1
 10
0
 20
0
 30
0
 70
1
  0
VERTEX
  8
LAYER_4
 10
336.395
 20
377.896
 42
0.3927
  0
VERTEX
  8
LAYER_4
 10
335.695
 20
378.597
 42
0.3303
  0
VERTEX
  8
LAYER_4
 10
334.995
 20
377.896
 42
0.3428
  0
VERTEX
  8
LAYER_4
 10
335.695
 20
377.196
 42
0.3406
  0
SEQEND
  0
POLYLINE
  8
LAYER_4
 40
0.105834
 41
0.105834
 66
1
 10
0
 20
0
 30
0
 70
1
  0
VERTEX
  8
LAYER_4
 10
349.795
 20
380.496
 42
0.3927
  0
VERTEX
  8
LAYER_4
 10
349.095
 20
381.197
 42
0.3303
  0
VERTEX
  8
LAYER_4
 10
348.395
 20
380.496
 42
0.3305
  0
VERTEX
  8
LAYER_4
 10
349.095
 20
379.796
 42
0.3552
  0
SEQEND
  0
POLYLINE
  8
LAYER_4
 40
0.105834
 41
0.105834
 66
1
 10
0
 20
0
 30
0
  0
VERTEX
  8
LAYER_4
 10
348.155
 20
374.696
 42
0.316
  0
VERTEX
  8
LAYER_4
 10
348.555
 20
374.296
  0
SEQEND
  0
POLYLINE
  8
LAYER_4
 40
0.105834
 41
0.105834
 66
1
 10
0
 20
0
 30
0
  0
VERTEX
  8
LAYER_4
 10
349.635
 20
374.296
 42
0.3927
  0
VERTEX
  8
LAYER_4
 10
350.035
 20
374.696
  0
SEQEND
  0
POLYLINE
  8
LAYER_4
 40
0.105834
 41
0.105834
 66
1
 10
0
 20
0
 30
0
 70
1
  0
VERTEX
  8
LAYER_4
 10
205.595
 20
377.34
 42
0.3189
  0
VERTEX
  8
LAYER_4
 10
204.895
 20
378.04
 42
0.3302
  0
VERTEX
  8
LAYER_4
 10
204.195
 20
377.34
 42
0.3178
  0
VERTEX
  8
LAYER_4
 10
204.895
 20
376.641
 42
0.3735
  0
SEQEND
  0
POLYLINE
  8
LAYER_4
 40
0.105834
 41
0.105834
 66
1
 10
0
 20
0
 30
0
 70
1
  0
VERTEX
  8
LAYER_4
 10
274.635
 20
374.016
 42
0.3931
  0
VERTEX
  8
LAYER_4
 10
274.095
 20
374.556
 42
0.3748
  0
VERTEX
  8
LAYER_4
 10
273.555
 20
374.016
 42
0.33
  0
VERTEX
  8
LAYER_4
 10
274.095
 20
373.477
 42
0.313
  0
SEQEND
  0
POLYLINE
  8
LAYER_4
 40
0.105834
 41
0.105834
 66
1
 10
0
 20
0
 30
0
  0
VERTEX
  8
LAYER_4
 10
232.58
 20
384.596
 42
0.2897
  0
VERTEX
  8
LAYER_4
 10
232.855
 20
384.977
  0
SEQEND
  0
POLYLINE
  8
LAYER_4
 40
0.105834
 41
0.105834
 66
1
 10
0
 20
0
 30
0
  0
VERTEX
  8
LAYER_4
 10
319.895
 20
379.616
 42
0.3124
  0
VERTEX
  8
LAYER_4
 10
320.295
 20
380.016
  0
SEQEND
  0
POLYLINE
  8
LAYER_4
 40
0.105834
 41
0.105834
 66
1
 10
0
 20
0
 30
0
  0
VERTEX
  8
LAYER_4
 10
318.295
 20
380.016
 42
0.3177
  0
VERTEX
  8
LAYER_4
 10
318.695
 20
379.616
  0
SEQEND
  0
POLYLINE
  8
LAYER_4
 40
0.105834
 41
0.105834
 66
1
 10
0
 20
0
 30
0
  0
VERTEX
  8
LAYER_4
 10
321.095
 20
373.697
 42
0.3573
  0
VERTEX
  8
LAYER_4
 10
321.695
 20
373.097
  0
SEQEND
  0
POLYLINE
  8
LAYER_4
 40
0.105834
 41
0.105834
 66
1
 10
0
 20
0
 30
0
  0
VERTEX
  8
LAYER_4
 10
321.695
 20
382.696
 42
0.3742
  0
VERTEX
  8
LAYER_4
 10
321.095
 20
382.097
  0
SEQEND
  0
POLYLINE
  8
LAYER_4
 40
0.105834
 41
0.105834
 66
1
 10
0
 20
0
 30
0
  0
VERTEX
  8
LAYER_4
 10
334.295
 20
382.097
 42
0.3935
  0
VERTEX
  8
LAYER_4
 10
333.695
 20
382.696
  0
SEQEND
  0
POLYLINE
  8
LAYER_4
 40
0.105834
 41
0.105834
 66
1
 10
0
 20
0
 30
0
  0
VERTEX
  8
LAYER_4
 10
333.695
 20
373.097
 42
0.3139
  0
VERTEX
  8
LAYER_4
 10
334.295
 20
373.697
  0
SEQEND
  0
POLYLINE
  8
LAYER_4
 40
0.105834
 41
0.105834
 66
1
 10
0
 20
0
 30
0
  0
VERTEX
  8
LAYER_4
 10
290.495
 20
372.896
 42
0.3116
  0
VERTEX
  8
LAYER_4
 10
290.895
 20
373.297
  0
SEQEND
  0
POLYLINE
  8
LAYER_4
 40
0.105834
 41
0.105834
 66
1
 10
0
 20
0
 30
0
  0
VERTEX
  8
LAYER_4
 10
286.895
 20
373.297
 42
0.3161
  0
VERTEX
  8
LAYER_4
 10
287.295
 20
372.896
  0
SEQEND
  0
POLYLINE
  8
LAYER_4
 40
0.105834
 41
0.105834
 66
1
 10
0
 20
0
 30
0
  0
VERTEX
  8
LAYER_4
 10
352.495
 20
386.736
 42
0.329
  0
VERTEX
  8
LAYER_4
 10
352.015
 20
387.217
  0
SEQEND
  0
POLYLINE
  8
LAYER_4
 40
0.105834
 41
0.105834
 66
1
 10
0
 20
0
 30
0
  0
VERTEX
  8
LAYER_4
 10
187.375
 20
387.217
 42
0.3292
  0
VERTEX
  8
LAYER_4
 10
186.895
 20
386.736
  0
SEQEND
  0
POLYLINE
  8
LAYER_4
 40
0.105834
 41
0.105834
 66
1
 10
0
 20
0
 30
0
  0
VERTEX
  8
LAYER_4
 10
354.295
 20
381.417
 42
0.3292
  0
VERTEX
  8
LAYER_4
 10
353.695
 20
382.016
  0
SEQEND
  0
POLYLINE
  8
LAYER_4
 40
0.105834
 41
0.105834
 66
1
 10
0
 20
0
 30
0
  0
VERTEX
  8
LAYER_4
 10
185.695
 20
382.016
 42
0.319
  0
VERTEX
  8
LAYER_4
 10
185.095
 20
381.417
  0
SEQEND
  0
POLYLINE
  8
LAYER_4
 40
0.105834
 41
0.105834
 66
1
 10
0
 20
0
 30
0
  0
VERTEX
  8
LAYER_4
 10
185.095
 20
370.817
 42
0.3744
  0
VERTEX
  8
LAYER_4
 10
185.895
 20
370.016
  0
SEQEND
  0
POLYLINE
  8
LAYER_4
 40
0.105834
 41
0.105834
 66
1
 10
0
 20
0
 30
0
  0
VERTEX
  8
LAYER_4
 10
353.495
 20
370.016
 42
0.3137
  0
VERTEX
  8
LAYER_4
 10
354.295
 20
370.817
  0
SEQEND
  0
POLYLINE
  8
LAYER_4
 40
0.105834
 41
0.105834
 66
1
 10
0
 20
0
 30
0
  0
VERTEX
  8
LAYER_4
 10
186.295
 20
382.016
 42
0.3103
  0
VERTEX
  8
LAYER_4
 10
186.495
 20
382.216
  0
SEQEND
  0
POLYLINE
  8
LAYER_4
 40
0.105834
 41
0.105834
 66
1
 10
0
 20
0
 30
0
  0
VERTEX
  8
LAYER_4
 10
352.895
 20
382.216
 42
0.3149
  0
VERTEX
  8
LAYER_4
 10
353.095
 20
382.016
  0
SEQEND
  0
POLYLINE
  8
LAYER_4
 40
0.105834
 41
0.105834
 66
1
 10
0
 20
0
 30
0
  0
VERTEX
  8
LAYER_4
 10
189.061
 20
372.416
 42
0.1338
  0
VERTEX
  8
LAYER_4
 10
188.649
 20
372.302
  0
SEQEND
  0
POLYLINE
  8
LAYER_4
 40
0.105834
 41
0.105834
 66
1
 10
0
 20
0
 30
0
  0
VERTEX
  8
LAYER_4
 10
352.495
 20
382.216
 42
0.318
  0
VERTEX
  8
LAYER_4
 10
353.095
 20
381.616
  0
SEQEND
  0
POLYLINE
  8
LAYER_4
 40
0.105834
 41
0.105834
 66
1
 10
0
 20
0
 30
0
  0
VERTEX
  8
LAYER_4
 10
186.295
 20
381.616
 42
0.3134
  0
VERTEX
  8
LAYER_4
 10
186.895
 20
382.216
  0
SEQEND
  0
POLYLINE
  8
LAYER_4
 40
0.105834
 41
0.105834
 66
1
 10
0
 20
0
 30
0
  0
VERTEX
  8
LAYER_4
 10
350.741
 20
372.302
 42
0.1313
  0
VERTEX
  8
LAYER_4
 10
350.329
 20
372.416
  0
SEQEND
  0
POLYLINE
  8
LAYER_4
 40
0.105834
 41
0.105834
 66
1
 10
0
 20
0
 30
0
  0
VERTEX
  8
LAYER_4
 10
353.495
 20
370.416
 42
0.3118
  0
VERTEX
  8
LAYER_4
 10
353.895
 20
370.817
  0
SEQEND
  0
POLYLINE
  8
LAYER_4
 40
0.105834
 41
0.105834
 66
1
 10
0
 20
0
 30
0
  0
VERTEX
  8
LAYER_4
 10
185.495
 20
370.817
 42
0.3178
  0
VERTEX
  8
LAYER_4
 10
185.895
 20
370.416
  0
SEQEND
  0
POLYLINE
  8
LAYER_4
 40
0.105834
 41
0.105834
 66
1
 10
0
 20
0
 30
0
  0
VERTEX
  8
LAYER_4
 10
185.695
 20
381.616
 42
0.3144
  0
VERTEX
  8
LAYER_4
 10
185.495
 20
381.417
  0
SEQEND
  0
POLYLINE
  8
LAYER_4
 40
0.105834
 41
0.105834
 66
1
 10
0
 20
0
 30
0
  0
VERTEX
  8
LAYER_4
 10
353.895
 20
381.417
 42
0.3278
  0
VERTEX
  8
LAYER_4
 10
353.695
 20
381.616
  0
SEQEND
  0
POLYLINE
  8
LAYER_4
 40
0.105834
 41
0.105834
 66
1
 10
0
 20
0
 30
0
  0
VERTEX
  8
LAYER_4
 10
276.095
 20
374.016
 42
0.4142
  0
VERTEX
  8
LAYER_4
 10
274.095
 20
376.016
 42
0.4142
  0
VERTEX
  8
LAYER_4
 10
272.095
 20
374.016
  0
SEQEND
  0
POLYLINE
  8
LAYER_4
 40
0.105834
 41
0.105834
 66
1
 10
0
 20
0
 30
0
  0
VERTEX
  8
LAYER_4
 10
188.295
 20
380.016
 42
0.3189
  0
VERTEX
  8
LAYER_4
 10
187.495
 20
380.816
  0
SEQEND
  0
POLYLINE
  8
LAYER_4
 40
0.105834
 41
0.105834
 66
1
 10
0
 20
0
 30
0
  0
VERTEX
  8
LAYER_4
 10
187.907
 20
372.51
 42
0.2571
  0
VERTEX
  8
LAYER_4
 10
188.295
 20
373.196
  0
SEQEND
  0
POLYLINE
  8
LAYER_4
 40
0.105834
 41
0.105834
 66
1
 10
0
 20
0
 30
0
  0
VERTEX
  8
LAYER_4
 10
351.895
 20
380.816
 42
0.3745
  0
VERTEX
  8
LAYER_4
 10
351.095
 20
380.016
  0
SEQEND
  0
POLYLINE
  8
LAYER_4
 40
0.105834
 41
0.105834
 66
1
 10
0
 20
0
 30
0
  0
VERTEX
  8
LAYER_4
 10
351.095
 20
373.196
 42
0.2353
  0
VERTEX
  8
LAYER_4
 10
351.484
 20
372.51
  0
SEQEND
  0
POLYLINE
  8
LAYER_4
 40
0.105834
 41
0.105834
 66
1
 10
0
 20
0
 30
0
 70
1
  0
VERTEX
  8
LAYER_4
 10
274.895
 20
374.016
 42
0.3438
  0
VERTEX
  8
LAYER_4
 10
274.095
 20
374.817
 42
0.3303
  0
VERTEX
  8
LAYER_4
 10
273.295
 20
374.016
 42
0.3578
  0
VERTEX
  8
LAYER_4
 10
274.095
 20
373.216
 42
0.3568
  0
SEQEND
  0
POLYLINE
  8
LAYER_4
 40
0.105834
 41
0.105834
 66
1
 10
0
 20
0
 30
0
  0
VERTEX
  8
LAYER_4
 10
351.495
 20
58.5039
 42
0.3549
  0
VERTEX
  8
LAYER_4
 10
351.895
 20
58.9039
  0
SEQEND
  0
POLYLINE
  8
LAYER_4
 40
0.105834
 41
0.105834
 66
1
 10
0
 20
0
 30
0
  0
VERTEX
  8
LAYER_4
 10
341.895
 20
58.9039
 42
0.3587
  0
VERTEX
  8
LAYER_4
 10
342.295
 20
58.5039
  0
SEQEND
  0
POLYLINE
  8
LAYER_4
 40
0.105834
 41
0.105834
 66
1
 10
0
 20
0
 30
0
  0
VERTEX
  8
LAYER_4
 10
197.095
 20
58.5039
 42
0.3924
  0
VERTEX
  8
LAYER_4
 10
197.495
 20
58.9039
  0
SEQEND
  0
POLYLINE
  8
LAYER_4
 40
0.105834
 41
0.105834
 66
1
 10
0
 20
0
 30
0
  0
VERTEX
  8
LAYER_4
 10
187.495
 20
58.9039
 42
0.3428
  0
VERTEX
  8
LAYER_4
 10
187.895
 20
58.5039
  0
SEQEND
  0
POLYLINE
  8
LAYER_4
 40
0.105834
 41
0.105834
 66
1
 10
0
 20
0
 30
0
  0
VERTEX
  8
LAYER_4
 10
191.347
 20
68.0972
 42
0.0173
  0
VERTEX
  8
LAYER_4
 10
191.493
 20
67.7524
  0
SEQEND
  0
POLYLINE
  8
LAYER_4
 40
0.105834
 41
0.105834
 66
1
 10
0
 20
0
 30
0
  0
VERTEX
  8
LAYER_4
 10
191.493
 20
72.4556
 42
0.0168
  0
VERTEX
  8
LAYER_4
 10
191.347
 20
72.1111
  0
SEQEND
  0
POLYLINE
  8
LAYER_4
 40
0.105834
 41
0.105834
 66
1
 10
0
 20
0
 30
0
  0
VERTEX
  8
LAYER_4
 10
204.787
 20
67.7741
 42
0.1059
  0
VERTEX
  8
LAYER_4
 10
205.295
 20
70.104
 42
0.106
  0
VERTEX
  8
LAYER_4
 10
204.787
 20
72.4339
  0
SEQEND
  0
POLYLINE
  8
LAYER_4
 40
0.105834
 41
0.105834
 66
1
 10
0
 20
0
 30
0
  0
VERTEX
  8
LAYER_4
 10
191.069
 20
69.2041
 42
0.0509
  0
VERTEX
  8
LAYER_4
 10
191.367
 20
68.1041
  0
SEQEND
  0
POLYLINE
  8
LAYER_4
 40
0.105834
 41
0.105834
 66
1
 10
0
 20
0
 30
0
  0
VERTEX
  8
LAYER_4
 10
191.004
 20
70.4041
 42
0.0138
  0
VERTEX
  8
LAYER_4
 10
190.996
 20
70.104
 42
0.013
  0
VERTEX
  8
LAYER_4
 10
191.004
 20
69.8039
  0
SEQEND
  0
POLYLINE
  8
LAYER_4
 40
0.105834
 41
0.105834
 66
1
 10
0
 20
0
 30
0
  0
VERTEX
  8
LAYER_4
 10
191.367
 20
72.1039
 42
0.0511
  0
VERTEX
  8
LAYER_4
 10
191.069
 20
71.0042
  0
SEQEND
  0
POLYLINE
  8
LAYER_4
 40
0.105834
 41
0.105834
 66
1
 10
0
 20
0
 30
0
  0
VERTEX
  8
LAYER_4
 10
191.511
 20
67.7737
  0
VERTEX
  8
LAYER_4
 10
191.524
 20
67.7441
  0
SEQEND
  0
POLYLINE
  8
LAYER_4
 40
0.105834
 41
0.105834
 66
1
 10
0
 20
0
 30
0
  0
VERTEX
  8
LAYER_4
 10
191.524
 20
72.4639
  0
VERTEX
  8
LAYER_4
 10
191.511
 20
72.4343
  0
SEQEND
  0
POLYLINE
  8
LAYER_4
 40
0.105834
 41
0.105834
 66
1
 10
0
 20
0
 30
0
  0
VERTEX
  8
LAYER_4
 10
204.49
 20
67.7989
 42
0.1102
  0
VERTEX
  8
LAYER_4
 10
205.015
 20
70.104
 42
0.1109
  0
VERTEX
  8
LAYER_4
 10
204.49
 20
72.4095
  0
SEQEND
  0
POLYLINE
  8
LAYER_4
 40
0.105834
 41
0.105834
 66
1
 10
0
 20
0
 30
0
  0
VERTEX
  8
LAYER_4
 10
204.786
 20
67.7827
 42
0.1055
  0
VERTEX
  8
LAYER_4
 10
205.291
 20
70.104
 42
0.1054
  0
VERTEX
  8
LAYER_4
 10
204.786
 20
72.4253
  0
SEQEND
  0
POLYLINE
  8
LAYER_4
 40
0.105834
 41
0.105834
 66
1
 10
0
 20
0
 30
0
  0
VERTEX
  8
LAYER_4
 10
191.781
 20
72.4105
 42
0.1108
  0
VERTEX
  8
LAYER_4
 10
191.255
 20
70.104
 42
0.1108
  0
VERTEX
  8
LAYER_4
 10
191.781
 20
67.7975
  0
SEQEND
  0
POLYLINE
  8
LAYER_4
 40
0.105834
 41
0.105834
 66
1
 10
0
 20
0
 30
0
  0
VERTEX
  8
LAYER_4
 10
334.547
 20
68.0972
 42
0.0186
  0
VERTEX
  8
LAYER_4
 10
334.693
 20
67.7524
  0
SEQEND
  0
POLYLINE
  8
LAYER_4
 40
0.105834
 41
0.105834
 66
1
 10
0
 20
0
 30
0
  0
VERTEX
  8
LAYER_4
 10
334.693
 20
72.4556
 42
0.0168
  0
VERTEX
  8
LAYER_4
 10
334.547
 20
72.1111
  0
SEQEND
  0
POLYLINE
  8
LAYER_4
 40
0.105834
 41
0.105834
 66
1
 10
0
 20
0
 30
0
  0
VERTEX
  8
LAYER_4
 10
347.987
 20
67.7741
 42
0.1054
  0
VERTEX
  8
LAYER_4
 10
348.495
 20
70.104
 42
0.106
  0
VERTEX
  8
LAYER_4
 10
347.987
 20
72.4339
  0
SEQEND
  0
POLYLINE
  8
LAYER_4
 40
0.105834
 41
0.105834
 66
1
 10
0
 20
0
 30
0
  0
VERTEX
  8
LAYER_4
 10
334.269
 20
69.2041
 42
0.0518
  0
VERTEX
  8
LAYER_4
 10
334.567
 20
68.1041
  0
SEQEND
  0
POLYLINE
  8
LAYER_4
 40
0.105834
 41
0.105834
 66
1
 10
0
 20
0
 30
0
  0
VERTEX
  8
LAYER_4
 10
334.204
 20
70.4041
 42
0.0138
  0
VERTEX
  8
LAYER_4
 10
334.196
 20
70.104
 42
0.0134
  0
VERTEX
  8
LAYER_4
 10
334.204
 20
69.8039
  0
SEQEND
  0
POLYLINE
  8
LAYER_4
 40
0.105834
 41
0.105834
 66
1
 10
0
 20
0
 30
0
  0
VERTEX
  8
LAYER_4
 10
334.567
 20
72.1039
 42
0.0511
  0
VERTEX
  8
LAYER_4
 10
334.269
 20
71.0042
  0
SEQEND
  0
POLYLINE
  8
LAYER_4
 40
0.105834
 41
0.105834
 66
1
 10
0
 20
0
 30
0
  0
VERTEX
  8
LAYER_4
 10
334.711
 20
67.7737
  0
VERTEX
  8
LAYER_4
 10
334.724
 20
67.7441
  0
SEQEND
  0
POLYLINE
  8
LAYER_4
 40
0.105834
 41
0.105834
 66
1
 10
0
 20
0
 30
0
  0
VERTEX
  8
LAYER_4
 10
334.724
 20
72.4639
  0
VERTEX
  8
LAYER_4
 10
334.711
 20
72.4343
  0
SEQEND
  0
POLYLINE
  8
LAYER_4
 40
0.105834
 41
0.105834
 66
1
 10
0
 20
0
 30
0
  0
VERTEX
  8
LAYER_4
 10
347.69
 20
67.7989
 42
0.1103
  0
VERTEX
  8
LAYER_4
 10
348.215
 20
70.104
 42
0.1109
  0
VERTEX
  8
LAYER_4
 10
347.69
 20
72.4095
  0
SEQEND
  0
POLYLINE
  8
LAYER_4
 40
0.105834
 41
0.105834
 66
1
 10
0
 20
0
 30
0
  0
VERTEX
  8
LAYER_4
 10
347.986
 20
67.7827
 42
0.1061
  0
VERTEX
  8
LAYER_4
 10
348.491
 20
70.104
 42
0.1061
  0
VERTEX
  8
LAYER_4
 10
347.986
 20
72.4253
  0
SEQEND
  0
POLYLINE
  8
LAYER_4
 40
0.105834
 41
0.105834
 66
1
 10
0
 20
0
 30
0
  0
VERTEX
  8
LAYER_4
 10
334.981
 20
72.4105
 42
0.1108
  0
VERTEX
  8
LAYER_4
 10
334.455
 20
70.104
 42
0.1103
  0
VERTEX
  8
LAYER_4
 10
334.981
 20
67.7975
  0
SEQEND
  0
POLYLINE
  8
LAYER_4
 40
0.105834
 41
0.105834
 66
1
 10
0
 20
0
 30
0
  0
VERTEX
  8
LAYER_4
 10
334.378
 20
71.5437
 42
0.011
  0
VERTEX
  8
LAYER_4
 10
334.321
 20
71.3039
  0
SEQEND
  0
POLYLINE
  8
LAYER_4
 40
0.105834
 41
0.105834
 66
1
 10
0
 20
0
 30
0
  0
VERTEX
  8
LAYER_4
 10
334.062
 20
71.2633
 42
0.0489
  0
VERTEX
  8
LAYER_4
 10
333.948
 20
70.104
 42
0.049
  0
VERTEX
  8
LAYER_4
 10
334.062
 20
68.9451
  0
SEQEND
  0
POLYLINE
  8
LAYER_4
 40
0.105834
 41
0.105834
 66
1
 10
0
 20
0
 30
0
  0
VERTEX
  8
LAYER_4
 10
334.321
 20
68.9041
 42
0.0106
  0
VERTEX
  8
LAYER_4
 10
334.378
 20
68.6643
  0
SEQEND
  0
POLYLINE
  8
LAYER_4
 40
0.105834
 41
0.105834
 66
1
 10
0
 20
0
 30
0
  0
VERTEX
  8
LAYER_4
 10
334.364
 20
72.6179
 42
0.1065
  0
VERTEX
  8
LAYER_4
 10
333.819
 20
70.104
 42
0.1065
  0
VERTEX
  8
LAYER_4
 10
334.364
 20
67.5901
  0
SEQEND
  0
POLYLINE
  8
LAYER_4
 40
0.105834
 41
0.105834
 66
1
 10
0
 20
0
 30
0
  0
VERTEX
  8
LAYER_4
 10
347.394
 20
67.7041
 42
-0.0106
  0
VERTEX
  8
LAYER_4
 10
347.313
 20
67.525
 42
-0.049
  0
VERTEX
  8
LAYER_4
 10
347.379
 20
67.7041
  0
SEQEND
  0
POLYLINE
  8
LAYER_4
 40
0.105834
 41
0.105834
 66
1
 10
0
 20
0
 30
0
  0
VERTEX
  8
LAYER_4
 10
347.302
 20
72.6727
 42
-0.0061
  0
VERTEX
  8
LAYER_4
 10
347.379
 20
72.5042
 42
0.071
  0
VERTEX
  8
LAYER_4
 10
347.313
 20
72.683
  0
SEQEND
  0
POLYLINE
  8
LAYER_4
 40
0.105834
 41
0.105834
 66
1
 10
0
 20
0
 30
0
  0
VERTEX
  8
LAYER_4
 10
348.229
 20
67.5901
 42
0.1065
  0
VERTEX
  8
LAYER_4
 10
348.773
 20
70.104
 42
0.1065
  0
VERTEX
  8
LAYER_4
 10
348.229
 20
72.6179
  0
SEQEND
  0
POLYLINE
  8
LAYER_4
 40
0.105834
 41
0.105834
 66
1
 10
0
 20
0
 30
0
  0
VERTEX
  8
LAYER_4
 10
334.436
 20
72.5848
 42
0.1052
  0
VERTEX
  8
LAYER_4
 10
333.899
 20
70.104
 42
0.1055
  0
VERTEX
  8
LAYER_4
 10
334.436
 20
67.6232
  0
SEQEND
  0
POLYLINE
  8
LAYER_4
 40
0.105834
 41
0.105834
 66
1
 10
0
 20
0
 30
0
  0
VERTEX
  8
LAYER_4
 10
348.144
 20
67.6425
 42
0.1045
  0
VERTEX
  8
LAYER_4
 10
348.674
 20
70.104
 42
0.1044
  0
VERTEX
  8
LAYER_4
 10
348.144
 20
72.5655
  0
SEQEND
  0
POLYLINE
  8
LAYER_4
 40
0.105834
 41
0.105834
 66
1
 10
0
 20
0
 30
0
  0
VERTEX
  8
LAYER_4
 10
348.156
 20
67.6232
 42
0.1051
  0
VERTEX
  8
LAYER_4
 10
348.693
 20
70.104
 42
0.1051
  0
VERTEX
  8
LAYER_4
 10
348.156
 20
72.5848
  0
SEQEND
  0
POLYLINE
  8
LAYER_4
 40
0.105834
 41
0.105834
 66
1
 10
0
 20
0
 30
0
  0
VERTEX
  8
LAYER_4
 10
204.956
 20
67.6232
 42
0.1051
  0
VERTEX
  8
LAYER_4
 10
205.493
 20
70.104
 42
0.1055
  0
VERTEX
  8
LAYER_4
 10
204.956
 20
72.5848
  0
SEQEND
  0
POLYLINE
  8
LAYER_4
 40
0.105834
 41
0.105834
 66
1
 10
0
 20
0
 30
0
  0
VERTEX
  8
LAYER_4
 10
354.044
 20
159.34
  0
VERTEX
  8
LAYER_4
 10
354.035
 20
159.34
  0
VERTEX
  8
LAYER_4
 10
354.015
 20
159.34
  0
VERTEX
  8
LAYER_4
 10
353.981
 20
159.341
  0
VERTEX
  8
LAYER_4
 10
353.942
 20
159.342
  0
VERTEX
  8
LAYER_4
 10
353.894
 20
159.344
  0
VERTEX
  8
LAYER_4
 10
353.844
 20
159.347
 42
0.0027
  0
VERTEX
  8
LAYER_4
 10
353.944
 20
161.473
 42
0.0029
  0
VERTEX
  8
LAYER_4
 10
354.018
 20
163.619
 42
0.0033
  0
VERTEX
  8
LAYER_4
 10
354.07
 20
165.785
 42
0.0031
  0
VERTEX
  8
LAYER_4
 10
354.096
 20
167.95
  0
SEQEND
  0
POLYLINE
  8
LAYER_4
 40
0.105834
 41
0.105834
 66
1
 10
0
 20
0
 30
0
  0
VERTEX
  8
LAYER_4
 10
299.695
 20
159.15
  0
VERTEX
  8
LAYER_4
 10
299.695
 20
159.161
  0
VERTEX
  8
LAYER_4
 10
299.694
 20
159.18
  0
VERTEX
  8
LAYER_4
 10
299.693
 20
159.211
  0
VERTEX
  8
LAYER_4
 10
299.692
 20
159.251
  0
VERTEX
  8
LAYER_4
 10
299.69
 20
159.297
  0
VERTEX
  8
LAYER_4
 10
299.688
 20
159.347
  0
SEQEND
  0
POLYLINE
  8
LAYER_4
 40
0.105834
 41
0.105834
 66
1
 10
0
 20
0
 30
0
  0
VERTEX
  8
LAYER_4
 10
185.347
 20
159.34
  0
VERTEX
  8
LAYER_4
 10
185.355
 20
159.34
  0
VERTEX
  8
LAYER_4
 10
185.376
 20
159.34
  0
VERTEX
  8
LAYER_4
 10
185.409
 20
159.341
  0
VERTEX
  8
LAYER_4
 10
185.448
 20
159.342
  0
VERTEX
  8
LAYER_4
 10
185.496
 20
159.344
  0
VERTEX
  8
LAYER_4
 10
185.546
 20
159.347
  0
VERTEX
  8
LAYER_4
 10
185.546
 20
159.297
  0
VERTEX
  8
LAYER_4
 10
185.546
 20
159.251
  0
VERTEX
  8
LAYER_4
 10
185.546
 20
159.211
  0
VERTEX
  8
LAYER_4
 10
185.546
 20
159.18
  0
VERTEX
  8
LAYER_4
 10
185.546
 20
159.161
  0
VERTEX
  8
LAYER_4
 10
185.546
 20
159.15
  0
SEQEND
  0
POLYLINE
  8
LAYER_4
 40
0.105834
 41
0.105834
 66
1
 10
0
 20
0
 30
0
  0
VERTEX
  8
LAYER_4
 10
299.688
 20
159.347
 42
-0.0083
  0
VERTEX
  8
LAYER_4
 10
305.838
 20
159.667
 42
-0.0083
  0
VERTEX
  8
LAYER_4
 10
311.997
 20
159.774
 42
-0.0098
  0
VERTEX
  8
LAYER_4
 10
318.156
 20
159.674
 42
-0.0086
  0
VERTEX
  8
LAYER_4
 10
324.306
 20
159.36
  0
SEQEND
  0
POLYLINE
  8
LAYER_4
 40
0.105834
 41
0.105834
 66
1
 10
0
 20
0
 30
0
  0
VERTEX
  8
LAYER_4
 10
185.546
 20
159.348
 42
-0.0022
  0
VERTEX
  8
LAYER_4
 10
185.447
 20
161.474
 42
-0.0032
  0
VERTEX
  8
LAYER_4
 10
185.372
 20
163.619
 42
-0.0029
  0
VERTEX
  8
LAYER_4
 10
185.32
 20
165.785
 42
-0.0031
  0
VERTEX
  8
LAYER_4
 10
185.294
 20
167.95
  0
SEQEND
  0
POLYLINE
  8
LAYER_4
 40
0.105834
 41
0.105834
 66
1
 10
0
 20
0
 30
0
  0
VERTEX
  8
LAYER_4
 10
302.495
 20
159.15
  0
VERTEX
  8
LAYER_4
 10
302.495
 20
159.161
  0
VERTEX
  8
LAYER_4
 10
302.494
 20
159.18
  0
VERTEX
  8
LAYER_4
 10
302.493
 20
159.211
  0
VERTEX
  8
LAYER_4
 10
302.492
 20
159.251
  0
VERTEX
  8
LAYER_4
 10
302.49
 20
159.288
  0
VERTEX
  8
LAYER_4
 10
302.489
 20
159.319
  0
VERTEX
  8
LAYER_4
 10
302.488
 20
159.347
 42
-0.0083
  0
VERTEX
  8
LAYER_4
 10
308.638
 20
159.667
 42
-0.0088
  0
VERTEX
  8
LAYER_4
 10
314.797
 20
159.771
 42
-0.0067
  0
VERTEX
  8
LAYER_4
 10
320.025
 20
159.702
 42
-0.0053
  0
VERTEX
  8
LAYER_4
 10
324.315
 20
159.528
  0
VERTEX
  8
LAYER_4
 10
324.515
 20
159.518
 42
-0.0035
  0
VERTEX
  8
LAYER_4
 10
327.106
 20
159.36
  0
SEQEND
  0
POLYLINE
  8
LAYER_4
 40
0.105834
 41
0.105834
 66
1
 10
0
 20
0
 30
0
  0
VERTEX
  8
LAYER_4
 10
299.942
 20
183.55
 42
0.0315
  0
VERTEX
  8
LAYER_4
 10
299.918
 20
183.932
 42
0.0322
  0
VERTEX
  8
LAYER_4
 10
299.845
 20
184.308
 42
0.0324
  0
VERTEX
  8
LAYER_4
 10
299.727
 20
184.672
 42
0.0297
  0
VERTEX
  8
LAYER_4
 10
299.565
 20
185.018
 42
0.0351
  0
VERTEX
  8
LAYER_4
 10
299.36
 20
185.341
 42
0.024
  0
VERTEX
  8
LAYER_4
 10
299.115
 20
185.636
 42
0.035
  0
VERTEX
  8
LAYER_4
 10
298.837
 20
185.897
 42
0.0244
  0
VERTEX
  8
LAYER_4
 10
298.527
 20
186.123
 42
0.0358
  0
VERTEX
  8
LAYER_4
 10
298.192
 20
186.307
 42
0.0191
  0
VERTEX
  8
LAYER_4
 10
297.836
 20
186.447
 42
0.0357
  0
VERTEX
  8
LAYER_4
 10
297.466
 20
186.542
 42
0.0188
  0
VERTEX
  8
LAYER_4
 10
297.086
 20
186.591
 42
0.0363
  0
VERTEX
  8
LAYER_4
 10
296.704
 20
186.591
 42
0.0182
  0
VERTEX
  8
LAYER_4
 10
296.324
 20
186.542
 42
0.0358
  0
VERTEX
  8
LAYER_4
 10
295.954
 20
186.447
 42
0.0218
  0
VERTEX
  8
LAYER_4
 10
295.598
 20
186.307
 42
0.038
  0
VERTEX
  8
LAYER_4
 10
295.263
 20
186.123
 42
0.0209
  0
VERTEX
  8
LAYER_4
 10
294.954
 20
185.897
 42
0.0339
  0
VERTEX
  8
LAYER_4
 10
294.675
 20
185.636
 42
0.0217
  0
VERTEX
  8
LAYER_4
 10
294.431
 20
185.341
 42
0.039
  0
VERTEX
  8
LAYER_4
 10
294.226
 20
185.018
 42
0.0312
  0
VERTEX
  8
LAYER_4
 10
294.063
 20
184.672
 42
0.0338
  0
VERTEX
  8
LAYER_4
 10
293.945
 20
184.308
 42
0.0266
  0
VERTEX
  8
LAYER_4
 10
293.873
 20
183.932
 42
0.0311
  0
VERTEX
  8
LAYER_4
 10
293.849
 20
183.55
 42
0.0303
  0
VERTEX
  8
LAYER_4
 10
293.873
 20
183.168
 42
0.0324
  0
VERTEX
  8
LAYER_4
 10
293.945
 20
182.793
 42
0.0338
  0
VERTEX
  8
LAYER_4
 10
294.063
 20
182.429
 42
0.0324
  0
VERTEX
  8
LAYER_4
 10
294.226
 20
182.083
 42
0.0351
  0
VERTEX
  8
LAYER_4
 10
294.431
 20
181.76
 42
0.0252
  0
VERTEX
  8
LAYER_4
 10
294.675
 20
181.465
 42
0.035
  0
VERTEX
  8
LAYER_4
 10
294.954
 20
181.203
 42
0.0303
  0
VERTEX
  8
LAYER_4
 10
295.263
 20
180.978
 42
0.0353
  0
VERTEX
  8
LAYER_4
 10
295.598
 20
180.794
 42
0.0333
  0
VERTEX
  8
LAYER_4
 10
295.954
 20
180.654
 42
0.0359
  0
VERTEX
  8
LAYER_4
 10
296.324
 20
180.558
  0
VERTEX
  8
LAYER_4
 10
296.704
 20
180.51
  0
VERTEX
  8
LAYER_4
 10
297.086
 20
180.51
  0
VERTEX
  8
LAYER_4
 10
297.466
 20
180.558
 42
0.0379
  0
VERTEX
  8
LAYER_4
 10
297.836
 20
180.654
 42
0.0339
  0
VERTEX
  8
LAYER_4
 10
298.192
 20
180.794
 42
0.0335
  0
VERTEX
  8
LAYER_4
 10
298.527
 20
180.978
 42
0.0246
  0
VERTEX
  8
LAYER_4
 10
298.837
 20
181.203
 42
0.0339
  0
VERTEX
  8
LAYER_4
 10
299.115
 20
181.465
 42
0.0236
  0
VERTEX
  8
LAYER_4
 10
299.36
 20
181.76
 42
0.0367
  0
VERTEX
  8
LAYER_4
 10
299.565
 20
182.083
 42
0.0282
  0
VERTEX
  8
LAYER_4
 10
299.727
 20
182.429
 42
0.0338
  0
VERTEX
  8
LAYER_4
 10
299.845
 20
182.793
 42
0.0263
  0
VERTEX
  8
LAYER_4
 10
299.918
 20
183.168
 42
0.0319
  0
VERTEX
  8
LAYER_4
 10
299.942
 20
183.55
  0
SEQEND
  0
POLYLINE
  8
LAYER_4
 40
0.105834
 41
0.105834
 66
1
 10
0
 20
0
 30
0
  0
VERTEX
  8
LAYER_4
 10
298.742
 20
183.55
 42
-0.0366
  0
VERTEX
  8
LAYER_4
 10
298.723
 20
183.289
 42
-0.0389
  0
VERTEX
  8
LAYER_4
 10
298.667
 20
183.033
 42
-0.0318
  0
VERTEX
  8
LAYER_4
 10
298.575
 20
182.785
 42
-0.0186
  0
VERTEX
  8
LAYER_4
 10
298.448
 20
182.552
 42
-0.0417
  0
VERTEX
  8
LAYER_4
 10
298.29
 20
182.341
 42
-0.0369
  0
VERTEX
  8
LAYER_4
 10
298.104
 20
182.155
 42
-0.0359
  0
VERTEX
  8
LAYER_4
 10
297.893
 20
181.997
  0
VERTEX
  8
LAYER_4
 10
297.88
 20
182.051
  0
VERTEX
  8
LAYER_4
 10
297.93
 20
182.076
  0
VERTEX
  8
LAYER_4
 10
297.966
 20
182.034
 42
-0.0089
  0
VERTEX
  8
LAYER_4
 10
297.661
 20
181.87
 42
-0.0498
  0
VERTEX
  8
LAYER_4
 10
297.413
 20
181.779
 42
-0.0301
  0
VERTEX
  8
LAYER_4
 10
297.156
 20
181.723
 42
-0.0453
  0
VERTEX
  8
LAYER_4
 10
296.895
 20
181.704
 42
-0.0384
  0
VERTEX
  8
LAYER_4
 10
296.634
 20
181.723
 42
-0.0088
  0
VERTEX
  8
LAYER_4
 10
296.377
 20
181.779
 42
-0.0169
  0
VERTEX
  8
LAYER_4
 10
296.13
 20
181.87
 42
-0.0048
  0
VERTEX
  8
LAYER_4
 10
295.897
 20
181.997
 42
-0.0438
  0
VERTEX
  8
LAYER_4
 10
295.686
 20
182.155
 42
-0.0369
  0
VERTEX
  8
LAYER_4
 10
295.5
 20
182.341
 42
-0.0365
  0
VERTEX
  8
LAYER_4
 10
295.342
 20
182.552
  0
VERTEX
  8
LAYER_4
 10
295.341
 20
182.549
  0
VERTEX
  8
LAYER_4
 10
295.338
 20
182.549
  0
VERTEX
  8
LAYER_4
 10
295.337
 20
182.552
 42
-0.0277
  0
VERTEX
  8
LAYER_4
 10
295.215
 20
182.785
 42
-0.0433
  0
VERTEX
  8
LAYER_4
 10
295.124
 20
183.033
 42
-0.039
  0
VERTEX
  8
LAYER_4
 10
295.067
 20
183.289
 42
-0.0383
  0
VERTEX
  8
LAYER_4
 10
295.049
 20
183.55
 42
-0.041
  0
VERTEX
  8
LAYER_4
 10
295.067
 20
183.811
 42
-0.0359
  0
VERTEX
  8
LAYER_4
 10
295.124
 20
184.068
 42
-0.0258
  0
VERTEX
  8
LAYER_4
 10
295.215
 20
184.316
 42
-0.0174
  0
VERTEX
  8
LAYER_4
 10
295.342
 20
184.549
 42
-0.0415
  0
VERTEX
  8
LAYER_4
 10
295.5
 20
184.759
 42
-0.0369
  0
VERTEX
  8
LAYER_4
 10
295.686
 20
184.946
 42
-0.0383
  0
VERTEX
  8
LAYER_4
 10
295.897
 20
185.104
  0
VERTEX
  8
LAYER_4
 10
295.897
 20
185.098
  0
VERTEX
  8
LAYER_4
 10
295.891
 20
185.097
  0
VERTEX
  8
LAYER_4
 10
295.889
 20
185.102
 42
-0.0106
  0
VERTEX
  8
LAYER_4
 10
296.13
 20
185.231
 42
-0.0183
  0
VERTEX
  8
LAYER_4
 10
296.377
 20
185.322
  0
VERTEX
  8
LAYER_4
 10
296.634
 20
185.378
  0
VERTEX
  8
LAYER_4
 10
296.895
 20
185.397
  0
VERTEX
  8
LAYER_4
 10
297.156
 20
185.378
  0
VERTEX
  8
LAYER_4
 10
297.413
 20
185.322
 42
-0.0595
  0
VERTEX
  8
LAYER_4
 10
297.661
 20
185.231
 42
-0.0074
  0
VERTEX
  8
LAYER_4
 10
297.893
 20
185.104
 42
-0.038
  0
VERTEX
  8
LAYER_4
 10
298.104
 20
184.946
 42
-0.0369
  0
VERTEX
  8
LAYER_4
 10
298.29
 20
184.759
 42
-0.0358
  0
VERTEX
  8
LAYER_4
 10
298.448
 20
184.549
  0
VERTEX
  8
LAYER_4
 10
298.449
 20
184.552
  0
VERTEX
  8
LAYER_4
 10
298.452
 20
184.552
  0
VERTEX
  8
LAYER_4
 10
298.453
 20
184.549
 42
-0.0292
  0
VERTEX
  8
LAYER_4
 10
298.575
 20
184.316
 42
-0.051
  0
VERTEX
  8
LAYER_4
 10
298.667
 20
184.068
 42
-0.0419
  0
VERTEX
  8
LAYER_4
 10
298.723
 20
183.811
 42
-0.0365
  0
VERTEX
  8
LAYER_4
 10
298.742
 20
183.55
  0
SEQEND
  0
POLYLINE
  8
LAYER_4
 40
0.105834
 41
0.105834
 66
1
 10
0
 20
0
 30
0
  0
VERTEX
  8
LAYER_4
 10
244.342
 20
183.55
 42
-0.0354
  0
VERTEX
  8
LAYER_4
 10
244.323
 20
183.289
 42
-0.0354
  0
VERTEX
  8
LAYER_4
 10
244.267
 20
183.033
 42
-0.0259
  0
VERTEX
  8
LAYER_4
 10
244.175
 20
182.785
 42
-0.0173
  0
VERTEX
  8
LAYER_4
 10
244.049
 20
182.552
 42
-0.0415
  0
VERTEX
  8
LAYER_4
 10
243.891
 20
182.341
 42
-0.0347
  0
VERTEX
  8
LAYER_4
 10
243.704
 20
182.155
 42
-0.0344
  0
VERTEX
  8
LAYER_4
 10
243.493
 20
181.997
  0
VERTEX
  8
LAYER_4
 10
243.48
 20
182.051
  0
VERTEX
  8
LAYER_4
 10
243.53
 20
182.076
  0
VERTEX
  8
LAYER_4
 10
243.566
 20
182.034
 42
-0.0087
  0
VERTEX
  8
LAYER_4
 10
243.26
 20
181.87
 42
-0.0465
  0
VERTEX
  8
LAYER_4
 10
243.013
 20
181.779
 42
-0.0268
  0
VERTEX
  8
LAYER_4
 10
242.756
 20
181.723
 42
-0.0453
  0
VERTEX
  8
LAYER_4
 10
242.495
 20
181.704
 42
-0.0385
  0
VERTEX
  8
LAYER_4
 10
242.234
 20
181.723
 42
-0.011
  0
VERTEX
  8
LAYER_4
 10
241.977
 20
181.779
 42
-0.0187
  0
VERTEX
  8
LAYER_4
 10
241.73
 20
181.87
 42
-0.0052
  0
VERTEX
  8
LAYER_4
 10
241.497
 20
181.997
 42
-0.0412
  0
VERTEX
  8
LAYER_4
 10
241.286
 20
182.155
 42
-0.0369
  0
VERTEX
  8
LAYER_4
 10
241.1
 20
182.341
 42
-0.0365
  0
VERTEX
  8
LAYER_4
 10
240.942
 20
182.552
  0
VERTEX
  8
LAYER_4
 10
240.941
 20
182.549
  0
VERTEX
  8
LAYER_4
 10
240.938
 20
182.549
  0
VERTEX
  8
LAYER_4
 10
240.937
 20
182.552
 42
-0.0272
  0
VERTEX
  8
LAYER_4
 10
240.815
 20
182.785
 42
-0.0455
  0
VERTEX
  8
LAYER_4
 10
240.723
 20
183.033
 42
-0.0402
  0
VERTEX
  8
LAYER_4
 10
240.667
 20
183.289
 42
-0.0364
  0
VERTEX
  8
LAYER_4
 10
240.649
 20
183.55
 42
-0.0352
  0
VERTEX
  8
LAYER_4
 10
240.667
 20
183.811
 42
-0.034
  0
VERTEX
  8
LAYER_4
 10
240.723
 20
184.068
 42
-0.0278
  0
VERTEX
  8
LAYER_4
 10
240.815
 20
184.316
 42
-0.0166
  0
VERTEX
  8
LAYER_4
 10
240.942
 20
184.549
 42
-0.0415
  0
VERTEX
  8
LAYER_4
 10
241.1
 20
184.759
 42
-0.0345
  0
VERTEX
  8
LAYER_4
 10
241.286
 20
184.946
 42
-0.0347
  0
VERTEX
  8
LAYER_4
 10
241.497
 20
185.104
  0
VERTEX
  8
LAYER_4
 10
241.497
 20
185.098
  0
VERTEX
  8
LAYER_4
 10
241.492
 20
185.097
  0
VERTEX
  8
LAYER_4
 10
241.489
 20
185.102
 42
-0.0114
  0
VERTEX
  8
LAYER_4
 10
241.73
 20
185.231
 42
-0.0186
  0
VERTEX
  8
LAYER_4
 10
241.977
 20
185.322
  0
VERTEX
  8
LAYER_4
 10
242.234
 20
185.378
  0
VERTEX
  8
LAYER_4
 10
242.495
 20
185.397
  0
VERTEX
  8
LAYER_4
 10
242.756
 20
185.378
  0
VERTEX
  8
LAYER_4
 10
243.013
 20
185.322
 42
-0.0592
  0
VERTEX
  8
LAYER_4
 10
243.26
 20
185.231
 42
-0.0073
  0
VERTEX
  8
LAYER_4
 10
243.493
 20
185.104
 42
-0.0364
  0
VERTEX
  8
LAYER_4
 10
243.704
 20
184.946
 42
-0.0361
  0
VERTEX
  8
LAYER_4
 10
243.891
 20
184.759
 42
-0.0363
  0
VERTEX
  8
LAYER_4
 10
244.049
 20
184.549
  0
VERTEX
  8
LAYER_4
 10
244.05
 20
184.552
  0
VERTEX
  8
LAYER_4
 10
244.052
 20
184.552
  0
VERTEX
  8
LAYER_4
 10
244.053
 20
184.549
 42
-0.0244
  0
VERTEX
  8
LAYER_4
 10
244.175
 20
184.316
 42
-0.0434
  0
VERTEX
  8
LAYER_4
 10
244.267
 20
184.068
 42
-0.0389
  0
VERTEX
  8
LAYER_4
 10
244.323
 20
183.811
 42
-0.0356
  0
VERTEX
  8
LAYER_4
 10
244.342
 20
183.55
  0
SEQEND
  0
POLYLINE
  8
LAYER_4
 40
0.105834
 41
0.105834
 66
1
 10
0
 20
0
 30
0
  0
VERTEX
  8
LAYER_4
 10
239.449
 20
183.55
 42
0.0315
  0
VERTEX
  8
LAYER_4
 10
239.473
 20
183.168
 42
0.0324
  0
VERTEX
  8
LAYER_4
 10
239.545
 20
182.793
 42
0.0338
  0
VERTEX
  8
LAYER_4
 10
239.663
 20
182.429
 42
0.0281
  0
VERTEX
  8
LAYER_4
 10
239.826
 20
182.083
 42
0.0334
  0
VERTEX
  8
LAYER_4
 10
240.031
 20
181.76
 42
0.0237
  0
VERTEX
  8
LAYER_4
 10
240.275
 20
181.465
 42
0.0336
  0
VERTEX
  8
LAYER_4
 10
240.554
 20
181.203
 42
0.0289
  0
VERTEX
  8
LAYER_4
 10
240.863
 20
180.978
 42
0.0362
  0
VERTEX
  8
LAYER_4
 10
241.198
 20
180.794
 42
0.0342
  0
VERTEX
  8
LAYER_4
 10
241.554
 20
180.654
 42
0.0363
  0
VERTEX
  8
LAYER_4
 10
241.924
 20
180.558
  0
VERTEX
  8
LAYER_4
 10
242.304
 20
180.51
  0
VERTEX
  8
LAYER_4
 10
242.686
 20
180.51
  0
VERTEX
  8
LAYER_4
 10
243.066
 20
180.558
 42
0.035
  0
VERTEX
  8
LAYER_4
 10
243.436
 20
180.654
 42
0.0346
  0
VERTEX
  8
LAYER_4
 10
243.792
 20
180.794
 42
0.0361
  0
VERTEX
  8
LAYER_4
 10
244.127
 20
180.978
 42
0.0274
  0
VERTEX
  8
LAYER_4
 10
244.437
 20
181.203
 42
0.036
  0
VERTEX
  8
LAYER_4
 10
244.715
 20
181.465
 42
0.0236
  0
VERTEX
  8
LAYER_4
 10
244.96
 20
181.76
 42
0.0408
  0
VERTEX
  8
LAYER_4
 10
245.165
 20
182.083
 42
0.0274
  0
VERTEX
  8
LAYER_4
 10
245.327
 20
182.429
 42
0.0328
  0
VERTEX
  8
LAYER_4
 10
245.445
 20
182.793
 42
0.0278
  0
VERTEX
  8
LAYER_4
 10
245.518
 20
183.168
 42
0.0313
  0
VERTEX
  8
LAYER_4
 10
245.542
 20
183.55
 42
0.0303
  0
VERTEX
  8
LAYER_4
 10
245.518
 20
183.932
 42
0.0324
  0
VERTEX
  8
LAYER_4
 10
245.445
 20
184.308
 42
0.0332
  0
VERTEX
  8
LAYER_4
 10
245.327
 20
184.672
 42
0.0287
  0
VERTEX
  8
LAYER_4
 10
245.165
 20
185.018
 42
0.0368
  0
VERTEX
  8
LAYER_4
 10
244.96
 20
185.341
 42
0.0255
  0
VERTEX
  8
LAYER_4
 10
244.715
 20
185.636
 42
0.035
  0
VERTEX
  8
LAYER_4
 10
244.437
 20
185.897
 42
0.0258
  0
VERTEX
  8
LAYER_4
 10
244.127
 20
186.123
 42
0.0386
  0
VERTEX
  8
LAYER_4
 10
243.792
 20
186.307
 42
0.0207
  0
VERTEX
  8
LAYER_4
 10
243.436
 20
186.447
 42
0.0353
  0
VERTEX
  8
LAYER_4
 10
243.066
 20
186.542
 42
0.0187
  0
VERTEX
  8
LAYER_4
 10
242.686
 20
186.591
 42
0.0362
  0
VERTEX
  8
LAYER_4
 10
242.304
 20
186.591
 42
0.0182
  0
VERTEX
  8
LAYER_4
 10
241.924
 20
186.542
 42
0.0366
  0
VERTEX
  8
LAYER_4
 10
241.554
 20
186.447
 42
0.0201
  0
VERTEX
  8
LAYER_4
 10
241.198
 20
186.307
 42
0.0366
  0
VERTEX
  8
LAYER_4
 10
240.863
 20
186.123
 42
0.0196
  0
VERTEX
  8
LAYER_4
 10
240.554
 20
185.897
 42
0.0338
  0
VERTEX
  8
LAYER_4
 10
240.275
 20
185.636
 42
0.0217
  0
VERTEX
  8
LAYER_4
 10
240.031
 20
185.341
 42
0.035
  0
VERTEX
  8
LAYER_4
 10
239.826
 20
185.018
 42
0.0282
  0
VERTEX
  8
LAYER_4
 10
239.663
 20
184.672
 42
0.0338
  0
VERTEX
  8
LAYER_4
 10
239.545
 20
184.308
 42
0.0262
  0
VERTEX
  8
LAYER_4
 10
239.473
 20
183.932
 42
0.0319
  0
VERTEX
  8
LAYER_4
 10
239.449
 20
183.55
  0
SEQEND
  0
POLYLINE
  8
LAYER_4
 40
0.105834
 41
0.105834
 66
1
 10
0
 20
0
 30
0
  0
VERTEX
  8
LAYER_4
 10
479.238
 20
160.073
  0
VERTEX
  8
LAYER_4
 10
479.234
 20
160.08
  0
VERTEX
  8
LAYER_4
 10
479.226
 20
160.098
  0
VERTEX
  8
LAYER_4
 10
479.215
 20
160.127
  0
VERTEX
  8
LAYER_4
 10
479.202
 20
160.162
  0
VERTEX
  8
LAYER_4
 10
479.186
 20
160.205
  0
VERTEX
  8
LAYER_4
 10
479.169
 20
160.25
  0
VERTEX
  8
LAYER_4
 10
479.22
 20
160.25
  0
VERTEX
  8
LAYER_4
 10
479.267
 20
160.25
  0
VERTEX
  8
LAYER_4
 10
479.307
 20
160.251
  0
VERTEX
  8
LAYER_4
 10
479.34
 20
160.252
  0
VERTEX
  8
LAYER_4
 10
479.356
 20
160.254
  0
VERTEX
  8
LAYER_4
 10
479.369
 20
160.257
  0
SEQEND
  0
POLYLINE
  8
LAYER_4
 40
0.105834
 41
0.105834
 66
1
 10
0
 20
0
 30
0
  0
VERTEX
  8
LAYER_4
 10
462.333
 20
159.347
  0
VERTEX
  8
LAYER_4
 10
462.347
 20
159.344
  0
VERTEX
  8
LAYER_4
 10
462.363
 20
159.342
  0
VERTEX
  8
LAYER_4
 10
462.396
 20
159.341
  0
VERTEX
  8
LAYER_4
 10
462.436
 20
159.34
  0
VERTEX
  8
LAYER_4
 10
462.483
 20
159.339
  0
VERTEX
  8
LAYER_4
 10
462.534
 20
159.34
 42
-0.0026
  0
VERTEX
  8
LAYER_4
 10
462.508
 20
161.469
 42
-0.0031
  0
VERTEX
  8
LAYER_4
 10
462.509
 20
163.617
 42
-0.0032
  0
VERTEX
  8
LAYER_4
 10
462.532
 20
165.784
 42
-0.0027
  0
VERTEX
  8
LAYER_4
 10
462.583
 20
167.95
  0
SEQEND
  0
POLYLINE
  8
LAYER_4
 40
0.105834
 41
0.105834
 66
1
 10
0
 20
0
 30
0
  0
VERTEX
  8
LAYER_4
 10
479.17
 20
160.25
 42
0.0027
  0
VERTEX
  8
LAYER_4
 10
479.18
 20
161.342
 42
0.0036
  0
VERTEX
  8
LAYER_4
 10
479.175
 20
162.437
 42
0.0115
  0
VERTEX
  8
LAYER_4
 10
479.154
 20
163.537
 42
0.0142
  0
VERTEX
  8
LAYER_4
 10
479.116
 20
164.638
 42
0.0095
  0
VERTEX
  8
LAYER_4
 10
479.062
 20
165.74
 42
0.0106
  0
VERTEX
  8
LAYER_4
 10
478.992
 20
166.845
 42
0.0038
  0
VERTEX
  8
LAYER_4
 10
478.905
 20
167.95
  0
SEQEND
  0
POLYLINE
  8
LAYER_4
 40
0.105834
 41
0.105834
 66
1
 10
0
 20
0
 30
0
  0
VERTEX
  8
LAYER_4
 10
476.703
 20
159.15
  0
VERTEX
  8
LAYER_4
 10
476.701
 20
159.161
  0
VERTEX
  8
LAYER_4
 10
476.697
 20
159.179
  0
VERTEX
  8
LAYER_4
 10
476.692
 20
159.209
  0
VERTEX
  8
LAYER_4
 10
476.685
 20
159.247
  0
VERTEX
  8
LAYER_4
 10
476.677
 20
159.292
  0
VERTEX
  8
LAYER_4
 10
476.668
 20
159.34
  0
SEQEND
  0
POLYLINE
  8
LAYER_4
 40
0.105834
 41
0.105834
 66
1
 10
0
 20
0
 30
0
  0
VERTEX
  8
LAYER_4
 10
477.488
 20
236.403
 42
0.0133
  0
VERTEX
  8
LAYER_4
 10
477.48
 20
236.291
 42
0.0084
  0
VERTEX
  8
LAYER_4
 10
477.474
 20
236.166
  0
VERTEX
  8
LAYER_4
 10
477.472
 20
236.05
 42
0.021
  0
VERTEX
  8
LAYER_4
 10
477.474
 20
235.951
  0
VERTEX
  8
LAYER_4
 10
477.481
 20
235.885
  0
VERTEX
  8
LAYER_4
 10
477.487
 20
235.842
  0
VERTEX
  8
LAYER_4
 10
477.506
 20
235.833
  0
SEQEND
  0
POLYLINE
  8
LAYER_4
 40
0.105834
 41
0.105834
 66
1
 10
0
 20
0
 30
0
  0
VERTEX
  8
LAYER_4
 10
477.423
 20
176.35
  0
VERTEX
  8
LAYER_4
 10
477.443
 20
176.36
  0
SEQEND
  0
POLYLINE
  8
LAYER_4
 40
0.105834
 41
0.105834
 66
1
 10
0
 20
0
 30
0
  0
VERTEX
  8
LAYER_4
 10
322.495
 20
376.451
  0
VERTEX
  8
LAYER_4
 10
322.6
 20
376.494
  0
VERTEX
  8
LAYER_4
 10
322.696
 20
376.534
  0
VERTEX
  8
LAYER_4
 10
322.777
 20
376.568
  0
VERTEX
  8
LAYER_4
 10
322.837
 20
376.592
  0
VERTEX
  8
LAYER_4
 10
322.874
 20
376.608
  0
VERTEX
  8
LAYER_4
 10
322.895
 20
376.616
  0
SEQEND
  0
POLYLINE
  8
LAYER_4
 40
0.105834
 41
0.105834
 66
1
 10
0
 20
0
 30
0
  0
VERTEX
  8
LAYER_4
 10
332.895
 20
376.451
 42
0.0022
  0
VERTEX
  8
LAYER_4
 10
332.79
 20
376.494
 42
-0.0014
  0
VERTEX
  8
LAYER_4
 10
332.694
 20
376.534
  0
VERTEX
  8
LAYER_4
 10
332.613
 20
376.568
  0
VERTEX
  8
LAYER_4
 10
332.553
 20
376.592
  0
VERTEX
  8
LAYER_4
 10
332.516
 20
376.608
  0
VERTEX
  8
LAYER_4
 10
332.495
 20
376.616
  0
SEQEND
  0
POLYLINE
  8
LAYER_4
 40
0.105834
 41
0.105834
 66
1
 10
0
 20
0
 30
0
  0
VERTEX
  8
LAYER_4
 10
330.741
 20
374.296
 42
0.0045
  0
VERTEX
  8
LAYER_4
 10
330.697
 20
374.401
 42
0.0028
  0
VERTEX
  8
LAYER_4
 10
330.658
 20
374.498
 42
0.006
  0
VERTEX
  8
LAYER_4
 10
330.624
 20
374.578
  0
VERTEX
  8
LAYER_4
 10
330.599
 20
374.639
  0
VERTEX
  8
LAYER_4
 10
330.584
 20
374.676
  0
VERTEX
  8
LAYER_4
 10
330.575
 20
374.696
  0
SEQEND
  0
POLYLINE
  8
LAYER_4
 40
0.105834
 41
0.105834
 66
1
 10
0
 20
0
 30
0
  0
VERTEX
  8
LAYER_4
 10
324.65
 20
374.296
 42
0.0025
  0
VERTEX
  8
LAYER_4
 10
324.693
 20
374.401
 42
0.0022
  0
VERTEX
  8
LAYER_4
 10
324.733
 20
374.498
 42
-0.0038
  0
VERTEX
  8
LAYER_4
 10
324.766
 20
374.578
  0
VERTEX
  8
LAYER_4
 10
324.791
 20
374.639
  0
VERTEX
  8
LAYER_4
 10
324.807
 20
374.676
  0
VERTEX
  8
LAYER_4
 10
324.815
 20
374.696
  0
SEQEND
  0
POLYLINE
  8
LAYER_4
 40
0.105834
 41
0.105834
 66
1
 10
0
 20
0
 30
0
  0
VERTEX
  8
LAYER_4
 10
354.495
 20
386.618
 42
0.045
  0
VERTEX
  8
LAYER_4
 10
354.486
 20
386.722
 42
0.0081
  0
VERTEX
  8
LAYER_4
 10
354.459
 20
386.823
 42
0.0422
  0
VERTEX
  8
LAYER_4
 10
354.416
 20
386.917
 42
0.0301
  0
VERTEX
  8
LAYER_4
 10
354.356
 20
387.003
 42
0.0139
  0
VERTEX
  8
LAYER_4
 10
354.281
 20
387.077
 42
0.0209
  0
VERTEX
  8
LAYER_4
 10
354.196
 20
387.137
 42
0.0453
  0
VERTEX
  8
LAYER_4
 10
354.102
 20
387.181
 42
0.0469
  0
VERTEX
  8
LAYER_4
 10
354.002
 20
387.208
 42
0.0407
  0
VERTEX
  8
LAYER_4
 10
353.898
 20
387.217
  0
SEQEND
  0
POLYLINE
  8
LAYER_4
 40
0.105834
 41
0.105834
 66
1
 10
0
 20
0
 30
0
  0
VERTEX
  8
LAYER_4
 10
354.096
 20
369.896
  0
VERTEX
  8
LAYER_4
 10
354.184
 20
369.906
  0
VERTEX
  8
LAYER_4
 10
354.268
 20
369.936
  0
VERTEX
  8
LAYER_4
 10
354.344
 20
369.983
  0
VERTEX
  8
LAYER_4
 10
354.36
 20
369.955
  0
VERTEX
  8
LAYER_4
 10
354.338
 20
369.932
  0
VERTEX
  8
LAYER_4
 10
354.31
 20
369.948
 42
-0.0887
  0
VERTEX
  8
LAYER_4
 10
354.409
 20
370.047
 42
0.0419
  0
VERTEX
  8
LAYER_4
 10
354.456
 20
370.123
 42
0.0578
  0
VERTEX
  8
LAYER_4
 10
354.485
 20
370.207
 42
0.0568
  0
VERTEX
  8
LAYER_4
 10
354.495
 20
370.296
  0
SEQEND
  0
POLYLINE
  8
LAYER_4
 40
0.105834
 41
0.105834
 66
1
 10
0
 20
0
 30
0
  0
VERTEX
  8
LAYER_4
 10
184.895
 20
370.296
 42
0.0542
  0
VERTEX
  8
LAYER_4
 10
184.905
 20
370.207
 42
0.0615
  0
VERTEX
  8
LAYER_4
 10
184.935
 20
370.123
 42
0.074
  0
VERTEX
  8
LAYER_4
 10
184.982
 20
370.047
  0
VERTEX
  8
LAYER_4
 10
185.046
 20
369.983
  0
VERTEX
  8
LAYER_4
 10
185.122
 20
369.936
  0
VERTEX
  8
LAYER_4
 10
185.206
 20
369.906
  0
VERTEX
  8
LAYER_4
 10
185.294
 20
369.896
  0
SEQEND
  0
POLYLINE
  8
LAYER_4
 40
0.105834
 41
0.105834
 66
1
 10
0
 20
0
 30
0
  0
VERTEX
  8
LAYER_4
 10
185.492
 20
387.217
 42
0.0481
  0
VERTEX
  8
LAYER_4
 10
185.377
 20
387.205
 42
0.0489
  0
VERTEX
  8
LAYER_4
 10
185.265
 20
387.171
 42
0.0516
  0
VERTEX
  8
LAYER_4
 10
185.162
 20
387.117
 42
0.0417
  0
VERTEX
  8
LAYER_4
 10
185.07
 20
387.042
 42
0.0477
  0
VERTEX
  8
LAYER_4
 10
184.995
 20
386.95
 42
0.0525
  0
VERTEX
  8
LAYER_4
 10
184.94
 20
386.846
 42
0.0527
  0
VERTEX
  8
LAYER_4
 10
184.906
 20
386.734
 42
0.0468
  0
VERTEX
  8
LAYER_4
 10
184.895
 20
386.618
  0
SEQEND
  0
POLYLINE
  8
LAYER_4
 40
0.105834
 41
0.105834
 66
1
 10
0
 20
0
 30
0
  0
VERTEX
  8
LAYER_4
 10
187.81
 20
370.016
  0
VERTEX
  8
LAYER_4
 10
187.857
 20
369.975
  0
VERTEX
  8
LAYER_4
 10
187.922
 20
369.936
  0
VERTEX
  8
LAYER_4
 10
188.006
 20
369.906
  0
VERTEX
  8
LAYER_4
 10
188.094
 20
369.896
  0
SEQEND
  0
POLYLINE
  8
LAYER_4
 40
0.105834
 41
0.105834
 66
1
 10
0
 20
0
 30
0
  0
VERTEX
  8
LAYER_4
 10
187.707
 20
386.734
 42
0.051
  0
VERTEX
  8
LAYER_4
 10
187.695
 20
386.618
  0
SEQEND
  0
POLYLINE
  8
LAYER_4
 40
0.105834
 41
0.105834
 66
1
 10
0
 20
0
 30
0
  0
VERTEX
  8
LAYER_4
 10
259.298
 20
70.6015
  0
VERTEX
  8
LAYER_4
 10
259.299
 20
70.5891
  0
VERTEX
  8
LAYER_4
 10
259.301
 20
70.5743
 42
-0.005
  0
VERTEX
  8
LAYER_4
 10
259.305
 20
70.4668
  0
VERTEX
  8
LAYER_4
 10
259.307
 20
70.3527
  0
VERTEX
  8
LAYER_4
 10
259.309
 20
70.2304
 42
-0.0021
  0
VERTEX
  8
LAYER_4
 10
259.31
 20
70.104
  0
VERTEX
  8
LAYER_4
 10
259.309
 20
69.9776
  0
VERTEX
  8
LAYER_4
 10
259.307
 20
69.8553
  0
VERTEX
  8
LAYER_4
 10
259.305
 20
69.7412
 42
-0.0047
  0
VERTEX
  8
LAYER_4
 10
259.301
 20
69.6337
  0
VERTEX
  8
LAYER_4
 10
259.299
 20
69.6189
  0
VERTEX
  8
LAYER_4
 10
259.298
 20
69.6065
  0
SEQEND
  0
POLYLINE
  8
LAYER_4
 40
0.105834
 41
0.105834
 66
1
 10
0
 20
0
 30
0
  0
VERTEX
  8
LAYER_4
 10
261.693
 20
69.6065
  0
VERTEX
  8
LAYER_4
 10
261.691
 20
69.6189
  0
VERTEX
  8
LAYER_4
 10
261.69
 20
69.6337
 42
-0.0019
  0
VERTEX
  8
LAYER_4
 10
261.686
 20
69.7412
  0
VERTEX
  8
LAYER_4
 10
261.683
 20
69.8553
 42
-0.0023
  0
VERTEX
  8
LAYER_4
 10
261.681
 20
69.9776
 42
-0.0039
  0
VERTEX
  8
LAYER_4
 10
261.68
 20
70.104
  0
VERTEX
  8
LAYER_4
 10
261.681
 20
70.2304
 42
-0.002
  0
VERTEX
  8
LAYER_4
 10
261.683
 20
70.3527
  0
VERTEX
  8
LAYER_4
 10
261.686
 20
70.4668
  0
VERTEX
  8
LAYER_4
 10
261.69
 20
70.5743
  0
VERTEX
  8
LAYER_4
 10
261.691
 20
70.5891
  0
VERTEX
  8
LAYER_4
 10
261.693
 20
70.6015
  0
SEQEND
  0
POLYLINE
  8
LAYER_4
 40
0.105834
 41
0.105834
 66
1
 10
0
 20
0
 30
0
  0
VERTEX
  8
LAYER_4
 10
191.524
 20
67.7441
  0
VERTEX
  8
LAYER_4
 10
191.514
 20
67.7469
  0
VERTEX
  8
LAYER_4
 10
191.505
 20
67.7493
  0
VERTEX
  8
LAYER_4
 10
191.496
 20
67.7513
  0
VERTEX
  8
LAYER_4
 10
191.493
 20
67.7524
  0
SEQEND
  0
POLYLINE
  8
LAYER_4
 40
0.105834
 41
0.105834
 66
1
 10
0
 20
0
 30
0
  0
VERTEX
  8
LAYER_4
 10
191.524
 20
72.4639
  0
VERTEX
  8
LAYER_4
 10
191.514
 20
72.4611
  0
VERTEX
  8
LAYER_4
 10
191.505
 20
72.4587
  0
VERTEX
  8
LAYER_4
 10
191.496
 20
72.4567
  0
VERTEX
  8
LAYER_4
 10
191.493
 20
72.4556
  0
SEQEND
  0
POLYLINE
  8
LAYER_4
 40
0.105834
 41
0.105834
 66
1
 10
0
 20
0
 30
0
  0
VERTEX
  8
LAYER_4
 10
204.679
 20
72.5042
  0
VERTEX
  8
LAYER_4
 10
204.723
 20
72.4956
  0
VERTEX
  8
LAYER_4
 10
204.761
 20
72.4711
  0
VERTEX
  8
LAYER_4
 10
204.787
 20
72.4339
  0
SEQEND
  0
POLYLINE
  8
LAYER_4
 40
0.105834
 41
0.105834
 66
1
 10
0
 20
0
 30
0
  0
VERTEX
  8
LAYER_4
 10
204.787
 20
67.7741
  0
VERTEX
  8
LAYER_4
 10
204.761
 20
67.7372
  0
VERTEX
  8
LAYER_4
 10
204.723
 20
67.7124
  0
VERTEX
  8
LAYER_4
 10
204.679
 20
67.7041
  0
SEQEND
  0
POLYLINE
  8
LAYER_4
 40
0.105834
 41
0.105834
 66
1
 10
0
 20
0
 30
0
  0
VERTEX
  8
LAYER_4
 10
191.538
 20
72.4722
  0
VERTEX
  8
LAYER_4
 10
191.53
 20
72.4639
  0
VERTEX
  8
LAYER_4
 10
191.555
 20
72.4856
  0
VERTEX
  8
LAYER_4
 10
191.565
 20
72.4911
  0
VERTEX
  8
LAYER_4
 10
191.586
 20
72.4994
  0
VERTEX
  8
LAYER_4
 10
191.62
 20
72.5042
  0
SEQEND
  0
POLYLINE
  8
LAYER_4
 40
0.105834
 41
0.105834
 66
1
 10
0
 20
0
 30
0
  0
VERTEX
  8
LAYER_4
 10
191.62
 20
67.7041
  0
VERTEX
  8
LAYER_4
 10
191.586
 20
67.7086
  0
VERTEX
  8
LAYER_4
 10
191.555
 20
67.7224
  0
VERTEX
  8
LAYER_4
 10
191.53
 20
67.7441
  0
SEQEND
  0
POLYLINE
  8
LAYER_4
 40
0.105834
 41
0.105834
 66
1
 10
0
 20
0
 30
0
  0
VERTEX
  8
LAYER_4
 10
204.676
 20
72.5004
  0
VERTEX
  8
LAYER_4
 10
204.571
 20
72.4942
  0
VERTEX
  8
LAYER_4
 10
204.467
 20
72.488
  0
VERTEX
  8
LAYER_4
 10
204.364
 20
72.4818
  0
SEQEND
  0
POLYLINE
  8
LAYER_4
 40
0.105834
 41
0.105834
 66
1
 10
0
 20
0
 30
0
  0
VERTEX
  8
LAYER_4
 10
191.53
 20
72.4639
  0
VERTEX
  8
LAYER_4
 10
191.526
 20
72.4598
  0
VERTEX
  8
LAYER_4
 10
191.52
 20
72.4501
  0
VERTEX
  8
LAYER_4
 10
191.511
 20
72.4343
  0
VERTEX
  8
LAYER_4
 10
191.541
 20
72.4674
  0
VERTEX
  8
LAYER_4
 10
191.578
 20
72.4922
  0
VERTEX
  8
LAYER_4
 10
191.623
 20
72.5011
  0
VERTEX
  8
LAYER_4
 10
191.717
 20
72.4946
  0
VERTEX
  8
LAYER_4
 10
191.81
 20
72.488
  0
VERTEX
  8
LAYER_4
 10
191.903
 20
72.4818
  0
SEQEND
  0
POLYLINE
  8
LAYER_4
 40
0.105834
 41
0.105834
 66
1
 10
0
 20
0
 30
0
  0
VERTEX
  8
LAYER_4
 10
191.53
 20
67.7441
  0
VERTEX
  8
LAYER_4
 10
191.52
 20
67.7579
  0
VERTEX
  8
LAYER_4
 10
191.513
 20
67.7682
  0
VERTEX
  8
LAYER_4
 10
191.511
 20
67.7737
  0
VERTEX
  8
LAYER_4
 10
191.541
 20
67.7407
  0
VERTEX
  8
LAYER_4
 10
191.578
 20
67.7158
  0
VERTEX
  8
LAYER_4
 10
191.623
 20
67.7069
  0
SEQEND
  0
POLYLINE
  8
LAYER_4
 40
0.105834
 41
0.105834
 66
1
 10
0
 20
0
 30
0
  0
VERTEX
  8
LAYER_4
 10
204.785
 20
67.7785
  0
VERTEX
  8
LAYER_4
 10
204.758
 20
67.741
  0
VERTEX
  8
LAYER_4
 10
204.72
 20
67.7165
  0
VERTEX
  8
LAYER_4
 10
204.676
 20
67.7076
  0
SEQEND
  0
POLYLINE
  8
LAYER_4
 40
0.105834
 41
0.105834
 66
1
 10
0
 20
0
 30
0
  0
VERTEX
  8
LAYER_4
 10
191.039
 20
69.2134
 42
-0.0094
  0
VERTEX
  8
LAYER_4
 10
191.011
 20
69.4064
 42
-0.0092
  0
VERTEX
  8
LAYER_4
 10
190.99
 20
69.6
 42
-0.0079
  0
VERTEX
  8
LAYER_4
 10
190.975
 20
69.7943
  0
SEQEND
  0
POLYLINE
  8
LAYER_4
 40
0.105834
 41
0.105834
 66
1
 10
0
 20
0
 30
0
  0
VERTEX
  8
LAYER_4
 10
204.785
 20
72.4295
  0
VERTEX
  8
LAYER_4
 10
204.758
 20
72.467
  0
VERTEX
  8
LAYER_4
 10
204.72
 20
72.4918
  0
VERTEX
  8
LAYER_4
 10
204.676
 20
72.5004
  0
SEQEND
  0
POLYLINE
  8
LAYER_4
 40
0.105834
 41
0.105834
 66
1
 10
0
 20
0
 30
0
  0
VERTEX
  8
LAYER_4
 10
204.49
 20
67.7985
  0
VERTEX
  8
LAYER_4
 10
204.588
 20
67.7934
  0
VERTEX
  8
LAYER_4
 10
204.687
 20
67.7882
  0
VERTEX
  8
LAYER_4
 10
204.786
 20
67.7827
  0
SEQEND
  0
POLYLINE
  8
LAYER_4
 40
0.105834
 41
0.105834
 66
1
 10
0
 20
0
 30
0
  0
VERTEX
  8
LAYER_4
 10
204.364
 20
67.7265
  0
VERTEX
  8
LAYER_4
 10
204.467
 20
67.7203
  0
VERTEX
  8
LAYER_4
 10
204.571
 20
67.7138
  0
VERTEX
  8
LAYER_4
 10
204.676
 20
67.7076
  0
SEQEND
  0
POLYLINE
  8
LAYER_4
 40
0.105834
 41
0.105834
 66
1
 10
0
 20
0
 30
0
  0
VERTEX
  8
LAYER_4
 10
204.786
 20
72.4253
 42
0.0028
  0
VERTEX
  8
LAYER_4
 10
204.687
 20
72.4198
  0
VERTEX
  8
LAYER_4
 10
204.588
 20
72.4146
  0
VERTEX
  8
LAYER_4
 10
204.49
 20
72.4095
  0
SEQEND
  0
POLYLINE
  8
LAYER_4
 40
0.105834
 41
0.105834
 66
1
 10
0
 20
0
 30
0
  0
VERTEX
  8
LAYER_4
 10
191.781
 20
72.4105
 42
-0.0031
  0
VERTEX
  8
LAYER_4
 10
191.693
 20
72.416
 42
-0.0017
  0
VERTEX
  8
LAYER_4
 10
191.603
 20
72.4219
 42
0.0025
  0
VERTEX
  8
LAYER_4
 10
191.514
 20
72.4274
 42
0.0427
  0
VERTEX
  8
LAYER_4
 10
191.19
 20
71.5261
 42
-0.0891
  0
VERTEX
  8
LAYER_4
 10
191.258
 20
72.0329
 42
-0.0351
  0
VERTEX
  8
LAYER_4
 10
191.027
 20
70.5811
 42
0.0615
  0
VERTEX
  8
LAYER_4
 10
191.027
 20
69.6269
 42
0.0039
  0
VERTEX
  8
LAYER_4
 10
191.19
 20
68.6819
 42
0.0434
  0
VERTEX
  8
LAYER_4
 10
191.514
 20
67.7806
  0
VERTEX
  8
LAYER_4
 10
191.603
 20
67.7865
  0
VERTEX
  8
LAYER_4
 10
191.693
 20
67.792
  0
VERTEX
  8
LAYER_4
 10
191.781
 20
67.7975
  0
SEQEND
  0
POLYLINE
  8
LAYER_4
 40
0.105834
 41
0.105834
 66
1
 10
0
 20
0
 30
0
  0
VERTEX
  8
LAYER_4
 10
204.49
 20
72.4095
  0
VERTEX
  8
LAYER_4
 10
204.46
 20
72.4474
  0
VERTEX
  8
LAYER_4
 10
204.417
 20
72.4729
  0
VERTEX
  8
LAYER_4
 10
204.364
 20
72.4818
  0
SEQEND
  0
POLYLINE
  8
LAYER_4
 40
0.105834
 41
0.105834
 66
1
 10
0
 20
0
 30
0
  0
VERTEX
  8
LAYER_4
 10
204.364
 20
67.7265
  0
VERTEX
  8
LAYER_4
 10
204.417
 20
67.7351
  0
VERTEX
  8
LAYER_4
 10
204.46
 20
67.7606
  0
VERTEX
  8
LAYER_4
 10
204.49
 20
67.7989
  0
SEQEND
  0
POLYLINE
  8
LAYER_4
 40
0.105834
 41
0.105834
 66
1
 10
0
 20
0
 30
0
  0
VERTEX
  8
LAYER_4
 10
191.781
 20
67.7975
  0
VERTEX
  8
LAYER_4
 10
191.81
 20
67.7599
  0
VERTEX
  8
LAYER_4
 10
191.852
 20
67.7351
  0
VERTEX
  8
LAYER_4
 10
191.903
 20
67.7265
  0
SEQEND
  0
POLYLINE
  8
LAYER_4
 40
0.105834
 41
0.105834
 66
1
 10
0
 20
0
 30
0
  0
VERTEX
  8
LAYER_4
 10
191.903
 20
72.4818
  0
VERTEX
  8
LAYER_4
 10
191.852
 20
72.4729
  0
VERTEX
  8
LAYER_4
 10
191.81
 20
72.4481
  0
VERTEX
  8
LAYER_4
 10
191.781
 20
72.4105
  0
SEQEND
  0
POLYLINE
  8
LAYER_4
 40
0.105834
 41
0.105834
 66
1
 10
0
 20
0
 30
0
  0
VERTEX
  8
LAYER_4
 10
191.623
 20
67.7069
  0
VERTEX
  8
LAYER_4
 10
191.717
 20
67.7134
  0
VERTEX
  8
LAYER_4
 10
191.81
 20
67.72
  0
VERTEX
  8
LAYER_4
 10
191.903
 20
67.7265
  0
SEQEND
  0
POLYLINE
  8
LAYER_4
 40
0.105834
 41
0.105834
 66
1
 10
0
 20
0
 30
0
  0
VERTEX
  8
LAYER_4
 10
197.14
 20
67.7041
  0
VERTEX
  8
LAYER_4
 10
197.311
 20
67.7086
  0
VERTEX
  8
LAYER_4
 10
197.494
 20
67.7117
  0
VERTEX
  8
LAYER_4
 10
197.691
 20
67.7138
  0
VERTEX
  8
LAYER_4
 10
197.895
 20
67.7145
  0
VERTEX
  8
LAYER_4
 10
198.099
 20
67.7138
  0
VERTEX
  8
LAYER_4
 10
198.296
 20
67.7117
  0
VERTEX
  8
LAYER_4
 10
198.479
 20
67.7086
  0
VERTEX
  8
LAYER_4
 10
198.65
 20
67.7041
  0
SEQEND
  0
POLYLINE
  8
LAYER_4
 40
0.105834
 41
0.105834
 66
1
 10
0
 20
0
 30
0
  0
VERTEX
  8
LAYER_4
 10
198.495
 20
72.5042
 42
-0.0037
  0
VERTEX
  8
LAYER_4
 10
198.355
 20
72.5011
 42
-0.0018
  0
VERTEX
  8
LAYER_4
 10
198.209
 20
72.4987
 42
-0.0033
  0
VERTEX
  8
LAYER_4
 10
198.054
 20
72.4977
 42
-0.0015
  0
VERTEX
  8
LAYER_4
 10
197.895
 20
72.497
 42
-0.0017
  0
VERTEX
  8
LAYER_4
 10
197.736
 20
72.4977
 42
-0.0033
  0
VERTEX
  8
LAYER_4
 10
197.582
 20
72.4987
 42
-0.0016
  0
VERTEX
  8
LAYER_4
 10
197.435
 20
72.5011
 42
-0.0036
  0
VERTEX
  8
LAYER_4
 10
197.295
 20
72.5042
  0
SEQEND
  0
POLYLINE
  8
LAYER_4
 40
0.105834
 41
0.105834
 66
1
 10
0
 20
0
 30
0
  0
VERTEX
  8
LAYER_4
 10
204.954
 20
72.5004
  0
VERTEX
  8
LAYER_4
 10
204.85
 20
72.4942
  0
VERTEX
  8
LAYER_4
 10
204.746
 20
72.488
  0
VERTEX
  8
LAYER_4
 10
204.981
 20
72.4818
  0
SEQEND
  0
POLYLINE
  8
LAYER_4
 40
0.105834
 41
0.105834
 66
1
 10
0
 20
0
 30
0
  0
VERTEX
  8
LAYER_4
 10
337.54
 20
67.7041
  0
VERTEX
  8
LAYER_4
 10
337.711
 20
67.7086
  0
VERTEX
  8
LAYER_4
 10
337.894
 20
67.7117
  0
VERTEX
  8
LAYER_4
 10
338.091
 20
67.7138
  0
VERTEX
  8
LAYER_4
 10
338.295
 20
67.7145
  0
VERTEX
  8
LAYER_4
 10
338.5
 20
67.7138
  0
VERTEX
  8
LAYER_4
 10
338.697
 20
67.7117
  0
VERTEX
  8
LAYER_4
 10
338.879
 20
67.7086
  0
VERTEX
  8
LAYER_4
 10
339.05
 20
67.7041
  0
SEQEND
  0
POLYLINE
  8
LAYER_4
 40
0.105834
 41
0.105834
 66
1
 10
0
 20
0
 30
0
  0
VERTEX
  8
LAYER_4
 10
338.895
 20
72.5042
 42
-0.0036
  0
VERTEX
  8
LAYER_4
 10
338.755
 20
72.5011
 42
-0.0018
  0
VERTEX
  8
LAYER_4
 10
338.609
 20
72.4987
 42
-0.0033
  0
VERTEX
  8
LAYER_4
 10
338.454
 20
72.4977
 42
-0.0015
  0
VERTEX
  8
LAYER_4
 10
338.295
 20
72.497
 42
-0.0017
  0
VERTEX
  8
LAYER_4
 10
338.137
 20
72.4977
 42
-0.0033
  0
VERTEX
  8
LAYER_4
 10
337.982
 20
72.4987
 42
-0.0017
  0
VERTEX
  8
LAYER_4
 10
337.835
 20
72.5011
 42
-0.0036
  0
VERTEX
  8
LAYER_4
 10
337.695
 20
72.5042
  0
SEQEND
  0
POLYLINE
  8
LAYER_4
 40
0.105834
 41
0.105834
 66
1
 10
0
 20
0
 30
0
  0
VERTEX
  8
LAYER_4
 10
334.105
 20
69.2141
  0
VERTEX
  8
LAYER_4
 10
334.015
 20
69.2131
  0
SEQEND
  0
POLYLINE
  8
LAYER_4
 40
0.105834
 41
0.105834
 66
1
 10
0
 20
0
 30
0
  0
VERTEX
  8
LAYER_4
 10
334.105
 20
69.7939
 42
0.0226
  0
VERTEX
  8
LAYER_4
 10
333.957
 20
69.7926
  0
SEQEND
  0
POLYLINE
  8
LAYER_4
 40
0.105834
 41
0.105834
 66
1
 10
0
 20
0
 30
0
  0
VERTEX
  8
LAYER_4
 10
334.724
 20
67.7441
  0
VERTEX
  8
LAYER_4
 10
334.714
 20
67.7469
  0
VERTEX
  8
LAYER_4
 10
334.705
 20
67.7493
  0
VERTEX
  8
LAYER_4
 10
334.697
 20
67.7513
  0
VERTEX
  8
LAYER_4
 10
334.693
 20
67.7524
  0
SEQEND
  0
POLYLINE
  8
LAYER_4
 40
0.105834
 41
0.105834
 66
1
 10
0
 20
0
 30
0
  0
VERTEX
  8
LAYER_4
 10
334.724
 20
72.4639
  0
VERTEX
  8
LAYER_4
 10
334.714
 20
72.4611
  0
VERTEX
  8
LAYER_4
 10
334.705
 20
72.4587
  0
VERTEX
  8
LAYER_4
 10
334.697
 20
72.4567
  0
VERTEX
  8
LAYER_4
 10
334.693
 20
72.4556
  0
SEQEND
  0
POLYLINE
  8
LAYER_4
 40
0.105834
 41
0.105834
 66
1
 10
0
 20
0
 30
0
  0
VERTEX
  8
LAYER_4
 10
334.105
 20
70.9939
 42
0.0022
  0
VERTEX
  8
LAYER_4
 10
334.015
 20
70.9953
  0
SEQEND
  0
POLYLINE
  8
LAYER_4
 40
0.105834
 41
0.105834
 66
1
 10
0
 20
0
 30
0
  0
VERTEX
  8
LAYER_4
 10
334.105
 20
70.4144
 42
-0.0209
  0
VERTEX
  8
LAYER_4
 10
333.957
 20
70.4154
  0
SEQEND
  0
POLYLINE
  8
LAYER_4
 40
0.105834
 41
0.105834
 66
1
 10
0
 20
0
 30
0
  0
VERTEX
  8
LAYER_4
 10
347.878
 20
72.5042
  0
VERTEX
  8
LAYER_4
 10
347.923
 20
72.4956
  0
VERTEX
  8
LAYER_4
 10
347.961
 20
72.4711
  0
VERTEX
  8
LAYER_4
 10
347.987
 20
72.4339
  0
SEQEND
  0
POLYLINE
  8
LAYER_4
 40
0.105834
 41
0.105834
 66
1
 10
0
 20
0
 30
0
  0
VERTEX
  8
LAYER_4
 10
347.987
 20
67.7741
  0
VERTEX
  8
LAYER_4
 10
347.961
 20
67.7372
  0
VERTEX
  8
LAYER_4
 10
347.923
 20
67.7124
  0
VERTEX
  8
LAYER_4
 10
347.878
 20
67.7041
  0
SEQEND
  0
POLYLINE
  8
LAYER_4
 40
0.105834
 41
0.105834
 66
1
 10
0
 20
0
 30
0
  0
VERTEX
  8
LAYER_4
 10
334.738
 20
72.4722
  0
VERTEX
  8
LAYER_4
 10
334.73
 20
72.4639
  0
VERTEX
  8
LAYER_4
 10
334.755
 20
72.4856
  0
VERTEX
  8
LAYER_4
 10
334.765
 20
72.4911
  0
VERTEX
  8
LAYER_4
 10
334.786
 20
72.4994
  0
VERTEX
  8
LAYER_4
 10
334.82
 20
72.5042
  0
SEQEND
  0
POLYLINE
  8
LAYER_4
 40
0.105834
 41
0.105834
 66
1
 10
0
 20
0
 30
0
  0
VERTEX
  8
LAYER_4
 10
334.82
 20
67.7041
  0
VERTEX
  8
LAYER_4
 10
334.786
 20
67.7086
  0
VERTEX
  8
LAYER_4
 10
334.755
 20
67.7224
  0
VERTEX
  8
LAYER_4
 10
334.73
 20
67.7441
  0
SEQEND
  0
POLYLINE
  8
LAYER_4
 40
0.105834
 41
0.105834
 66
1
 10
0
 20
0
 30
0
  0
VERTEX
  8
LAYER_4
 10
347.876
 20
72.5004
  0
VERTEX
  8
LAYER_4
 10
347.771
 20
72.4942
  0
VERTEX
  8
LAYER_4
 10
347.667
 20
72.488
  0
VERTEX
  8
LAYER_4
 10
347.564
 20
72.4818
  0
SEQEND
  0
POLYLINE
  8
LAYER_4
 40
0.105834
 41
0.105834
 66
1
 10
0
 20
0
 30
0
  0
VERTEX
  8
LAYER_4
 10
334.175
 20
70.4137
 42
-0.0078
  0
VERTEX
  8
LAYER_4
 10
334.19
 20
70.608
 42
-0.0082
  0
VERTEX
  8
LAYER_4
 10
334.211
 20
70.8016
 42
-0.0079
  0
VERTEX
  8
LAYER_4
 10
334.239
 20
70.9946
  0
SEQEND
  0
POLYLINE
  8
LAYER_4
 40
0.105834
 41
0.105834
 66
1
 10
0
 20
0
 30
0
  0
VERTEX
  8
LAYER_4
 10
334.73
 20
72.4639
  0
VERTEX
  8
LAYER_4
 10
334.727
 20
72.4598
  0
VERTEX
  8
LAYER_4
 10
334.719
 20
72.4501
  0
VERTEX
  8
LAYER_4
 10
334.711
 20
72.4343
  0
VERTEX
  8
LAYER_4
 10
334.741
 20
72.4674
  0
VERTEX
  8
LAYER_4
 10
334.779
 20
72.4922
  0
VERTEX
  8
LAYER_4
 10
334.823
 20
72.5011
  0
VERTEX
  8
LAYER_4
 10
334.917
 20
72.4946
  0
VERTEX
  8
LAYER_4
 10
335.01
 20
72.488
  0
VERTEX
  8
LAYER_4
 10
335.102
 20
72.4818
  0
SEQEND
  0
POLYLINE
  8
LAYER_4
 40
0.105834
 41
0.105834
 66
1
 10
0
 20
0
 30
0
  0
VERTEX
  8
LAYER_4
 10
334.73
 20
67.7441
  0
VERTEX
  8
LAYER_4
 10
334.72
 20
67.7579
  0
VERTEX
  8
LAYER_4
 10
334.713
 20
67.7682
  0
VERTEX
  8
LAYER_4
 10
334.711
 20
67.7737
  0
VERTEX
  8
LAYER_4
 10
334.741
 20
67.7407
  0
VERTEX
  8
LAYER_4
 10
334.779
 20
67.7158
  0
VERTEX
  8
LAYER_4
 10
334.823
 20
67.7069
  0
SEQEND
  0
POLYLINE
  8
LAYER_4
 40
0.105834
 41
0.105834
 66
1
 10
0
 20
0
 30
0
  0
VERTEX
  8
LAYER_4
 10
347.985
 20
67.7785
  0
VERTEX
  8
LAYER_4
 10
347.958
 20
67.741
  0
VERTEX
  8
LAYER_4
 10
347.92
 20
67.7165
  0
VERTEX
  8
LAYER_4
 10
347.876
 20
67.7076
  0
SEQEND
  0
POLYLINE
  8
LAYER_4
 40
0.105834
 41
0.105834
 66
1
 10
0
 20
0
 30
0
  0
VERTEX
  8
LAYER_4
 10
334.239
 20
69.2134
 42
-0.0083
  0
VERTEX
  8
LAYER_4
 10
334.211
 20
69.4064
 42
-0.0077
  0
VERTEX
  8
LAYER_4
 10
334.19
 20
69.6
 42
-0.0105
  0
VERTEX
  8
LAYER_4
 10
334.175
 20
69.7943
  0
SEQEND
  0
POLYLINE
  8
LAYER_4
 40
0.105834
 41
0.105834
 66
1
 10
0
 20
0
 30
0
  0
VERTEX
  8
LAYER_4
 10
347.985
 20
72.4295
  0
VERTEX
  8
LAYER_4
 10
347.958
 20
72.467
  0
VERTEX
  8
LAYER_4
 10
347.92
 20
72.4918
  0
VERTEX
  8
LAYER_4
 10
347.876
 20
72.5004
  0
SEQEND
  0
POLYLINE
  8
LAYER_4
 40
0.105834
 41
0.105834
 66
1
 10
0
 20
0
 30
0
  0
VERTEX
  8
LAYER_4
 10
347.69
 20
67.7985
  0
VERTEX
  8
LAYER_4
 10
347.788
 20
67.7934
  0
VERTEX
  8
LAYER_4
 10
347.887
 20
67.7882
  0
VERTEX
  8
LAYER_4
 10
347.986
 20
67.7827
  0
SEQEND
  0
POLYLINE
  8
LAYER_4
 40
0.105834
 41
0.105834
 66
1
 10
0
 20
0
 30
0
  0
VERTEX
  8
LAYER_4
 10
347.564
 20
67.7265
  0
VERTEX
  8
LAYER_4
 10
347.667
 20
67.7203
  0
VERTEX
  8
LAYER_4
 10
347.771
 20
67.7138
  0
VERTEX
  8
LAYER_4
 10
347.876
 20
67.7076
  0
SEQEND
  0
POLYLINE
  8
LAYER_4
 40
0.105834
 41
0.105834
 66
1
 10
0
 20
0
 30
0
  0
VERTEX
  8
LAYER_4
 10
347.986
 20
72.4253
 42
0.0027
  0
VERTEX
  8
LAYER_4
 10
347.887
 20
72.4198
  0
VERTEX
  8
LAYER_4
 10
347.788
 20
72.4146
  0
VERTEX
  8
LAYER_4
 10
347.69
 20
72.4095
  0
SEQEND
  0
POLYLINE
  8
LAYER_4
 40
0.105834
 41
0.105834
 66
1
 10
0
 20
0
 30
0
  0
VERTEX
  8
LAYER_4
 10
334.981
 20
72.4105
 42
-0.0031
  0
VERTEX
  8
LAYER_4
 10
334.893
 20
72.416
 42
-0.002
  0
VERTEX
  8
LAYER_4
 10
334.803
 20
72.4219
 42
0.0024
  0
VERTEX
  8
LAYER_4
 10
334.714
 20
72.4274
 42
0.0431
  0
VERTEX
  8
LAYER_4
 10
334.389
 20
71.5261
 42
-0.0883
  0
VERTEX
  8
LAYER_4
 10
334.458
 20
72.0329
 42
-0.0354
  0
VERTEX
  8
LAYER_4
 10
334.227
 20
70.5811
 42
0.062
  0
VERTEX
  8
LAYER_4
 10
334.227
 20
69.6269
 42
0.0038
  0
VERTEX
  8
LAYER_4
 10
334.389
 20
68.6819
 42
0.043
  0
VERTEX
  8
LAYER_4
 10
334.714
 20
67.7806
  0
VERTEX
  8
LAYER_4
 10
334.803
 20
67.7865
  0
VERTEX
  8
LAYER_4
 10
334.893
 20
67.792
  0
VERTEX
  8
LAYER_4
 10
334.981
 20
67.7975
  0
SEQEND
  0
POLYLINE
  8
LAYER_4
 40
0.105834
 41
0.105834
 66
1
 10
0
 20
0
 30
0
  0
VERTEX
  8
LAYER_4
 10
347.69
 20
72.4095
  0
VERTEX
  8
LAYER_4
 10
347.66
 20
72.4474
  0
VERTEX
  8
LAYER_4
 10
347.616
 20
72.4729
  0
VERTEX
  8
LAYER_4
 10
347.564
 20
72.4818
  0
SEQEND
  0
POLYLINE
  8
LAYER_4
 40
0.105834
 41
0.105834
 66
1
 10
0
 20
0
 30
0
  0
VERTEX
  8
LAYER_4
 10
347.564
 20
67.7265
  0
VERTEX
  8
LAYER_4
 10
347.616
 20
67.7351
  0
VERTEX
  8
LAYER_4
 10
347.66
 20
67.7606
  0
VERTEX
  8
LAYER_4
 10
347.69
 20
67.7989
  0
SEQEND
  0
POLYLINE
  8
LAYER_4
 40
0.105834
 41
0.105834
 66
1
 10
0
 20
0
 30
0
  0
VERTEX
  8
LAYER_4
 10
334.981
 20
67.7975
  0
VERTEX
  8
LAYER_4
 10
335.01
 20
67.7599
  0
VERTEX
  8
LAYER_4
 10
335.052
 20
67.7351
  0
VERTEX
  8
LAYER_4
 10
335.102
 20
67.7265
  0
SEQEND
  0
POLYLINE
  8
LAYER_4
 40
0.105834
 41
0.105834
 66
1
 10
0
 20
0
 30
0
  0
VERTEX
  8
LAYER_4
 10
335.102
 20
72.4818
  0
VERTEX
  8
LAYER_4
 10
335.052
 20
72.4729
  0
VERTEX
  8
LAYER_4
 10
335.01
 20
72.4481
  0
VERTEX
  8
LAYER_4
 10
334.981
 20
72.4105
  0
SEQEND
  0
POLYLINE
  8
LAYER_4
 40
0.105834
 41
0.105834
 66
1
 10
0
 20
0
 30
0
  0
VERTEX
  8
LAYER_4
 10
334.823
 20
67.7069
  0
VERTEX
  8
LAYER_4
 10
334.917
 20
67.7134
  0
VERTEX
  8
LAYER_4
 10
335.01
 20
67.72
  0
VERTEX
  8
LAYER_4
 10
335.102
 20
67.7265
  0
SEQEND
  0
POLYLINE
  8
LAYER_4
 40
0.105834
 41
0.105834
 66
1
 10
0
 20
0
 30
0
  0
VERTEX
  8
LAYER_4
 10
276.993
 20
69.6065
  0
VERTEX
  8
LAYER_4
 10
276.991
 20
69.6189
  0
VERTEX
  8
LAYER_4
 10
276.99
 20
69.6337
 42
-0.0143
  0
VERTEX
  8
LAYER_4
 10
276.986
 20
69.7412
 42
-0.0044
  0
VERTEX
  8
LAYER_4
 10
276.983
 20
69.8553
  0
VERTEX
  8
LAYER_4
 10
276.981
 20
69.9776
  0
VERTEX
  8
LAYER_4
 10
276.981
 20
70.104
  0
VERTEX
  8
LAYER_4
 10
276.981
 20
70.2304
  0
VERTEX
  8
LAYER_4
 10
276.983
 20
70.3527
 42
-0.0026
  0
VERTEX
  8
LAYER_4
 10
276.986
 20
70.4668
 42
-0.0047
  0
VERTEX
  8
LAYER_4
 10
276.99
 20
70.5743
  0
SEQEND
  0
POLYLINE
  8
LAYER_4
 40
0.105834
 41
0.105834
 66
1
 10
0
 20
0
 30
0
  0
VERTEX
  8
LAYER_4
 10
275.998
 20
70.6015
  0
VERTEX
  8
LAYER_4
 10
275.999
 20
70.5891
  0
VERTEX
  8
LAYER_4
 10
276.001
 20
70.5743
  0
VERTEX
  8
LAYER_4
 10
276.005
 20
70.4668
  0
VERTEX
  8
LAYER_4
 10
276.008
 20
70.3527
 42
-0.0041
  0
VERTEX
  8
LAYER_4
 10
276.009
 20
70.2304
  0
VERTEX
  8
LAYER_4
 10
276.01
 20
70.104
 42
-0.004
  0
VERTEX
  8
LAYER_4
 10
276.009
 20
69.9776
 42
-0.004
  0
VERTEX
  8
LAYER_4
 10
276.008
 20
69.8553
 42
-0.0042
  0
VERTEX
  8
LAYER_4
 10
276.005
 20
69.7412
  0
VERTEX
  8
LAYER_4
 10
276.001
 20
69.6337
  0
VERTEX
  8
LAYER_4
 10
275.999
 20
69.6189
  0
VERTEX
  8
LAYER_4
 10
275.998
 20
69.6065
  0
SEQEND
  0
POLYLINE
  8
LAYER_4
 40
0.105834
 41
0.105834
 66
1
 10
0
 20
0
 30
0
  0
VERTEX
  8
LAYER_4
 10
287.998
 20
69.6065
  0
VERTEX
  8
LAYER_4
 10
287.999
 20
69.6189
  0
VERTEX
  8
LAYER_4
 10
288.001
 20
69.6337
  0
SEQEND
  0
POLYLINE
  8
LAYER_4
 40
0.105834
 41
0.105834
 66
1
 10
0
 20
0
 30
0
  0
VERTEX
  8
LAYER_4
 10
282.993
 20
69.6065
  0
VERTEX
  8
LAYER_4
 10
282.991
 20
69.6189
  0
VERTEX
  8
LAYER_4
 10
282.99
 20
69.6337
 42
-0.0025
  0
VERTEX
  8
LAYER_4
 10
282.986
 20
69.7412
 42
-0.0044
  0
VERTEX
  8
LAYER_4
 10
282.983
 20
69.8553
  0
VERTEX
  8
LAYER_4
 10
282.981
 20
69.9776
  0
VERTEX
  8
LAYER_4
 10
282.981
 20
70.104
  0
VERTEX
  8
LAYER_4
 10
282.981
 20
70.2304
  0
VERTEX
  8
LAYER_4
 10
282.983
 20
70.3527
 42
-0.0026
  0
VERTEX
  8
LAYER_4
 10
282.986
 20
70.4668
 42
-0.0053
  0
VERTEX
  8
LAYER_4
 10
282.99
 20
70.5743
  0
VERTEX
  8
LAYER_4
 10
282.991
 20
70.5891
  0
VERTEX
  8
LAYER_4
 10
282.993
 20
70.6015
  0
SEQEND
  0
POLYLINE
  8
LAYER_4
 40
0.105834
 41
0.105834
 66
1
 10
0
 20
0
 30
0
  0
VERTEX
  8
LAYER_4
 10
281.998
 20
70.6015
  0
VERTEX
  8
LAYER_4
 10
281.999
 20
70.5891
  0
VERTEX
  8
LAYER_4
 10
282.001
 20
70.5743
 42
-0.0025
  0
VERTEX
  8
LAYER_4
 10
282.005
 20
70.4668
 42
-0.0044
  0
VERTEX
  8
LAYER_4
 10
282.008
 20
70.3527
 42
-0.0041
  0
VERTEX
  8
LAYER_4
 10
282.009
 20
70.2304
  0
VERTEX
  8
LAYER_4
 10
282.01
 20
70.104
  0
VERTEX
  8
LAYER_4
 10
282.009
 20
69.9776
 42
-0.004
  0
VERTEX
  8
LAYER_4
 10
282.008
 20
69.8553
 42
-0.0042
  0
VERTEX
  8
LAYER_4
 10
282.005
 20
69.7412
 42
-0.0018
  0
VERTEX
  8
LAYER_4
 10
282.001
 20
69.6337
  0
VERTEX
  8
LAYER_4
 10
281.999
 20
69.6189
  0
VERTEX
  8
LAYER_4
 10
281.998
 20
69.6065
  0
SEQEND
  0
POLYLINE
  8
LAYER_4
 40
0.105834
 41
0.105834
 66
1
 10
0
 20
0
 30
0
  0
VERTEX
  8
LAYER_4
 10
270.993
 20
69.6065
  0
VERTEX
  8
LAYER_4
 10
270.991
 20
69.6189
  0
VERTEX
  8
LAYER_4
 10
270.99
 20
69.6337
 42
-0.005
  0
VERTEX
  8
LAYER_4
 10
270.986
 20
69.7412
  0
VERTEX
  8
LAYER_4
 10
270.983
 20
69.8553
  0
VERTEX
  8
LAYER_4
 10
270.981
 20
69.9776
  0
VERTEX
  8
LAYER_4
 10
270.981
 20
70.104
  0
VERTEX
  8
LAYER_4
 10
270.981
 20
70.2304
  0
VERTEX
  8
LAYER_4
 10
270.983
 20
70.3527
 42
-0.0026
  0
VERTEX
  8
LAYER_4
 10
270.986
 20
70.4668
 42
-0.0047
  0
VERTEX
  8
LAYER_4
 10
270.99
 20
70.5743
  0
VERTEX
  8
LAYER_4
 10
270.991
 20
70.5891
  0
VERTEX
  8
LAYER_4
 10
270.993
 20
70.6015
  0
SEQEND
  0
POLYLINE
  8
LAYER_4
 40
0.105834
 41
0.105834
 66
1
 10
0
 20
0
 30
0
  0
VERTEX
  8
LAYER_4
 10
269.998
 20
70.6015
  0
VERTEX
  8
LAYER_4
 10
269.999
 20
70.5891
  0
VERTEX
  8
LAYER_4
 10
270.001
 20
70.5743
 42
-0.0025
  0
VERTEX
  8
LAYER_4
 10
270.005
 20
70.4668
  0
VERTEX
  8
LAYER_4
 10
270.008
 20
70.3527
 42
-0.0041
  0
VERTEX
  8
LAYER_4
 10
270.009
 20
70.2304
  0
VERTEX
  8
LAYER_4
 10
270.01
 20
70.104
  0
VERTEX
  8
LAYER_4
 10
270.009
 20
69.9776
 42
-0.004
  0
VERTEX
  8
LAYER_4
 10
270.008
 20
69.8553
 42
-0.0042
  0
VERTEX
  8
LAYER_4
 10
270.005
 20
69.7412
 42
-0.0018
  0
VERTEX
  8
LAYER_4
 10
270.001
 20
69.6337
  0
VERTEX
  8
LAYER_4
 10
269.999
 20
69.6189
  0
VERTEX
  8
LAYER_4
 10
269.998
 20
69.6065
  0
SEQEND
  0
POLYLINE
  8
LAYER_4
 40
0.105834
 41
0.105834
 66
1
 10
0
 20
0
 30
0
  0
VERTEX
  8
LAYER_4
 10
288.993
 20
69.6065
  0
VERTEX
  8
LAYER_4
 10
288.991
 20
69.6189
  0
VERTEX
  8
LAYER_4
 10
288.99
 20
69.6337
 42
-0.0025
  0
VERTEX
  8
LAYER_4
 10
288.986
 20
69.7412
 42
-0.0044
  0
VERTEX
  8
LAYER_4
 10
288.983
 20
69.8553
  0
VERTEX
  8
LAYER_4
 10
288.981
 20
69.9776
 42
-0.0041
  0
VERTEX
  8
LAYER_4
 10
288.981
 20
70.104
  0
VERTEX
  8
LAYER_4
 10
288.981
 20
70.2304
 42
-0.0024
  0
VERTEX
  8
LAYER_4
 10
288.983
 20
70.3527
 42
-0.0042
  0
VERTEX
  8
LAYER_4
 10
288.986
 20
70.4668
 42
-0.0053
  0
VERTEX
  8
LAYER_4
 10
288.99
 20
70.5743
  0
VERTEX
  8
LAYER_4
 10
288.991
 20
70.5891
  0
VERTEX
  8
LAYER_4
 10
288.993
 20
70.6015
  0
SEQEND
  0
POLYLINE
  8
LAYER_4
 40
0.105834
 41
0.105834
 66
1
 10
0
 20
0
 30
0
  0
VERTEX
  8
LAYER_4
 10
287.998
 20
70.6015
  0
VERTEX
  8
LAYER_4
 10
287.999
 20
70.5891
  0
VERTEX
  8
LAYER_4
 10
288.001
 20
70.5743
 42
-0.0025
  0
VERTEX
  8
LAYER_4
 10
288.005
 20
70.4668
 42
-0.0044
  0
VERTEX
  8
LAYER_4
 10
288.008
 20
70.3527
  0
VERTEX
  8
LAYER_4
 10
288.009
 20
70.2304
  0
VERTEX
  8
LAYER_4
 10
288.01
 20
70.104
  0
VERTEX
  8
LAYER_4
 10
288.009
 20
69.9776
  0
VERTEX
  8
LAYER_4
 10
288.008
 20
69.8553
 42
-0.0042
  0
VERTEX
  8
LAYER_4
 10
288.005
 20
69.7412
 42
-0.0018
  0
VERTEX
  8
LAYER_4
 10
288.001
 20
69.6337
  0
SEQEND
  0
POLYLINE
  8
LAYER_4
 40
0.105834
 41
0.105834
 66
1
 10
0
 20
0
 30
0
  0
VERTEX
  8
LAYER_4
 10
276.993
 20
70.6015
  0
VERTEX
  8
LAYER_4
 10
276.991
 20
70.5891
  0
VERTEX
  8
LAYER_4
 10
276.99
 20
70.5743
  0
SEQEND
  0
POLYLINE
  8
LAYER_4
 40
0.105834
 41
0.105834
 66
1
 10
0
 20
0
 30
0
  0
VERTEX
  8
LAYER_4
 10
354.495
 20
60.7026
 42
-0.0451
  0
VERTEX
  8
LAYER_4
 10
354.486
 20
60.5986
 42
-0.0071
  0
VERTEX
  8
LAYER_4
 10
354.459
 20
60.498
 42
-0.0442
  0
VERTEX
  8
LAYER_4
 10
354.416
 20
60.4039
 42
-0.0302
  0
VERTEX
  8
LAYER_4
 10
354.356
 20
60.3178
 42
-0.0186
  0
VERTEX
  8
LAYER_4
 10
354.281
 20
60.2434
 42
-0.0188
  0
VERTEX
  8
LAYER_4
 10
354.196
 20
60.1834
 42
-0.0467
  0
VERTEX
  8
LAYER_4
 10
354.102
 20
60.14
 42
-0.0442
  0
VERTEX
  8
LAYER_4
 10
354.002
 20
60.1128
 42
-0.042
  0
VERTEX
  8
LAYER_4
 10
353.898
 20
60.1042
  0
SEQEND
  0
POLYLINE
  8
LAYER_4
 40
0.105834
 41
0.105834
 66
1
 10
0
 20
0
 30
0
  0
VERTEX
  8
LAYER_4
 10
184.777
 20
60.7157
 42
0.0515
  0
VERTEX
  8
LAYER_4
 10
184.786
 20
60.6117
 42
0.0071
  0
VERTEX
  8
LAYER_4
 10
184.813
 20
60.5111
 42
0.0442
  0
VERTEX
  8
LAYER_4
 10
184.856
 20
60.417
 42
0.0302
  0
VERTEX
  8
LAYER_4
 10
184.916
 20
60.3309
 42
0.0211
  0
VERTEX
  8
LAYER_4
 10
184.991
 20
60.2565
  0
VERTEX
  8
LAYER_4
 10
185.076
 20
60.1965
  0
VERTEX
  8
LAYER_4
 10
185.17
 20
60.1531
  0
VERTEX
  8
LAYER_4
 10
185.27
 20
60.1259
  0
VERTEX
  8
LAYER_4
 10
185.374
 20
60.1173
  0
SEQEND
  0
POLYLINE
  8
LAYER_4
 40
0.105834
 41
0.105834
 66
1
 10
0
 20
0
 30
0
  0
VERTEX
  8
LAYER_4
 10
354.096
 20
77.4242
  0
VERTEX
  8
LAYER_4
 10
354.184
 20
77.4142
  0
VERTEX
  8
LAYER_4
 10
354.268
 20
77.3849
  0
VERTEX
  8
LAYER_4
 10
354.344
 20
77.3374
  0
VERTEX
  8
LAYER_4
 10
354.36
 20
77.3649
  0
VERTEX
  8
LAYER_4
 10
354.338
 20
77.3877
  0
VERTEX
  8
LAYER_4
 10
354.31
 20
77.3722
 42
0.0885
  0
VERTEX
  8
LAYER_4
 10
354.409
 20
77.2733
 42
-0.0434
  0
VERTEX
  8
LAYER_4
 10
354.456
 20
77.1972
 42
-0.0579
  0
VERTEX
  8
LAYER_4
 10
354.485
 20
77.1131
 42
-0.057
  0
VERTEX
  8
LAYER_4
 10
354.495
 20
77.0246
  0
SEQEND
  0
POLYLINE
  8
LAYER_4
 40
0.105834
 41
0.105834
 66
1
 10
0
 20
0
 30
0
  0
VERTEX
  8
LAYER_4
 10
324.495
 20
77.0738
  0
VERTEX
  8
LAYER_4
 10
324.496
 20
77.1234
  0
VERTEX
  8
LAYER_4
 10
324.497
 20
77.1706
  0
VERTEX
  8
LAYER_4
 10
324.498
 20
77.2106
  0
VERTEX
  8
LAYER_4
 10
324.5
 20
77.2433
  0
VERTEX
  8
LAYER_4
 10
324.502
 20
77.2605
  0
VERTEX
  8
LAYER_4
 10
324.506
 20
77.274
  0
SEQEND
  0
POLYLINE
  8
LAYER_4
 40
0.105834
 41
0.105834
 66
1
 10
0
 20
0
 30
0
  0
VERTEX
  8
LAYER_4
 10
324.553
 20
60.2382
  0
VERTEX
  8
LAYER_4
 10
324.55
 20
60.2499
  0
VERTEX
  8
LAYER_4
 10
324.548
 20
60.2651
  0
VERTEX
  8
LAYER_4
 10
324.546
 20
60.2937
  0
VERTEX
  8
LAYER_4
 10
324.545
 20
60.3292
  0
VERTEX
  8
LAYER_4
 10
324.543
 20
60.3698
  0
SEQEND
  0
POLYLINE
  8
LAYER_4
 40
0.105834
 41
0.105834
 66
1
 10
0
 20
0
 30
0
  0
VERTEX
  8
LAYER_4
 10
334.378
 20
71.5437
  0
VERTEX
  8
LAYER_4
 10
334.384
 20
71.5447
  0
VERTEX
  8
LAYER_4
 10
334.386
 20
71.5451
  0
SEQEND
  0
POLYLINE
  8
LAYER_4
 40
0.105834
 41
0.105834
 66
1
 10
0
 20
0
 30
0
  0
VERTEX
  8
LAYER_4
 10
334.062
 20
71.2633
  0
VERTEX
  8
LAYER_4
 10
334.148
 20
71.2771
  0
VERTEX
  8
LAYER_4
 10
334.235
 20
71.2905
  0
VERTEX
  8
LAYER_4
 10
334.321
 20
71.3039
  0
SEQEND
  0
POLYLINE
  8
LAYER_4
 40
0.105834
 41
0.105834
 66
1
 10
0
 20
0
 30
0
  0
VERTEX
  8
LAYER_4
 10
334.321
 20
68.9041
 42
0.0019
  0
VERTEX
  8
LAYER_4
 10
334.235
 20
68.9175
 42
-0.0029
  0
VERTEX
  8
LAYER_4
 10
334.148
 20
68.9313
 42
-0.0032
  0
VERTEX
  8
LAYER_4
 10
334.062
 20
68.9451
  0
SEQEND
  0
POLYLINE
  8
LAYER_4
 40
0.105834
 41
0.105834
 66
1
 10
0
 20
0
 30
0
  0
VERTEX
  8
LAYER_4
 10
334.386
 20
68.6629
  0
VERTEX
  8
LAYER_4
 10
334.384
 20
68.6633
  0
VERTEX
  8
LAYER_4
 10
334.378
 20
68.6643
  0
SEQEND
  0
POLYLINE
  8
LAYER_4
 40
0.105834
 41
0.105834
 66
1
 10
0
 20
0
 30
0
  0
VERTEX
  8
LAYER_4
 10
334.889
 20
72.5469
  0
VERTEX
  8
LAYER_4
 10
334.833
 20
72.539
  0
VERTEX
  8
LAYER_4
 10
334.797
 20
72.5245
  0
VERTEX
  8
LAYER_4
 10
334.78
 20
72.5149
  0
VERTEX
  8
LAYER_4
 10
334.75
 20
72.4911
  0
VERTEX
  8
LAYER_4
 10
334.737
 20
72.4773
  0
VERTEX
  8
LAYER_4
 10
334.727
 20
72.4643
  0
SEQEND
  0
POLYLINE
  8
LAYER_4
 40
0.105834
 41
0.105834
 66
1
 10
0
 20
0
 30
0
  0
VERTEX
  8
LAYER_4
 10
353.844
 20
62.9041
  0
VERTEX
  8
LAYER_4
 10
353.893
 20
62.9054
  0
VERTEX
  8
LAYER_4
 10
353.94
 20
62.9092
  0
VERTEX
  8
LAYER_4
 10
353.98
 20
62.9147
  0
VERTEX
  8
LAYER_4
 10
354.011
 20
62.9216
  0
VERTEX
  8
LAYER_4
 10
354.032
 20
62.9289
  0
VERTEX
  8
LAYER_4
 10
354.044
 20
62.9392
  0
SEQEND
  0
POLYLINE
  8
LAYER_4
 40
0.105834
 41
0.105834
 66
1
 10
0
 20
0
 30
0
  0
VERTEX
  8
LAYER_4
 10
354.092
 20
60.4384
  0
VERTEX
  8
LAYER_4
 10
354.081
 20
60.4191
  0
VERTEX
  8
LAYER_4
 10
354.059
 20
60.4039
  0
VERTEX
  8
LAYER_4
 10
354.027
 20
60.3905
  0
VERTEX
  8
LAYER_4
 10
353.988
 20
60.3798
  0
VERTEX
  8
LAYER_4
 10
353.941
 20
60.3729
  0
VERTEX
  8
LAYER_4
 10
353.892
 20
60.3698
  0
SEQEND
  0
POLYLINE
  8
LAYER_4
 40
0.105834
 41
0.105834
 66
1
 10
0
 20
0
 30
0
  0
VERTEX
  8
LAYER_4
 10
334.726
 20
67.7458
  0
VERTEX
  8
LAYER_4
 10
334.737
 20
67.731
  0
VERTEX
  8
LAYER_4
 10
334.75
 20
67.7169
  0
VERTEX
  8
LAYER_4
 10
334.765
 20
67.7045
  0
VERTEX
  8
LAYER_4
 10
334.78
 20
67.6935
  0
VERTEX
  8
LAYER_4
 10
334.797
 20
67.6838
  0
VERTEX
  8
LAYER_4
 10
334.832
 20
67.6697
  0
VERTEX
  8
LAYER_4
 10
334.851
 20
67.6649
  0
VERTEX
  8
LAYER_4
 10
334.889
 20
67.6611
  0
SEQEND
  0
POLYLINE
  8
LAYER_4
 40
0.105834
 41
0.105834
 66
1
 10
0
 20
0
 30
0
  0
VERTEX
  8
LAYER_4
 10
354.092
 20
60.4384
  0
VERTEX
  8
LAYER_4
 10
354.085
 20
60.3864
  0
VERTEX
  8
LAYER_4
 10
354.065
 20
60.3385
  0
VERTEX
  8
LAYER_4
 10
354.033
 20
60.2971
  0
VERTEX
  8
LAYER_4
 10
353.992
 20
60.2651
  0
VERTEX
  8
LAYER_4
 10
353.944
 20
60.2451
  0
VERTEX
  8
LAYER_4
 10
353.892
 20
60.2382
  0
SEQEND
  0
POLYLINE
  8
LAYER_4
 40
0.105834
 41
0.105834
 66
1
 10
0
 20
0
 30
0
  0
VERTEX
  8
LAYER_4
 10
334.364
 20
72.6179
  0
VERTEX
  8
LAYER_4
 10
334.385
 20
72.6568
  0
VERTEX
  8
LAYER_4
 10
334.413
 20
72.6923
  0
VERTEX
  8
LAYER_4
 10
334.449
 20
72.7244
  0
VERTEX
  8
LAYER_4
 10
334.447
 20
72.7254
  0
VERTEX
  8
LAYER_4
 10
334.448
 20
72.7271
  0
VERTEX
  8
LAYER_4
 10
334.45
 20
72.7268
  0
VERTEX
  8
LAYER_4
 10
334.489
 20
72.7502
  0
VERTEX
  8
LAYER_4
 10
334.533
 20
72.7681
  0
VERTEX
  8
LAYER_4
 10
334.576
 20
72.7788
  0
VERTEX
  8
LAYER_4
 10
334.619
 20
72.7819
  0
SEQEND
  0
POLYLINE
  8
LAYER_4
 40
0.105834
 41
0.105834
 66
1
 10
0
 20
0
 30
0
  0
VERTEX
  8
LAYER_4
 10
347.974
 20
72.702
  0
VERTEX
  8
LAYER_4
 10
347.97
 20
72.6958
  0
VERTEX
  8
LAYER_4
 10
347.966
 20
72.6896
  0
VERTEX
  8
LAYER_4
 10
347.962
 20
72.683
  0
SEQEND
  0
POLYLINE
  8
LAYER_4
 40
0.105834
 41
0.105834
 66
1
 10
0
 20
0
 30
0
  0
VERTEX
  8
LAYER_4
 10
339.195
 20
72.6644
  0
VERTEX
  8
LAYER_4
 10
339.144
 20
72.6703
 42
-0.0689
  0
VERTEX
  8
LAYER_4
 10
339.041
 20
72.6778
 42
0.0278
  0
VERTEX
  8
LAYER_4
 10
338.864
 20
72.6823
 42
-0.0037
  0
VERTEX
  8
LAYER_4
 10
338.661
 20
72.6858
 42
0.003
  0
VERTEX
  8
LAYER_4
 10
338.419
 20
72.6875
 42
0.002
  0
VERTEX
  8
LAYER_4
 10
338.171
 20
72.6875
 42
0.0033
  0
VERTEX
  8
LAYER_4
 10
337.93
 20
72.6858
 42
-0.0022
  0
VERTEX
  8
LAYER_4
 10
337.726
 20
72.6823
 42
0.0189
  0
VERTEX
  8
LAYER_4
 10
337.549
 20
72.6778
 42
-0.1496
  0
VERTEX
  8
LAYER_4
 10
337.446
 20
72.6703
  0
VERTEX
  8
LAYER_4
 10
337.395
 20
72.6644
  0
SEQEND
  0
POLYLINE
  8
LAYER_4
 40
0.105834
 41
0.105834
 66
1
 10
0
 20
0
 30
0
  0
VERTEX
  8
LAYER_4
 10
334.619
 20
67.4261
  0
VERTEX
  8
LAYER_4
 10
334.573
 20
67.4299
  0
VERTEX
  8
LAYER_4
 10
334.527
 20
67.4416
  0
VERTEX
  8
LAYER_4
 10
334.507
 20
67.4158
  0
VERTEX
  8
LAYER_4
 10
334.477
 20
67.4292
  0
VERTEX
  8
LAYER_4
 10
334.483
 20
67.4613
  0
VERTEX
  8
LAYER_4
 10
334.443
 20
67.4878
  0
VERTEX
  8
LAYER_4
 10
334.417
 20
67.4709
  0
VERTEX
  8
LAYER_4
 10
334.394
 20
67.4926
  0
VERTEX
  8
LAYER_4
 10
334.41
 20
67.5195
  0
VERTEX
  8
LAYER_4
 10
334.384
 20
67.5539
  0
VERTEX
  8
LAYER_4
 10
334.364
 20
67.5901
  0
SEQEND
  0
POLYLINE
  8
LAYER_4
 40
0.105834
 41
0.105834
 66
1
 10
0
 20
0
 30
0
  0
VERTEX
  8
LAYER_4
 10
334.889
 20
72.5469
  0
VERTEX
  8
LAYER_4
 10
334.799
 20
72.599
 42
-0.002
  0
VERTEX
  8
LAYER_4
 10
334.709
 20
72.6506
 42
-0.0033
  0
VERTEX
  8
LAYER_4
 10
334.619
 20
72.702
  0
SEQEND
  0
POLYLINE
  8
LAYER_4
 40
0.105834
 41
0.105834
 66
1
 10
0
 20
0
 30
0
  0
VERTEX
  8
LAYER_4
 10
334.889
 20
67.6611
  0
VERTEX
  8
LAYER_4
 10
334.799
 20
67.6094
  0
VERTEX
  8
LAYER_4
 10
334.709
 20
67.5577
  0
VERTEX
  8
LAYER_4
 10
334.619
 20
67.506
  0
SEQEND
  0
POLYLINE
  8
LAYER_4
 40
0.105834
 41
0.105834
 66
1
 10
0
 20
0
 30
0
  0
VERTEX
  8
LAYER_4
 10
348.229
 20
67.5901
  0
VERTEX
  8
LAYER_4
 10
348.209
 20
67.5532
  0
VERTEX
  8
LAYER_4
 10
348.182
 20
67.5184
  0
VERTEX
  8
LAYER_4
 10
348.148
 20
67.4867
  0
VERTEX
  8
LAYER_4
 10
348.108
 20
67.4602
  0
VERTEX
  8
LAYER_4
 10
348.064
 20
67.4409
  0
VERTEX
  8
LAYER_4
 10
348.019
 20
67.4296
  0
VERTEX
  8
LAYER_4
 10
347.974
 20
67.4261
  0
SEQEND
  0
POLYLINE
  8
LAYER_4
 40
0.105834
 41
0.105834
 66
1
 10
0
 20
0
 30
0
  0
VERTEX
  8
LAYER_4
 10
337.395
 20
67.5439
  0
VERTEX
  8
LAYER_4
 10
337.446
 20
67.5377
  0
VERTEX
  8
LAYER_4
 10
337.549
 20
67.5302
  0
VERTEX
  8
LAYER_4
 10
337.726
 20
67.5257
  0
VERTEX
  8
LAYER_4
 10
337.93
 20
67.5226
  0
VERTEX
  8
LAYER_4
 10
338.171
 20
67.5205
  0
VERTEX
  8
LAYER_4
 10
338.419
 20
67.5205
  0
VERTEX
  8
LAYER_4
 10
338.661
 20
67.5226
  0
VERTEX
  8
LAYER_4
 10
338.864
 20
67.5257
  0
VERTEX
  8
LAYER_4
 10
339.041
 20
67.5302
  0
VERTEX
  8
LAYER_4
 10
339.144
 20
67.5377
  0
VERTEX
  8
LAYER_4
 10
339.195
 20
67.5439
  0
SEQEND
  0
POLYLINE
  8
LAYER_4
 40
0.105834
 41
0.105834
 66
1
 10
0
 20
0
 30
0
  0
VERTEX
  8
LAYER_4
 10
347.974
 20
72.7819
  0
VERTEX
  8
LAYER_4
 10
348.016
 20
72.7788
  0
VERTEX
  8
LAYER_4
 10
348.059
 20
72.7688
  0
VERTEX
  8
LAYER_4
 10
348.102
 20
72.7509
  0
VERTEX
  8
LAYER_4
 10
348.143
 20
72.7257
  0
VERTEX
  8
LAYER_4
 10
348.178
 20
72.6934
  0
VERTEX
  8
LAYER_4
 10
348.207
 20
72.6575
  0
VERTEX
  8
LAYER_4
 10
348.229
 20
72.6179
  0
SEQEND
  0
POLYLINE
  8
LAYER_4
 40
0.105834
 41
0.105834
 66
1
 10
0
 20
0
 30
0
  0
VERTEX
  8
LAYER_4
 10
347.974
 20
67.506
  0
VERTEX
  8
LAYER_4
 10
347.97
 20
67.5122
  0
VERTEX
  8
LAYER_4
 10
347.966
 20
67.5188
  0
VERTEX
  8
LAYER_4
 10
347.962
 20
67.525
  0
SEQEND
  0
POLYLINE
  8
LAYER_4
 40
0.105834
 41
0.105834
 66
1
 10
0
 20
0
 30
0
  0
VERTEX
  8
LAYER_4
 10
334.677
 20
72.4463
  0
VERTEX
  8
LAYER_4
 10
334.686
 20
72.4408
  0
VERTEX
  8
LAYER_4
 10
334.616
 20
72.4811
  0
VERTEX
  8
LAYER_4
 10
334.526
 20
72.5332
 42
-0.0014
  0
VERTEX
  8
LAYER_4
 10
334.436
 20
72.5848
  0
SEQEND
  0
POLYLINE
  8
LAYER_4
 40
0.105834
 41
0.105834
 66
1
 10
0
 20
0
 30
0
  0
VERTEX
  8
LAYER_4
 10
334.677
 20
67.7617
  0
VERTEX
  8
LAYER_4
 10
334.686
 20
67.7675
 42
-0.001
  0
VERTEX
  8
LAYER_4
 10
334.616
 20
67.7269
  0
VERTEX
  8
LAYER_4
 10
334.526
 20
67.6748
  0
VERTEX
  8
LAYER_4
 10
334.436
 20
67.6232
  0
SEQEND
  0
POLYLINE
  8
LAYER_4
 40
0.105834
 41
0.105834
 66
1
 10
0
 20
0
 30
0
  0
VERTEX
  8
LAYER_4
 10
348.144
 20
72.5655
  0
VERTEX
  8
LAYER_4
 10
348.114
 20
72.6138
  0
VERTEX
  8
LAYER_4
 10
348.07
 20
72.6513
  0
VERTEX
  8
LAYER_4
 10
348.019
 20
72.6751
  0
VERTEX
  8
LAYER_4
 10
347.962
 20
72.683
  0
SEQEND
  0
POLYLINE
  8
LAYER_4
 40
0.105834
 41
0.105834
 66
1
 10
0
 20
0
 30
0
  0
VERTEX
  8
LAYER_4
 10
347.962
 20
67.525
  0
VERTEX
  8
LAYER_4
 10
348.019
 20
67.5329
  0
VERTEX
  8
LAYER_4
 10
348.07
 20
67.557
  0
VERTEX
  8
LAYER_4
 10
348.113
 20
67.5942
  0
VERTEX
  8
LAYER_4
 10
348.144
 20
67.6425
  0
VERTEX
  8
LAYER_4
 10
348.148
 20
67.6363
  0
VERTEX
  8
LAYER_4
 10
348.152
 20
67.6297
  0
VERTEX
  8
LAYER_4
 10
348.156
 20
67.6232
  0
SEQEND
  0
POLYLINE
  8
LAYER_4
 40
0.105834
 41
0.105834
 66
1
 10
0
 20
0
 30
0
  0
VERTEX
  8
LAYER_4
 10
348.156
 20
72.5848
  0
VERTEX
  8
LAYER_4
 10
348.152
 20
72.5783
  0
VERTEX
  8
LAYER_4
 10
348.148
 20
72.5721
  0
VERTEX
  8
LAYER_4
 10
348.144
 20
72.5655
  0
SEQEND
  0
POLYLINE
  8
LAYER_4
 40
0.105834
 41
0.105834
 66
1
 10
0
 20
0
 30
0
  0
VERTEX
  8
LAYER_4
 10
348.528
 20
70.1571
  0
VERTEX
  8
LAYER_4
 10
348.522
 20
70.2087
  0
VERTEX
  8
LAYER_4
 10
348.507
 20
70.2466
  0
VERTEX
  8
LAYER_4
 10
348.492
 20
70.2714
  0
SEQEND
  0
POLYLINE
  8
LAYER_4
 40
0.105834
 41
0.105834
 66
1
 10
0
 20
0
 30
0
  0
VERTEX
  8
LAYER_4
 10
348.492
 20
69.9366
  0
VERTEX
  8
LAYER_4
 10
348.507
 20
69.9617
  0
VERTEX
  8
LAYER_4
 10
348.522
 20
69.9996
  0
VERTEX
  8
LAYER_4
 10
348.528
 20
70.0509
  0
SEQEND
  0
POLYLINE
  8
LAYER_4
 40
0.105834
 41
0.105834
 66
1
 10
0
 20
0
 30
0
  0
VERTEX
  8
LAYER_4
 10
353.844
 20
77.274
  0
VERTEX
  8
LAYER_4
 10
353.896
 20
77.2671
  0
VERTEX
  8
LAYER_4
 10
353.944
 20
77.2471
  0
VERTEX
  8
LAYER_4
 10
353.985
 20
77.2151
  0
VERTEX
  8
LAYER_4
 10
354.017
 20
77.1737
  0
VERTEX
  8
LAYER_4
 10
354.037
 20
77.1255
  0
VERTEX
  8
LAYER_4
 10
354.044
 20
77.0738
  0
SEQEND
  0
POLYLINE
  8
LAYER_4
 40
0.105834
 41
0.105834
 66
1
 10
0
 20
0
 30
0
  0
VERTEX
  8
LAYER_4
 10
348.535
 20
70.0441
  0
VERTEX
  8
LAYER_4
 10
348.529
 20
69.9927
  0
VERTEX
  8
LAYER_4
 10
348.512
 20
69.951
  0
VERTEX
  8
LAYER_4
 10
348.492
 20
69.92
  0
SEQEND
  0
POLYLINE
  8
LAYER_4
 40
0.105834
 41
0.105834
 66
1
 10
0
 20
0
 30
0
  0
VERTEX
  8
LAYER_4
 10
348.492
 20
70.2883
  0
VERTEX
  8
LAYER_4
 10
348.512
 20
70.257
  0
VERTEX
  8
LAYER_4
 10
348.529
 20
70.2156
  0
VERTEX
  8
LAYER_4
 10
348.535
 20
70.1639
  0
SEQEND
  0
POLYLINE
  8
LAYER_4
 40
0.105834
 41
0.105834
 66
1
 10
0
 20
0
 30
0
  0
VERTEX
  8
LAYER_4
 10
334.619
 20
67.506
  0
VERTEX
  8
LAYER_4
 10
334.586
 20
67.5088
  0
VERTEX
  8
LAYER_4
 10
334.553
 20
67.5171
  0
VERTEX
  8
LAYER_4
 10
334.541
 20
67.4502
  0
VERTEX
  8
LAYER_4
 10
334.603
 20
67.4223
  0
VERTEX
  8
LAYER_4
 10
334.644
 20
67.4768
 42
0.0025
  0
VERTEX
  8
LAYER_4
 10
334.522
 20
67.5312
  0
VERTEX
  8
LAYER_4
 10
334.493
 20
67.5501
  0
VERTEX
  8
LAYER_4
 10
334.47
 20
67.5729
  0
VERTEX
  8
LAYER_4
 10
334.451
 20
67.5973
  0
VERTEX
  8
LAYER_4
 10
334.436
 20
67.6232
  0
SEQEND
  0
POLYLINE
  8
LAYER_4
 40
0.105834
 41
0.105834
 66
1
 10
0
 20
0
 30
0
  0
VERTEX
  8
LAYER_4
 10
334.436
 20
72.5848
  0
VERTEX
  8
LAYER_4
 10
334.452
 20
72.6127
  0
VERTEX
  8
LAYER_4
 10
334.472
 20
72.6382
  0
VERTEX
  8
LAYER_4
 10
334.497
 20
72.661
  0
VERTEX
  8
LAYER_4
 10
334.496
 20
72.661
  0
VERTEX
  8
LAYER_4
 10
334.496
 20
72.6617
  0
VERTEX
  8
LAYER_4
 10
334.497
 20
72.6617
  0
VERTEX
  8
LAYER_4
 10
334.526
 20
72.6792
  0
VERTEX
  8
LAYER_4
 10
334.557
 20
72.6923
  0
VERTEX
  8
LAYER_4
 10
334.588
 20
72.6996
  0
VERTEX
  8
LAYER_4
 10
334.619
 20
72.702
  0
SEQEND
  0
POLYLINE
  8
LAYER_4
 40
0.105834
 41
0.105834
 66
1
 10
0
 20
0
 30
0
  0
VERTEX
  8
LAYER_4
 10
348.156
 20
67.6232
  0
VERTEX
  8
LAYER_4
 10
348.141
 20
67.597
  0
VERTEX
  8
LAYER_4
 10
348.122
 20
67.5722
  0
VERTEX
  8
LAYER_4
 10
348.098
 20
67.5494
  0
VERTEX
  8
LAYER_4
 10
348.069
 20
67.5305
  0
VERTEX
  8
LAYER_4
 10
348.038
 20
67.5167
  0
VERTEX
  8
LAYER_4
 10
348.006
 20
67.5088
  0
VERTEX
  8
LAYER_4
 10
347.974
 20
67.506
  0
SEQEND
  0
POLYLINE
  8
LAYER_4
 40
0.105834
 41
0.105834
 66
1
 10
0
 20
0
 30
0
  0
VERTEX
  8
LAYER_4
 10
347.974
 20
72.702
  0
VERTEX
  8
LAYER_4
 10
348.004
 20
72.6999
  0
VERTEX
  8
LAYER_4
 10
348.035
 20
72.6923
  0
VERTEX
  8
LAYER_4
 10
348.065
 20
72.6799
  0
VERTEX
  8
LAYER_4
 10
348.094
 20
72.6617
  0
VERTEX
  8
LAYER_4
 10
348.12
 20
72.6389
  0
VERTEX
  8
LAYER_4
 10
348.14
 20
72.6131
  0
VERTEX
  8
LAYER_4
 10
348.156
 20
72.5848
  0
SEQEND
  0
POLYLINE
  8
LAYER_4
 40
0.105834
 41
0.105834
 66
1
 10
0
 20
0
 30
0
  0
VERTEX
  8
LAYER_4
 10
353.892
 20
60.2382
  0
VERTEX
  8
LAYER_4
 10
353.937
 20
60.2213
  0
VERTEX
  8
LAYER_4
 10
353.971
 20
60.2027
  0
VERTEX
  8
LAYER_4
 10
353.991
 20
60.1821
  0
VERTEX
  8
LAYER_4
 10
353.992
 20
60.1614
  0
VERTEX
  8
LAYER_4
 10
353.974
 20
60.14
  0
VERTEX
  8
LAYER_4
 10
353.942
 20
60.1211
  0
VERTEX
  8
LAYER_4
 10
353.898
 20
60.1042
  0
SEQEND
  0
POLYLINE
  8
LAYER_4
 40
0.105834
 41
0.105834
 66
1
 10
0
 20
0
 30
0
  0
VERTEX
  8
LAYER_4
 10
354.044
 20
77.0742
  0
VERTEX
  8
LAYER_4
 10
354.155
 20
77.099
  0
VERTEX
  8
LAYER_4
 10
354.269
 20
77.099
  0
VERTEX
  8
LAYER_4
 10
354.384
 20
77.0742
  0
VERTEX
  8
LAYER_4
 10
354.495
 20
77.0246
  0
SEQEND
  0
POLYLINE
  8
LAYER_4
 40
0.105834
 41
0.105834
 66
1
 10
0
 20
0
 30
0
  0
VERTEX
  8
LAYER_4
 10
354.092
 20
60.438
  0
VERTEX
  8
LAYER_4
 10
354.148
 20
60.4274
  0
VERTEX
  8
LAYER_4
 10
354.207
 20
60.4325
  0
VERTEX
  8
LAYER_4
 10
354.211
 20
60.4246
  0
VERTEX
  8
LAYER_4
 10
354.22
 20
60.427
  0
VERTEX
  8
LAYER_4
 10
354.22
 20
60.4363
  0
VERTEX
  8
LAYER_4
 10
354.266
 20
60.4549
  0
VERTEX
  8
LAYER_4
 10
354.324
 20
60.4935
  0
VERTEX
  8
LAYER_4
 10
354.382
 20
60.5483
 42
0.0342
  0
VERTEX
  8
LAYER_4
 10
354.44
 20
60.6189
 42
0.0196
  0
VERTEX
  8
LAYER_4
 10
354.495
 20
60.7026
  0
SEQEND
  0
POLYLINE
  8
LAYER_4
 40
0.105834
 41
0.105834
 66
1
 10
0
 20
0
 30
0
  0
VERTEX
  8
LAYER_4
 10
353.845
 20
77.274
  0
VERTEX
  8
LAYER_4
 10
353.937
 20
77.3081
  0
VERTEX
  8
LAYER_4
 10
354.013
 20
77.3453
  0
VERTEX
  8
LAYER_4
 10
354.065
 20
77.3818
  0
VERTEX
  8
LAYER_4
 10
354.096
 20
77.4242
  0
SEQEND
  0
POLYLINE
  8
LAYER_4
 40
0.105834
 41
0.105834
 66
1
 10
0
 20
0
 30
0
  0
VERTEX
  8
LAYER_4
 10
324.506
 20
77.2767
  0
VERTEX
  8
LAYER_4
 10
324.514
 20
77.2767
  0
SEQEND
  0
POLYLINE
  8
LAYER_4
 40
0.105834
 41
0.105834
 66
1
 10
0
 20
0
 30
0
  0
VERTEX
  8
LAYER_4
 10
184.78
 20
77.4652
  0
VERTEX
  8
LAYER_4
 10
184.78
 20
60.7002
  0
SEQEND
  0
INSERT
  8
LAYER_4
  2
AIGNBL0401001B
 10
0
 20
0
 30
0
  0
ENDSEC
  0
EOF
