  0
SECTION
  2
HEADER
  9
$ACADVER
  1
AC1014
  9
$ACADMAINTVER
 70
     0
  9
$DWGCODEPAGE
  3
ANSI_932
  9
$INSBASE
 10
0.0
 20
0.0
 30
0.0
  9
$EXTMIN
 10
-6.0
 20
-6.0
 30
0.0
  9
$EXTMAX
 10
291.0
 20
246.056
 30
0.0
  9
$LIMMIN
 10
-5.385737
 20
-6.501719
  9
$LIMMAX
 10
290.288781
 20
203.704643
  9
$ORTHOMODE
 70
     0
  9
$REGENMODE
 70
     1
  9
$FILLMODE
 70
     1
  9
$QTEXTMODE
 70
     0
  9
$MIRRTEXT
 70
     1
  9
$DRAGMODE
 70
     2
  9
$LTSCALE
 40
1.0
  9
$OSMODE
 70
     0
  9
$ATTMODE
 70
     1
  9
$TEXTSIZE
 40
2.116667
  9
$TRACEWID
 40
0.05
  9
$TEXTSTYLE
  7
STANDARD
  9
$CLAYER
  8
1
  9
$CELTYPE
  6
BYLAYER
  9
$CECOLOR
 62
   256
  9
$CELTSCALE
 40
1.0
  9
$DELOBJ
 70
     1
  9
$DISPSILH
 70
     0
  9
$DIMSCALE
 40
1.0
  9
$DIMASZ
 40
1.0
  9
$DIMEXO
 40
0.0
  9
$DIMDLI
 40
0.5
  9
$DIMRND
 40
0.0
  9
$DIMDLE
 40
0.0
  9
$DIMEXE
 40
0.0
  9
$DIMTP
 40
0.0
  9
$DIMTM
 40
0.0
  9
$DIMTXT
 40
2.116667
  9
$DIMCEN
 40
0.0
  9
$DIMTSZ
 40
0.0
  9
$DIMTOL
 70
     0
  9
$DIMLIM
 70
     0
  9
$DIMTIH
 70
     1
  9
$DIMTOH
 70
     1
  9
$DIMSE1
 70
     0
  9
$DIMSE2
 70
     0
  9
$DIMTAD
 70
     0
  9
$DIMZIN
 70
     0
  9
$DIMBLK
  1

  9
$DIMASO
 70
     0
  9
$DIMSHO
 70
     0
  9
$DIMPOST
  1

  9
$DIMAPOST
  1

  9
$DIMALT
 70
     0
  9
$DIMALTD
 70
     0
  9
$DIMALTF
 40
1.0
  9
$DIMLFAC
 40
0.0
  9
$DIMTOFL
 70
     0
  9
$DIMTVP
 40
0.0
  9
$DIMTIX
 70
     0
  9
$DIMSOXD
 70
     0
  9
$DIMSAH
 70
     0
  9
$DIMBLK1
  1

  9
$DIMBLK2
  1

  9
$DIMSTYLE
  2
STANDARD
  9
$DIMCLRD
 70
     0
  9
$DIMCLRE
 70
     0
  9
$DIMCLRT
 70
     0
  9
$DIMTFAC
 40
1.0
  9
$DIMGAP
 40
0.09
  9
$DIMJUST
 70
     0
  9
$DIMSD1
 70
     0
  9
$DIMSD2
 70
     0
  9
$DIMTOLJ
 70
     1
  9
$DIMTZIN
 70
     0
  9
$DIMALTZ
 70
     0
  9
$DIMALTTZ
 70
     0
  9
$DIMFIT
 70
     3
  9
$DIMUPT
 70
     0
  9
$DIMUNIT
 70
     2
  9
$DIMDEC
 70
     4
  9
$DIMTDEC
 70
     4
  9
$DIMALTU
 70
     2
  9
$DIMALTTD
 70
     2
  9
$DIMTXSTY
  7
STANDARD
  9
$DIMAUNIT
 70
     0
  9
$LUNITS
 70
     2
  9
$LUPREC
 70
     2
  9
$SKETCHINC
 40
1.0
  9
$FILLETRAD
 40
0.0
  9
$AUNITS
 70
     1
  9
$AUPREC
 70
     2
  9
$MENU
  1
ACAD
  9
$ELEVATION
 40
0.0
  9
$PELEVATION
 40
0.0
  9
$THICKNESS
 40
0.0
  9
$LIMCHECK
 70
     1
  9
$BLIPMODE
 70
     1
  9
$CHAMFERA
 40
0.0
  9
$CHAMFERB
 40
0.0
  9
$CHAMFERC
 40
0.0
  9
$CHAMFERD
 40
0.0
  9
$SKPOLY
 70
     0
  9
$TDCREATE
 40
0.0000000000
  9
$TDUPDATE
 40
0.0000000000
  9
$TDINDWG
 40
0.0000000000
  9
$TDUSRTIMER
 40
0.0000000000
  9
$USRTIMER
 70
     1
  9
$ANGBASE
 50
0.0
  9
$ANGDIR
 70
     0
  9
$PDMODE
 70
     0
  9
$PDSIZE
 40
0.4
  9
$PLINEWID
 40
0.0
  9
$COORDS
 70
     2
  9
$SPLFRAME
 70
     0
  9
$SPLINETYPE
 70
     6
  9
$SPLINESEGS
 70
     8
  9
$ATTDIA
 70
     0
  9
$ATTREQ
 70
     1
  9
$HANDLING
 70
     1
  9
$HANDSEED
  5
5DF
  9
$SURFTAB1
 70
     6
  9
$SURFTAB2
 70
     6
  9
$SURFTYPE
 70
     6
  9
$SURFU
 70
     6
  9
$SURFV
 70
     6
  9
$UCSNAME
  2

  9
$UCSORG
 10
0.0
 20
0.0
 30
0.0
  9
$UCSXDIR
 10
1.0
 20
0.0
 30
0.0
  9
$UCSYDIR
 10
0.0
 20
1.0
 30
0.0
  9
$PUCSNAME
  2

  9
$PUCSORG
 10
0.0
 20
0.0
 30
0.0
  9
$PUCSXDIR
 10
1.0
 20
0.0
 30
0.0
  9
$PUCSYDIR
 10
0.0
 20
1.0
 30
0.0
  9
$USERI1
 70
     0
  9
$USERI2
 70
     0
  9
$USERI3
 70
     0
  9
$USERI4
 70
     0
  9
$USERI5
 70
     0
  9
$USERR1
 40
0.0
  9
$USERR2
 40
0.0
  9
$USERR3
 40
0.0
  9
$USERR4
 40
0.0
  9
$USERR5
 40
0.0
  9
$WORLDVIEW
 70
     1
  9
$SHADEDGE
 70
     3
  9
$SHADEDIF
 70
    70
  9
$TILEMODE
 70
     1
  9
$MAXACTVP
 70
    48
  9
$PINSBASE
 10
0.0
 20
0.0
 30
0.0
  9
$PLIMCHECK
 70
     0
  9
$PEXTMIN
 10
1.000000E+20
 20
1.000000E+20
 30
1.000000E+20
  9
$PEXTMAX
 10
-1.000000E+20
 20
-1.000000E+20
 30
-1.000000E+20
  9
$PLIMMIN
 10
0.0
 20
0.0
  9
$PLIMMAX
 10
12.0
 20
9.0
  9
$UNITMODE
 70
     0
  9
$VISRETAIN
 70
     1
  9
$PLINEGEN
 70
     0
  9
$PSLTSCALE
 70
     1
  9
$TREEDEPTH
 70
  3020
  9
$PICKSTYLE
 70
     1
  9
$CMLSTYLE
  2
STANDARD
  9
$CMLJUST
 70
     0
  9
$CMLSCALE
 40
1.0
  9
$PROXYGRAPHICS
 70
     1
  9
$MEASUREMENT
 70
     0
  0
ENDSEC
  0
SECTION
  2
CLASSES
  0
ENDSEC
  0
SECTION
  2
TABLES
  0
TABLE
  2
VPORT
  5
8
100
AcDbSymbolTable
 70
     2
  0
VPORT
  5
5DE
100
AcDbSymbolTableRecord
100
AcDbViewportTableRecord
  2
*ACTIVE
 70
     0
 10
0.0
 20
0.0
 11
1.0
 21
1.0
 12
208.375157
 22
114.016595
 13
0.0
 23
0.0
 14
1.0
 24
1.0
 15
0.0
 25
0.0
 16
0.0
 26
0.0
 36
1.0
 17
0.0
 27
0.0
 37
0.0
 40
284.199001
 41
1.83004
 42
50.0
 43
0.0
 44
0.0
 50
0.0
 51
0.0
 71
     0
 72
   100
 73
     1
 74
     1
 75
     0
 76
     0
 77
     0
 78
     0
  0
ENDTAB
  0
TABLE
  2
LTYPE
  5
5
100
AcDbSymbolTable
 70
     5
  0
LTYPE
  5
12
100
AcDbSymbolTableRecord
100
AcDbLinetypeTableRecord
  2
BYBLOCK
 70
     0
  3

 72
    65
 73
     0
 40
0.0
  0
LTYPE
  5
13
100
AcDbSymbolTableRecord
100
AcDbLinetypeTableRecord
  2
BYLAYER
 70
     0
  3

 72
    65
 73
     0
 40
0.0
  0
LTYPE
  5
14
100
AcDbSymbolTableRecord
100
AcDbLinetypeTableRecord
  2
CONTINUOUS
 70
     0
  3
SolidLine
 72
    65
 73
     0
 40
0.0
  0
LTYPE
  5
20
100
AcDbSymbolTableRecord
100
AcDbLinetypeTableRecord
  2
HIDDEN
 70
     0
  3
- - - - - - - - - -
 72
    65
 73
     2
 40
3.0
 49
2.0
 74
     0
 49
-1.0
 74
     0
  0
LTYPE
  5
21
100
AcDbSymbolTableRecord
100
AcDbLinetypeTableRecord
  2
DOT
 70
     0
  3
･･･････････････････
 72
    65
 73
     2
 40
2.0
 49
0.5
 74
     0
 49
-1.5
 74
     0
  0
LTYPE
  5
22
100
AcDbSymbolTableRecord
100
AcDbLinetypeTableRecord
  2
DASHDOT
 70
     0
  3
-･-･-･-･-･-･-･-･-･-
 72
    65
 73
     4
 40
20.0
 49
15.0
 74
     0
 49
-2.0
 74
     0
 49
1.0
 74
     0
 49
-2.0
 74
     0
  0
LTYPE
  5
23
100
AcDbSymbolTableRecord
100
AcDbLinetypeTableRecord
  2
DIVIDE
 70
     0
  3
-･･-･･-･･-･･-･･-･･-
 72
    65
 73
     6
 40
20.0
 49
15.0
 74
     0
 49
-1.0
 74
     0
 49
1.0
 74
     0
 49
-1.0
 74
     0
 49
1.0
 74
     0
 49
-1.0
 74
     0
  0
ENDTAB
  0
TABLE
  2
LAYER
  5
2
100
AcDbSymbolTable
 70
    31
  0
LAYER
  5
E
100
AcDbSymbolTableRecord
100
AcDbLayerTableRecord
  2
0
 70
     0
 62
     7
  6
CONTINUOUS
  0
LAYER
  5
1F
100
AcDbSymbolTableRecord
100
AcDbLayerTableRecord
  2
1
 70
     0
 62
     7
  6
CONTINUOUS
  0
LAYER
  5
24
100
AcDbSymbolTableRecord
100
AcDbLayerTableRecord
  2
CONTINUOUS
 70
     0
 62
     7
  6
CONTINUOUS
  0
LAYER
  5
25
100
AcDbSymbolTableRecord
100
AcDbLayerTableRecord
  2
HIDDEN
 70
     0
 62
     2
  6
HIDDEN
  0
LAYER
  5
26
100
AcDbSymbolTableRecord
100
AcDbLayerTableRecord
  2
DOT
 70
     0
 62
     7
  6
DOT
  0
LAYER
  5
27
100
AcDbSymbolTableRecord
100
AcDbLayerTableRecord
  2
DASHDOT
 70
     0
 62
     6
  6
DASHDOT
  0
LAYER
  5
28
100
AcDbSymbolTableRecord
100
AcDbLayerTableRecord
  2
DIVIDE
 70
     0
 62
     5
  6
DIVIDE
  0
LAYER
  5
29
100
AcDbSymbolTableRecord
100
AcDbLayerTableRecord
  2
DIMENSION
 70
     0
 62
     7
  6
CONTINUOUS
  0
LAYER
  5
2A
100
AcDbSymbolTableRecord
100
AcDbLayerTableRecord
  2
2
 70
     0
 62
     7
  6
CONTINUOUS
  0
LAYER
  5
2B
100
AcDbSymbolTableRecord
100
AcDbLayerTableRecord
  2
3
 70
     0
 62
     7
  6
CONTINUOUS
  0
LAYER
  5
2C
100
AcDbSymbolTableRecord
100
AcDbLayerTableRecord
  2
4
 70
     0
 62
     7
  6
CONTINUOUS
  0
LAYER
  5
2D
100
AcDbSymbolTableRecord
100
AcDbLayerTableRecord
  2
5
 70
     0
 62
     7
  6
CONTINUOUS
  0
LAYER
  5
2E
100
AcDbSymbolTableRecord
100
AcDbLayerTableRecord
  2
6
 70
     0
 62
     7
  6
CONTINUOUS
  0
LAYER
  5
2F
100
AcDbSymbolTableRecord
100
AcDbLayerTableRecord
  2
7
 70
     0
 62
     7
  6
CONTINUOUS
  0
LAYER
  5
30
100
AcDbSymbolTableRecord
100
AcDbLayerTableRecord
  2
8
 70
     0
 62
     7
  6
CONTINUOUS
  0
LAYER
  5
31
100
AcDbSymbolTableRecord
100
AcDbLayerTableRecord
  2
9
 70
     0
 62
     7
  6
CONTINUOUS
  0
LAYER
  5
32
100
AcDbSymbolTableRecord
100
AcDbLayerTableRecord
  2
10
 70
     0
 62
     7
  6
CONTINUOUS
  0
LAYER
  5
33
100
AcDbSymbolTableRecord
100
AcDbLayerTableRecord
  2
11
 70
     0
 62
     7
  6
CONTINUOUS
  0
LAYER
  5
34
100
AcDbSymbolTableRecord
100
AcDbLayerTableRecord
  2
12
 70
     0
 62
     7
  6
CONTINUOUS
  0
LAYER
  5
35
100
AcDbSymbolTableRecord
100
AcDbLayerTableRecord
  2
13
 70
     0
 62
     7
  6
CONTINUOUS
  0
LAYER
  5
36
100
AcDbSymbolTableRecord
100
AcDbLayerTableRecord
  2
14
 70
     0
 62
     7
  6
CONTINUOUS
  0
LAYER
  5
37
100
AcDbSymbolTableRecord
100
AcDbLayerTableRecord
  2
15
 70
     0
 62
     7
  6
CONTINUOUS
  0
LAYER
  5
38
100
AcDbSymbolTableRecord
100
AcDbLayerTableRecord
  2
16
 70
     0
 62
     7
  6
CONTINUOUS
  0
LAYER
  5
39
100
AcDbSymbolTableRecord
100
AcDbLayerTableRecord
  2
17
 70
     0
 62
     7
  6
CONTINUOUS
  0
LAYER
  5
3A
100
AcDbSymbolTableRecord
100
AcDbLayerTableRecord
  2
18
 70
     0
 62
     7
  6
CONTINUOUS
  0
LAYER
  5
3B
100
AcDbSymbolTableRecord
100
AcDbLayerTableRecord
  2
19
 70
     0
 62
     7
  6
CONTINUOUS
  0
LAYER
  5
3C
100
AcDbSymbolTableRecord
100
AcDbLayerTableRecord
  2
HATCH
 70
     0
 62
     7
  6
CONTINUOUS
  0
LAYER
  5
3D
100
AcDbSymbolTableRecord
100
AcDbLayerTableRecord
  2
GUIDE1
 70
     0
 62
     4
  6
DASHDOT
  0
LAYER
  5
3E
100
AcDbSymbolTableRecord
100
AcDbLayerTableRecord
  2
GUIDE2
 70
     0
 62
     4
  6
DASHDOT
  0
LAYER
  5
3F
100
AcDbSymbolTableRecord
100
AcDbLayerTableRecord
  2
GUIDE3
 70
     0
 62
     4
  6
DASHDOT
  0
LAYER
  5
40
100
AcDbSymbolTableRecord
100
AcDbLayerTableRecord
  2
GUIDE4
 70
     0
 62
     4
  6
DASHDOT
  0
ENDTAB
  0
TABLE
  2
STYLE
  5
3
100
AcDbSymbolTable
 70
     3
  0
STYLE
  5
F
100
AcDbSymbolTableRecord
100
AcDbTextStyleTableRecord
  2
STANDARD
 70
     0
 40
0.0
 41
1.0
 50
0.0
 71
     0
 42
3.0
  3
TXT
  4

  0
STYLE
  5
41
100
AcDbSymbolTableRecord
100
AcDbTextStyleTableRecord
  2
KANJI
 70
     0
 40
0.0
 41
1.0
 50
0.0
 71
     0
 42
3.0
  3
TXT
  4
BIGFONT
  0
STYLE
  5
5A2
100
AcDbSymbolTableRecord
100
AcDbTextStyleTableRecord
  2
STANDARD1
 70
     0
 40
0.0
 41
1.0
 50
0.0
 71
     0
 42
4.0
  3
monotxt.shx
  4
bigfont.shx
  0
ENDTAB
  0
TABLE
  2
VIEW
  5
6
100
AcDbSymbolTable
 70
     0
  0
ENDTAB
  0
TABLE
  2
UCS
  5
7
100
AcDbSymbolTable
 70
     0
  0
ENDTAB
  0
TABLE
  2
APPID
  5
9
100
AcDbSymbolTable
 70
     5
  0
APPID
  5
10
100
AcDbSymbolTableRecord
100
AcDbRegAppTableRecord
  2
ACAD
 70
     0
  0
APPID
  5
5A3
100
AcDbSymbolTableRecord
100
AcDbRegAppTableRecord
  2
CONTENTTABDATA
 70
     0
  0
APPID
  5
5A4
100
AcDbSymbolTableRecord
100
AcDbRegAppTableRecord
  2
CONTENTCURRENTTAB
 70
     0
  0
APPID
  5
5A5
100
AcDbSymbolTableRecord
100
AcDbRegAppTableRecord
  2
CONTENTBLOCKDESCRIPTION
 70
     0
  0
APPID
  5
5A6
100
AcDbSymbolTableRecord
100
AcDbRegAppTableRecord
  2
CONTENTBLOCKICON
 70
     0
  0
ENDTAB
  0
TABLE
  2
DIMSTYLE
  5
A
100
AcDbSymbolTable
 70
     1
  0
DIMSTYLE
105
586
100
AcDbSymbolTableRecord
100
AcDbDimStyleTableRecord
  2
STANDARD
 70
     0
  3

  4

  5

  6

  7

 40
1.0
 41
0.18
 42
0.0625
 43
0.38
 44
0.18
 45
0.0
 46
0.0
 47
0.0
 48
0.0
140
0.18
141
0.09
142
0.0
143
25.4
144
1.0
145
0.0
146
1.0
147
0.09
 71
     0
 72
     0
 73
     1
 74
     1
 75
     0
 76
     0
 77
     0
 78
     0
170
     0
171
     2
172
     0
173
     0
174
     0
175
     0
176
     0
177
     0
178
     0
270
     2
271
     4
272
     4
273
     2
274
     2
340
F
275
     0
280
     0
281
     0
282
     0
283
     1
284
     0
285
     0
286
     0
287
     3
288
     0
  0
ENDTAB
  0
TABLE
  2
BLOCK_RECORD
  5
1
100
AcDbSymbolTable
 70
     2
  0
BLOCK_RECORD
  5
18
100
AcDbSymbolTableRecord
100
AcDbBlockTableRecord
  2
*MODEL_SPACE
  0
BLOCK_RECORD
  5
15
100
AcDbSymbolTableRecord
100
AcDbBlockTableRecord
  2
*PAPER_SPACE
  0
BLOCK_RECORD
  5
58D
100
AcDbSymbolTableRecord
100
AcDbBlockTableRecord
  2
外形枠
1001
CONTENTBLOCKICON
1071
        0
1004
2800000020000000200000000100040000000000000200000000000000000000000000000000000000000000000080000080000000808000800000008000800080800000C0C0C000808080000000FF0000FF000000FFFF00FF000000FF00FF00FFFF0000FFFFFF00FFFFFFFFFFFFFFFFFFFFFFFFFFFFFFFF
1004
FFFFFFFFFFFFFFFFFFFFFFFFFFFFFFFFFFFFFFFFFFFFFFFFFFFFFFFFFFFFFFFFFFFFFFFFFFFFFFFFFFFFFFFFFFFFFFFFFFFFFFFFFFFFFFFFFFFFFFFFFFFFFFFFFFFFFFFFFFFFFFFFFFFFFFFFFFFFFFFFFFFFFFFFFFFFFFFFFFFFFFFFFFFFFFFFFFFFFFFFFFFFFFFFFFFFFFFFFFFFFFFFFFFFFFFFFFFFFFFF
1004
FFFFFFFFFFFFFFFFFFFFFFFFFFFFFFFFFFFFFFFFFFFFFFFFFFFFFFFFFFFFFFFFFFFFFFFFFFFFFFFFFFFFFFFFFFFFFFFFFFFFFFFFFFFFFFFFFFFFFFFFFFFFFFFFFFFFFFFFFFFFFFFFFFFFFFFFFFFFFFFFFFFFFFFFFFFFFFFFFFFFFFFFFFFFFFFFFFFFFFFFFFFFFFFFFFFFFFFFFFFFFFFFFFFFFFFFFFFFFFFF
1004
FFFFFFFFFFFFFFFFFFFFFFFFFFFFFFFFFFFFFFFFFFFFFFFFFFFFFFFFFFFFFFFFFFFFFFFFFFFFFFFFFFFFFFFFFFFFFFFFFFFFFFFFFFFFFFFFFFFFFFFFFFFFFFFFFFFFFFFFFFFFFFFFFFFFFFFFFFFFFFFFFFFFFFFFFFFFFFFFFFFFFFFFFFFFFFFFFFFFFFFFFFFFFFFFFFFFFFFFFFFFFFFFFFFFFFFFFFFFFFFF
1004
FFFFFFFFFFFFFFFFFFFFFFFFFFFFFFFFFFFFFFFFFFFFFFFFFFFFFFFFFFFFFFFFFFFFFFFFFFFFFFFFFFFFFFFFFFFFFFFFFFFFFFFFFFFFFFFFFFFFFFFFFFFFFFFFFFFFFFFFFFFFFFFFFFFFFFFFFFFFFFFFFFFFFFFFFFFFFFFFFFFFFFFFFFFFFFFFFFFFFFFFFFFFFFFFFFFFFFFFFFFFFFFFFFFFFFFFFFFFFFFF
1004
FFFFFFFFFFFFFFFFFFFFFFFFFFFFFFFF
  0
BLOCK_RECORD
  5
5AD
100
AcDbSymbolTableRecord
100
AcDbBlockTableRecord
  2
外形枠２
1001
CONTENTBLOCKICON
1071
        0
1004
2800000020000000200000000100040000000000000200000000000000000000000000000000000000000000000080000080000000808000800000008000800080800000C0C0C000808080000000FF0000FF000000FFFF00FF000000FF00FF00FFFF0000FFFFFF00FFFFFFFFFFFFFFFFFFFFFFFFFFFFFFFF
1004
FFFFFFFFFFFFFFFFFFFFFFFFFFFFFFFFFFFFFFFFFFFFFFFFFFFFFFFFFFFFFFFFFFFFFFFFFFFFFFFFFFFFFFFFFFFFFFFFFFFFFFFFFFFFFFFFFFFFFFFFFFFFFFFFFFFFFFFFFFFFFFFFFFFFFFFFFFFFFFFFFFFFFFFFFFFFFFFFFFFFFFFFFFFFFFFFFFFFFFFFFFFFFFFFFFFFFFFFFFFFFFFFFFFFFFFFFFFFFFFF
1004
FFFFFFFFFFFFFFFFFFFFFFFFFFFFFFFFFFFFFFFFFFFFFFFFFFFFFFFFFFFFFFFFFFFFFFFFFFFFFFFFFFFFFFFFFFFFFFFFFFFFFFFFFFFFFFFFFFFFFFFFFFFFFFFFFFFFFFFFFFFFFFFFFFFFFFFFFFFFFFFFFFFFFFFFFFFFFFFFFFFFFFFFFFFFFFFFFFFFFFFFFFFFFFFFFFFFFFFFFFFFFFFFFFFFFFFFFFFFFFFF
1004
FFFFFFFFFFFFFFFFFFFFFFFFFFFFFFFFFFFFFFFFFFFFFFFFFFFFFFFFFFFFFFFFFFFFFFFFFFFFFFFFFFFFFFFFFFFFFFFFFFFFFFFFFFFFFFFFFFFFFFFFFFFFFFFFFFFFFFFFFFFFFFFFFFFFFFFFFFFFFFFFFFFFFFFFFFFFFFFFFFFFFFFFFFFFFFFFFFFFFFFFFFFFFFFFFFFFFFFFFFFFFFFFFFFFFFFFFFFFFFFF
1004
FFFFFFFFFFFFFFFFFFFFFFFFFFFFFFFFFFFFFFFFFFFFFFFFFFFFFFFFFFFFFFFFFFFFFFFFFFFFFFFFFFFFFFFFFFFFFFFFFFFFFFFFFFFFFFFFFFFFFFFFFFFFFFFFFFFFFFFFFFFFFFFFFFFFFFFFFFFFFFFFFFFFFFFFFFFFFFFFFFFFFFFFFFFFFFFFFFFFFFFFFFFFFFFFFFFFFFFFFFFFFFFFFFFFFFFFFFFFFFFF
1004
FFFFFFFFFFFFFFFFFFFFFFFFFFFFFFFF
  0
ENDTAB
  0
ENDSEC
  0
SECTION
  2
BLOCKS
  0
BLOCK
  5
19
100
AcDbEntity
  8
0
100
AcDbBlockBegin
  2
*MODEL_SPACE
 70
     0
 10
0.0
 20
0.0
 30
0.0
  3
*MODEL_SPACE
  1

  0
ENDBLK
  5
1A
100
AcDbEntity
  8
0
100
AcDbBlockEnd
  0
BLOCK
  5
16
100
AcDbEntity
 67
     1
  8
0
100
AcDbBlockBegin
  2
*PAPER_SPACE
 70
     0
 10
0.0
 20
0.0
 30
0.0
  3
*PAPER_SPACE
  1

  0
ENDBLK
  5
17
100
AcDbEntity
 67
     1
  8
0
100
AcDbBlockEnd
  0
BLOCK
  5
5A0
100
AcDbEntity
  8
0
100
AcDbBlockBegin
  2
外形枠
 70
     0
 10
0.0
 20
0.0
 30
0.0
  3
外形枠
  1

  0
LINE
  5
58E
102
{ACAD_REACTORS
330
5A8
102
}
100
AcDbEntity
  8
0
100
AcDbLine
 10
0.0
 20
0.0
 30
0.0
 11
0.0
 21
210.0
 31
0.0
  0
LINE
  5
58F
102
{ACAD_REACTORS
330
5A8
102
}
100
AcDbEntity
  8
0
100
AcDbLine
 10
0.0
 20
210.0
 30
0.0
 11
297.0
 21
210.0
 31
0.0
  0
LINE
  5
590
102
{ACAD_REACTORS
330
5A8
102
}
100
AcDbEntity
  8
0
100
AcDbLine
 10
297.0
 20
210.0
 30
0.0
 11
297.0
 21
0.0
 31
0.0
  0
LINE
  5
591
102
{ACAD_REACTORS
330
5A8
102
}
100
AcDbEntity
  8
0
100
AcDbLine
 10
297.0
 20
0.0
 30
0.0
 11
0.0
 21
0.0
 31
0.0
  0
LINE
  5
592
102
{ACAD_REACTORS
330
5A7
102
}
100
AcDbEntity
  8
0
100
AcDbLine
 10
6.0
 20
6.0
 30
0.0
 11
6.0
 21
204.0
 31
0.0
  0
LINE
  5
593
102
{ACAD_REACTORS
330
5A7
102
}
100
AcDbEntity
  8
0
100
AcDbLine
 10
6.0
 20
204.0
 30
0.0
 11
292.0
 21
204.0
 31
0.0
  0
LINE
  5
594
102
{ACAD_REACTORS
330
5A7
102
}
100
AcDbEntity
  8
0
100
AcDbLine
 10
292.0
 20
204.0
 30
0.0
 11
292.0
 21
6.0
 31
0.0
  0
LINE
  5
595
102
{ACAD_REACTORS
330
5A7
102
}
100
AcDbEntity
  8
0
100
AcDbLine
 10
292.0
 20
6.0
 30
0.0
 11
6.0
 21
6.0
 31
0.0
  0
LINE
  5
596
100
AcDbEntity
  8
0
100
AcDbLine
 10
287.0
 20
10.0
 30
0.0
 11
207.0
 21
10.0
 31
0.0
  0
LINE
  5
597
100
AcDbEntity
  8
0
100
AcDbLine
 10
287.0
 20
26.0
 30
0.0
 11
287.0
 21
10.0
 31
0.0
  0
LINE
  5
598
100
AcDbEntity
  8
0
100
AcDbLine
 10
287.0
 20
18.0
 30
0.0
 11
207.0
 21
18.0
 31
0.0
  0
LINE
  5
599
100
AcDbEntity
  8
0
100
AcDbLine
 10
287.0
 20
26.0
 30
0.0
 11
207.0
 21
26.0
 31
0.0
  0
LINE
  5
59A
100
AcDbEntity
  8
0
100
AcDbLine
 10
227.0
 20
26.0
 30
0.0
 11
227.0
 21
10.0
 31
0.0
  0
LINE
  5
59B
100
AcDbEntity
  8
0
100
AcDbLine
 10
207.0
 20
26.0
 30
0.0
 11
207.0
 21
10.0
 31
0.0
  0
TEXT
  5
59C
100
AcDbEntity
  8
0
100
AcDbText
 10
212.93529
 20
19.671686
 30
0.0
 40
4.0
  1
品名
  7
STANDARD1
100
AcDbText
  0
TEXT
  5
59D
100
AcDbEntity
  8
0
100
AcDbText
 10
212.93529
 20
11.671686
 30
0.0
 40
4.0
  1
型名
  7
STANDARD1
100
AcDbText
  0
TEXT
  5
59E
100
AcDbEntity
  8
0
100
AcDbText
 10
228.93529
 20
19.671686
 30
0.0
 40
4.0
  1
カラーカメラ
  7
STANDARD1
100
AcDbText
  0
TEXT
  5
59F
100
AcDbEntity
  8
0
100
AcDbText
 10
228.93529
 20
11.671686
 30
0.0
 40
4.0
  1
CIT-771
  7
STANDARD1
100
AcDbText
  0
ENDBLK
  5
5A1
100
AcDbEntity
  8
0
100
AcDbBlockEnd
  0
BLOCK
  5
5C2
100
AcDbEntity
  8
0
100
AcDbBlockBegin
  2
外形枠２
 70
     0
 10
0.0
 20
0.0
 30
0.0
  3
外形枠２
  1

  0
TEXT
  5
5AE
100
AcDbEntity
  8
1
  6
CONTINUOUS
 62
     7
100
AcDbText
 10
6.531
 20
42.913
 30
0.0
 40
2.304
  1
　
 41
0.573
  7
KANJI
100
AcDbText
  0
LINE
  5
5AF
102
{ACAD_REACTORS
330
5AA
102
}
100
AcDbEntity
  8
0
100
AcDbLine
 10
-6.0
 20
-6.0
 30
0.0
 11
-6.0
 21
204.0
 31
0.0
  0
LINE
  5
5B0
102
{ACAD_REACTORS
330
5AA
102
}
100
AcDbEntity
  8
0
100
AcDbLine
 10
-6.0
 20
204.0
 30
0.0
 11
291.0
 21
204.0
 31
0.0
  0
LINE
  5
5B1
102
{ACAD_REACTORS
330
5AA
102
}
100
AcDbEntity
  8
0
100
AcDbLine
 10
291.0
 20
204.0
 30
0.0
 11
291.0
 21
-6.0
 31
0.0
  0
LINE
  5
5B2
102
{ACAD_REACTORS
330
5AA
102
}
100
AcDbEntity
  8
0
100
AcDbLine
 10
291.0
 20
-6.0
 30
0.0
 11
-6.0
 21
-6.0
 31
0.0
  0
LINE
  5
5B3
102
{ACAD_REACTORS
330
5A9
330
5AB
102
}
100
AcDbEntity
  8
0
100
AcDbLine
 10
0.0
 20
0.0
 30
0.0
 11
0.0
 21
198.0
 31
0.0
  0
LINE
  5
5B4
102
{ACAD_REACTORS
330
5A9
330
5AB
102
}
100
AcDbEntity
  8
0
100
AcDbLine
 10
0.0
 20
198.0
 30
0.0
 11
286.0
 21
198.0
 31
0.0
  0
LINE
  5
5B5
102
{ACAD_REACTORS
330
5A9
330
5AB
102
}
100
AcDbEntity
  8
0
100
AcDbLine
 10
286.0
 20
198.0
 30
0.0
 11
286.0
 21
0.0
 31
0.0
  0
LINE
  5
5B6
102
{ACAD_REACTORS
330
5A9
330
5AB
102
}
100
AcDbEntity
  8
0
100
AcDbLine
 10
286.0
 20
0.0
 30
0.0
 11
0.0
 21
0.0
 31
0.0
  0
LINE
  5
5B7
102
{ACAD_REACTORS
330
5AC
102
}
100
AcDbEntity
  8
0
100
AcDbLine
 10
281.0
 20
4.0
 30
0.0
 11
201.0
 21
4.0
 31
0.0
  0
LINE
  5
5B8
102
{ACAD_REACTORS
330
5AC
102
}
100
AcDbEntity
  8
0
100
AcDbLine
 10
281.0
 20
20.0
 30
0.0
 11
281.0
 21
4.0
 31
0.0
  0
LINE
  5
5B9
102
{ACAD_REACTORS
330
5AC
102
}
100
AcDbEntity
  8
0
100
AcDbLine
 10
281.0
 20
12.0
 30
0.0
 11
201.0
 21
12.0
 31
0.0
  0
LINE
  5
5BA
102
{ACAD_REACTORS
330
5AC
102
}
100
AcDbEntity
  8
0
100
AcDbLine
 10
281.0
 20
20.0
 30
0.0
 11
201.0
 21
20.0
 31
0.0
  0
LINE
  5
5BB
102
{ACAD_REACTORS
330
5AC
102
}
100
AcDbEntity
  8
0
100
AcDbLine
 10
221.0
 20
20.0
 30
0.0
 11
221.0
 21
4.0
 31
0.0
  0
LINE
  5
5BC
102
{ACAD_REACTORS
330
5AC
102
}
100
AcDbEntity
  8
0
100
AcDbLine
 10
201.0
 20
20.0
 30
0.0
 11
201.0
 21
4.0
 31
0.0
  0
TEXT
  5
5BD
100
AcDbEntity
  8
0
100
AcDbText
 10
206.93529
 20
13.671686
 30
0.0
 40
4.0
  1
品名
  7
STANDARD1
100
AcDbText
  0
TEXT
  5
5BE
100
AcDbEntity
  8
0
100
AcDbText
 10
206.93529
 20
5.671686
 30
0.0
 40
4.0
  1
型名
  7
STANDARD1
100
AcDbText
  0
TEXT
  5
5BF
100
AcDbEntity
  8
0
100
AcDbText
 10
222.93529
 20
13.671686
 30
0.0
 40
4.0
  1
カラーカメラ
  7
STANDARD1
100
AcDbText
  0
TEXT
  5
5C0
100
AcDbEntity
  8
0
100
AcDbText
 10
222.93529
 20
5.671686
 30
0.0
 40
4.0
  1
CIT-7110
  7
STANDARD1
100
AcDbText
  0
LINE
  5
5C1
102
{ACAD_REACTORS
330
5AB
102
}
100
AcDbEntity
  8
0
100
AcDbLine
 10
0.0
 20
190.0
 30
0.0
 11
286.0
 21
190.0
 31
0.0
  0
ENDBLK
  5
5C3
100
AcDbEntity
  8
0
100
AcDbBlockEnd
  0
ENDSEC
  0
SECTION
  2
ENTITIES
  0
TEXT
  5
43
100
AcDbEntity
  8
1
100
AcDbText
 10
58.025141
 20
126.335757
 30
0.0
 40
1.315
  1
φ20
 50
90.0
 41
0.671
  7
KANJI
100
AcDbText
  0
LINE
  5
44
100
AcDbEntity
  8
1
  6
CONTINUOUS
100
AcDbLine
 10
64.562141
 20
134.300757
 30
0.0
 11
57.556141
 21
134.300757
 31
0.0
  0
LINE
  5
45
100
AcDbEntity
  8
1
  6
CONTINUOUS
100
AcDbLine
 10
64.562141
 20
129.597757
 30
0.0
 11
57.556141
 21
129.597757
 31
0.0
  0
LINE
  5
46
100
AcDbEntity
  8
1
  6
CONTINUOUS
100
AcDbLine
 10
58.496141
 20
136.650757
 30
0.0
 11
58.496141
 21
125.676757
 31
0.0
  0
LINE
  5
47
100
AcDbEntity
  8
1
  6
CONTINUOUS
100
AcDbLine
 10
58.496141
 20
134.300757
 30
0.0
 11
58.739141
 21
135.209757
 31
0.0
  0
LINE
  5
48
100
AcDbEntity
  8
1
  6
CONTINUOUS
100
AcDbLine
 10
58.496141
 20
134.300757
 30
0.0
 11
58.252141
 21
135.209757
 31
0.0
  0
LINE
  5
49
100
AcDbEntity
  8
1
  6
CONTINUOUS
100
AcDbLine
 10
58.496141
 20
129.597757
 30
0.0
 11
58.252141
 21
128.690757
 31
0.0
  0
LINE
  5
4A
100
AcDbEntity
  8
1
  6
CONTINUOUS
100
AcDbLine
 10
58.496141
 20
129.597757
 30
0.0
 11
58.739141
 21
128.690757
 31
0.0
  0
TEXT
  5
4B
100
AcDbEntity
  8
1
100
AcDbText
 10
52.156141
 20
80.456757
 30
0.0
 40
1.315
  1
50
 50
90.0
 41
0.715
  7
KANJI
100
AcDbText
  0
LINE
  5
4C
100
AcDbEntity
  8
1
  6
CONTINUOUS
100
AcDbLine
 10
64.093141
 20
75.518757
 30
0.0
 11
51.686141
 21
75.518757
 31
0.0
  0
LINE
  5
4D
100
AcDbEntity
  8
1
  6
CONTINUOUS
100
AcDbLine
 10
60.808141
 20
87.273757
 30
0.0
 11
51.686141
 21
87.273757
 31
0.0
  0
LINE
  5
4E
100
AcDbEntity
  8
1
  6
CONTINUOUS
100
AcDbLine
 10
52.627141
 20
75.518757
 30
0.0
 11
52.627141
 21
87.273757
 31
0.0
  0
LINE
  5
4F
100
AcDbEntity
  8
1
  6
CONTINUOUS
100
AcDbLine
 10
52.627141
 20
75.518757
 30
0.0
 11
52.384141
 21
76.427757
 31
0.0
  0
LINE
  5
50
100
AcDbEntity
  8
1
  6
CONTINUOUS
100
AcDbLine
 10
52.627141
 20
75.518757
 30
0.0
 11
52.870141
 21
76.427757
 31
0.0
  0
LINE
  5
51
100
AcDbEntity
  8
1
  6
CONTINUOUS
100
AcDbLine
 10
52.627141
 20
87.273757
 30
0.0
 11
52.870141
 21
86.364757
 31
0.0
  0
LINE
  5
52
100
AcDbEntity
  8
1
  6
CONTINUOUS
100
AcDbLine
 10
52.627141
 20
87.273757
 30
0.0
 11
52.384141
 21
86.364757
 31
0.0
  0
LINE
  5
53
100
AcDbEntity
  8
1
  6
DASHDOT
100
AcDbLine
 10
61.277141
 20
87.273757
 30
0.0
 11
66.407141
 21
87.273757
 31
0.0
  0
TEXT
  5
54
100
AcDbEntity
  8
1
100
AcDbText
 10
52.156141
 20
108.201757
 30
0.0
 40
1.315
  1
190
 50
90.0
 41
0.715
  7
KANJI
100
AcDbText
  0
LINE
  5
55
100
AcDbEntity
  8
1
  6
CONTINUOUS
100
AcDbLine
 10
60.808141
 20
87.273757
 30
0.0
 11
51.686141
 21
87.273757
 31
0.0
  0
LINE
  5
56
100
AcDbEntity
  8
1
  6
CONTINUOUS
100
AcDbLine
 10
60.808141
 20
131.948757
 30
0.0
 11
51.686141
 21
131.948757
 31
0.0
  0
LINE
  5
57
100
AcDbEntity
  8
1
  6
CONTINUOUS
100
AcDbLine
 10
52.627141
 20
87.273757
 30
0.0
 11
52.627141
 21
131.948757
 31
0.0
  0
LINE
  5
58
100
AcDbEntity
  8
1
  6
CONTINUOUS
100
AcDbLine
 10
52.627141
 20
87.273757
 30
0.0
 11
52.384141
 21
88.182757
 31
0.0
  0
LINE
  5
59
100
AcDbEntity
  8
1
  6
CONTINUOUS
100
AcDbLine
 10
52.627141
 20
87.273757
 30
0.0
 11
52.870141
 21
88.182757
 31
0.0
  0
LINE
  5
5A
100
AcDbEntity
  8
1
  6
CONTINUOUS
100
AcDbLine
 10
52.627141
 20
131.948757
 30
0.0
 11
52.870141
 21
131.040757
 31
0.0
  0
LINE
  5
5B
100
AcDbEntity
  8
1
  6
CONTINUOUS
100
AcDbLine
 10
52.627141
 20
131.948757
 30
0.0
 11
52.384141
 21
131.040757
 31
0.0
  0
LINE
  5
5C
100
AcDbEntity
  8
1
  6
DASHDOT
100
AcDbLine
 10
61.277141
 20
131.948757
 30
0.0
 11
66.407141
 21
131.948757
 31
0.0
  0
TEXT
  5
5D
100
AcDbEntity
  8
1
100
AcDbText
 10
143.800141
 20
40.053757
 30
0.0
 40
1.315
  1
340
 41
0.715
  7
KANJI
100
AcDbText
  0
LINE
  5
5E
100
AcDbEntity
  8
1
  6
CONTINUOUS
100
AcDbLine
 10
185.182141
 20
42.635757
 30
0.0
 11
185.182141
 21
38.642757
 31
0.0
  0
LINE
  5
5F
100
AcDbEntity
  8
1
  6
CONTINUOUS
100
AcDbLine
 10
105.239141
 20
42.635757
 30
0.0
 11
105.239141
 21
38.642757
 31
0.0
  0
LINE
  5
60
100
AcDbEntity
  8
1
  6
CONTINUOUS
100
AcDbLine
 10
185.182141
 20
39.582757
 30
0.0
 11
105.239141
 21
39.582757
 31
0.0
  0
LINE
  5
61
100
AcDbEntity
  8
1
  6
CONTINUOUS
100
AcDbLine
 10
185.182141
 20
39.582757
 30
0.0
 11
184.274141
 21
39.339757
 31
0.0
  0
LINE
  5
62
100
AcDbEntity
  8
1
  6
CONTINUOUS
100
AcDbLine
 10
185.182141
 20
39.582757
 30
0.0
 11
184.274141
 21
39.827757
 31
0.0
  0
LINE
  5
63
100
AcDbEntity
  8
1
  6
CONTINUOUS
100
AcDbLine
 10
105.239141
 20
39.582757
 30
0.0
 11
106.148141
 21
39.827757
 31
0.0
  0
LINE
  5
64
100
AcDbEntity
  8
1
  6
CONTINUOUS
100
AcDbLine
 10
105.239141
 20
39.582757
 30
0.0
 11
106.148141
 21
39.339757
 31
0.0
  0
TEXT
  5
65
100
AcDbEntity
  8
1
100
AcDbText
 10
87.232141
 20
49.770757
 30
0.0
 40
1.315
  1
51
 50
90.0
 41
0.715
  7
KANJI
100
AcDbText
  0
LINE
  5
66
100
AcDbEntity
  8
1
  6
CONTINUOUS
100
AcDbLine
 10
102.653141
 20
44.717757
 30
0.0
 11
86.762141
 21
44.717757
 31
0.0
  0
LINE
  5
67
100
AcDbEntity
  8
1
  6
CONTINUOUS
100
AcDbLine
 10
95.599141
 20
56.708757
 30
0.0
 11
86.762141
 21
56.708757
 31
0.0
  0
LINE
  5
68
100
AcDbEntity
  8
1
  6
CONTINUOUS
100
AcDbLine
 10
87.703141
 20
44.717757
 30
0.0
 11
87.703141
 21
56.708757
 31
0.0
  0
LINE
  5
69
100
AcDbEntity
  8
1
  6
CONTINUOUS
100
AcDbLine
 10
87.703141
 20
44.717757
 30
0.0
 11
87.458141
 21
45.624757
 31
0.0
  0
LINE
  5
6A
100
AcDbEntity
  8
1
  6
CONTINUOUS
100
AcDbLine
 10
87.703141
 20
44.717757
 30
0.0
 11
87.946141
 21
45.624757
 31
0.0
  0
LINE
  5
6B
100
AcDbEntity
  8
1
  6
CONTINUOUS
100
AcDbLine
 10
87.703141
 20
56.708757
 30
0.0
 11
87.946141
 21
55.799757
 31
0.0
  0
LINE
  5
6C
100
AcDbEntity
  8
1
  6
CONTINUOUS
100
AcDbLine
 10
87.703141
 20
56.708757
 30
0.0
 11
87.458141
 21
55.799757
 31
0.0
  0
CIRCLE
  5
6D
100
AcDbEntity
  8
1
  6
CONTINUOUS
100
AcDbCircle
 10
111.635141
 20
158.565757
 30
0.0
 40
0.987
  0
CIRCLE
  5
6E
100
AcDbEntity
  8
1
  6
CONTINUOUS
100
AcDbCircle
 10
111.635141
 20
158.565757
 30
0.0
 40
1.121
  0
CIRCLE
  5
6F
100
AcDbEntity
  8
1
  6
CONTINUOUS
100
AcDbCircle
 10
111.635141
 20
158.565757
 30
0.0
 40
1.295
  0
CIRCLE
  5
70
100
AcDbEntity
  8
1
  6
CONTINUOUS
100
AcDbCircle
 10
116.338141
 20
158.565757
 30
0.0
 40
0.987
  0
CIRCLE
  5
71
100
AcDbEntity
  8
1
  6
CONTINUOUS
100
AcDbCircle
 10
116.338141
 20
158.565757
 30
0.0
 40
1.121
  0
CIRCLE
  5
72
100
AcDbEntity
  8
1
  6
CONTINUOUS
100
AcDbCircle
 10
116.338141
 20
158.565757
 30
0.0
 40
1.295
  0
CIRCLE
  5
73
100
AcDbEntity
  8
1
  6
CONTINUOUS
100
AcDbCircle
 10
121.040141
 20
158.565757
 30
0.0
 40
0.987
  0
CIRCLE
  5
74
100
AcDbEntity
  8
1
  6
CONTINUOUS
100
AcDbCircle
 10
121.040141
 20
158.565757
 30
0.0
 40
1.121
  0
CIRCLE
  5
75
100
AcDbEntity
  8
1
  6
CONTINUOUS
100
AcDbCircle
 10
121.040141
 20
158.565757
 30
0.0
 40
1.295
  0
CIRCLE
  5
76
100
AcDbEntity
  8
1
  6
CONTINUOUS
100
AcDbCircle
 10
125.743141
 20
158.565757
 30
0.0
 40
0.987
  0
CIRCLE
  5
77
100
AcDbEntity
  8
1
  6
CONTINUOUS
100
AcDbCircle
 10
125.743141
 20
158.565757
 30
0.0
 40
1.121
  0
CIRCLE
  5
78
100
AcDbEntity
  8
1
  6
CONTINUOUS
100
AcDbCircle
 10
125.743141
 20
158.565757
 30
0.0
 40
1.295
  0
CIRCLE
  5
79
100
AcDbEntity
  8
1
  6
CONTINUOUS
100
AcDbCircle
 10
130.445141
 20
158.565757
 30
0.0
 40
0.987
  0
CIRCLE
  5
7A
100
AcDbEntity
  8
1
  6
CONTINUOUS
100
AcDbCircle
 10
130.445141
 20
158.565757
 30
0.0
 40
1.121
  0
CIRCLE
  5
7B
100
AcDbEntity
  8
1
  6
CONTINUOUS
100
AcDbCircle
 10
130.445141
 20
158.565757
 30
0.0
 40
1.295
  0
CIRCLE
  5
7C
100
AcDbEntity
  8
1
  6
CONTINUOUS
100
AcDbCircle
 10
135.148141
 20
158.565757
 30
0.0
 40
0.987
  0
CIRCLE
  5
7D
100
AcDbEntity
  8
1
  6
CONTINUOUS
100
AcDbCircle
 10
135.148141
 20
158.565757
 30
0.0
 40
1.121
  0
CIRCLE
  5
7E
100
AcDbEntity
  8
1
  6
CONTINUOUS
100
AcDbCircle
 10
135.148141
 20
158.565757
 30
0.0
 40
1.295
  0
CIRCLE
  5
7F
100
AcDbEntity
  8
1
  6
CONTINUOUS
100
AcDbCircle
 10
139.850141
 20
158.565757
 30
0.0
 40
0.987
  0
CIRCLE
  5
80
100
AcDbEntity
  8
1
  6
CONTINUOUS
100
AcDbCircle
 10
139.850141
 20
158.565757
 30
0.0
 40
1.121
  0
CIRCLE
  5
81
100
AcDbEntity
  8
1
  6
CONTINUOUS
100
AcDbCircle
 10
139.850141
 20
158.565757
 30
0.0
 40
1.295
  0
CIRCLE
  5
82
100
AcDbEntity
  8
1
  6
CONTINUOUS
100
AcDbCircle
 10
144.553141
 20
158.565757
 30
0.0
 40
1.295
  0
CIRCLE
  5
83
100
AcDbEntity
  8
1
  6
CONTINUOUS
100
AcDbCircle
 10
144.553141
 20
158.565757
 30
0.0
 40
1.121
  0
CIRCLE
  5
84
100
AcDbEntity
  8
1
  6
CONTINUOUS
100
AcDbCircle
 10
144.553141
 20
158.565757
 30
0.0
 40
0.987
  0
CIRCLE
  5
85
100
AcDbEntity
  8
1
  6
CONTINUOUS
100
AcDbCircle
 10
149.255141
 20
159.035757
 30
0.0
 40
1.53
  0
LINE
  5
86
100
AcDbEntity
  8
1
  6
CONTINUOUS
100
AcDbLine
 10
148.153141
 20
159.210757
 30
0.0
 11
147.904141
 21
159.210757
 31
0.0
  0
LINE
  5
87
100
AcDbEntity
  8
1
  6
CONTINUOUS
100
AcDbLine
 10
147.904141
 20
159.210757
 30
0.0
 11
147.904141
 21
158.858757
 31
0.0
  0
LINE
  5
88
100
AcDbEntity
  8
1
  6
CONTINUOUS
100
AcDbLine
 10
148.153141
 20
158.858757
 30
0.0
 11
147.904141
 21
158.858757
 31
0.0
  0
CIRCLE
  5
89
100
AcDbEntity
  8
1
  6
CONTINUOUS
100
AcDbCircle
 10
149.255141
 20
159.035757
 30
0.0
 40
1.118
  0
CIRCLE
  5
8A
100
AcDbEntity
  8
1
  6
CONTINUOUS
100
AcDbCircle
 10
149.255141
 20
159.035757
 30
0.0
 40
0.93
  0
LINE
  5
8B
100
AcDbEntity
  8
1
  6
CONTINUOUS
100
AcDbLine
 10
150.359141
 20
158.858757
 30
0.0
 11
150.608141
 21
158.858757
 31
0.0
  0
LINE
  5
8C
100
AcDbEntity
  8
1
  6
CONTINUOUS
100
AcDbLine
 10
150.608141
 20
158.858757
 30
0.0
 11
150.608141
 21
159.210757
 31
0.0
  0
LINE
  5
8D
100
AcDbEntity
  8
1
  6
CONTINUOUS
100
AcDbLine
 10
150.359141
 20
159.210757
 30
0.0
 11
150.608141
 21
159.210757
 31
0.0
  0
CIRCLE
  5
8E
100
AcDbEntity
  8
1
  6
CONTINUOUS
100
AcDbCircle
 10
153.487141
 20
159.035757
 30
0.0
 40
1.53
  0
LINE
  5
8F
100
AcDbEntity
  8
1
  6
CONTINUOUS
100
AcDbLine
 10
152.386141
 20
159.210757
 30
0.0
 11
152.135141
 21
159.210757
 31
0.0
  0
LINE
  5
90
100
AcDbEntity
  8
1
  6
CONTINUOUS
100
AcDbLine
 10
152.135141
 20
159.210757
 30
0.0
 11
152.135141
 21
158.858757
 31
0.0
  0
LINE
  5
91
100
AcDbEntity
  8
1
  6
CONTINUOUS
100
AcDbLine
 10
152.386141
 20
158.858757
 30
0.0
 11
152.135141
 21
158.858757
 31
0.0
  0
CIRCLE
  5
92
100
AcDbEntity
  8
1
  6
CONTINUOUS
100
AcDbCircle
 10
153.487141
 20
159.035757
 30
0.0
 40
1.118
  0
CIRCLE
  5
93
100
AcDbEntity
  8
1
  6
CONTINUOUS
100
AcDbCircle
 10
153.487141
 20
159.035757
 30
0.0
 40
0.93
  0
LINE
  5
94
100
AcDbEntity
  8
1
  6
CONTINUOUS
100
AcDbLine
 10
154.591141
 20
158.858757
 30
0.0
 11
154.840141
 21
158.858757
 31
0.0
  0
LINE
  5
95
100
AcDbEntity
  8
1
  6
CONTINUOUS
100
AcDbLine
 10
154.840141
 20
158.858757
 30
0.0
 11
154.840141
 21
159.210757
 31
0.0
  0
LINE
  5
96
100
AcDbEntity
  8
1
  6
CONTINUOUS
100
AcDbLine
 10
154.591141
 20
159.210757
 30
0.0
 11
154.840141
 21
159.210757
 31
0.0
  0
CIRCLE
  5
97
100
AcDbEntity
  8
1
  6
CONTINUOUS
100
AcDbCircle
 10
157.720141
 20
159.035757
 30
0.0
 40
1.53
  0
LINE
  5
98
100
AcDbEntity
  8
1
  6
CONTINUOUS
100
AcDbLine
 10
156.617141
 20
159.210757
 30
0.0
 11
156.368141
 21
159.210757
 31
0.0
  0
LINE
  5
99
100
AcDbEntity
  8
1
  6
CONTINUOUS
100
AcDbLine
 10
156.368141
 20
159.210757
 30
0.0
 11
156.368141
 21
158.858757
 31
0.0
  0
LINE
  5
9A
100
AcDbEntity
  8
1
  6
CONTINUOUS
100
AcDbLine
 10
156.617141
 20
158.858757
 30
0.0
 11
156.368141
 21
158.858757
 31
0.0
  0
CIRCLE
  5
9B
100
AcDbEntity
  8
1
  6
CONTINUOUS
100
AcDbCircle
 10
157.720141
 20
159.035757
 30
0.0
 40
1.118
  0
CIRCLE
  5
9C
100
AcDbEntity
  8
1
  6
CONTINUOUS
100
AcDbCircle
 10
157.720141
 20
159.035757
 30
0.0
 40
0.93
  0
LINE
  5
9D
100
AcDbEntity
  8
1
  6
CONTINUOUS
100
AcDbLine
 10
158.824141
 20
158.858757
 30
0.0
 11
159.073141
 21
158.858757
 31
0.0
  0
LINE
  5
9E
100
AcDbEntity
  8
1
  6
CONTINUOUS
100
AcDbLine
 10
159.073141
 20
158.858757
 30
0.0
 11
159.073141
 21
159.210757
 31
0.0
  0
LINE
  5
9F
100
AcDbEntity
  8
1
  6
CONTINUOUS
100
AcDbLine
 10
158.824141
 20
159.210757
 30
0.0
 11
159.073141
 21
159.210757
 31
0.0
  0
CIRCLE
  5
A0
100
AcDbEntity
  8
1
  6
CONTINUOUS
100
AcDbCircle
 10
161.951141
 20
159.035757
 30
0.0
 40
1.53
  0
LINE
  5
A1
100
AcDbEntity
  8
1
  6
CONTINUOUS
100
AcDbLine
 10
160.850141
 20
159.210757
 30
0.0
 11
160.600141
 21
159.210757
 31
0.0
  0
LINE
  5
A2
100
AcDbEntity
  8
1
  6
CONTINUOUS
100
AcDbLine
 10
160.600141
 20
159.210757
 30
0.0
 11
160.600141
 21
158.858757
 31
0.0
  0
LINE
  5
A3
100
AcDbEntity
  8
1
  6
CONTINUOUS
100
AcDbLine
 10
160.850141
 20
158.858757
 30
0.0
 11
160.600141
 21
158.858757
 31
0.0
  0
CIRCLE
  5
A4
100
AcDbEntity
  8
1
  6
CONTINUOUS
100
AcDbCircle
 10
161.951141
 20
159.035757
 30
0.0
 40
1.118
  0
CIRCLE
  5
A5
100
AcDbEntity
  8
1
  6
CONTINUOUS
100
AcDbCircle
 10
161.951141
 20
159.035757
 30
0.0
 40
0.93
  0
LINE
  5
A6
100
AcDbEntity
  8
1
  6
CONTINUOUS
100
AcDbLine
 10
163.055141
 20
158.858757
 30
0.0
 11
163.304141
 21
158.858757
 31
0.0
  0
LINE
  5
A7
100
AcDbEntity
  8
1
  6
CONTINUOUS
100
AcDbLine
 10
163.304141
 20
158.858757
 30
0.0
 11
163.304141
 21
159.210757
 31
0.0
  0
LINE
  5
A8
100
AcDbEntity
  8
1
  6
CONTINUOUS
100
AcDbLine
 10
163.055141
 20
159.210757
 30
0.0
 11
163.304141
 21
159.210757
 31
0.0
  0
CIRCLE
  5
A9
100
AcDbEntity
  8
1
  6
CONTINUOUS
100
AcDbCircle
 10
166.184141
 20
159.035757
 30
0.0
 40
1.53
  0
LINE
  5
AA
100
AcDbEntity
  8
1
  6
CONTINUOUS
100
AcDbLine
 10
165.082141
 20
159.210757
 30
0.0
 11
164.833141
 21
159.210757
 31
0.0
  0
LINE
  5
AB
100
AcDbEntity
  8
1
  6
CONTINUOUS
100
AcDbLine
 10
164.833141
 20
159.210757
 30
0.0
 11
164.833141
 21
158.858757
 31
0.0
  0
LINE
  5
AC
100
AcDbEntity
  8
1
  6
CONTINUOUS
100
AcDbLine
 10
165.082141
 20
158.858757
 30
0.0
 11
164.833141
 21
158.858757
 31
0.0
  0
CIRCLE
  5
AD
100
AcDbEntity
  8
1
  6
CONTINUOUS
100
AcDbCircle
 10
166.184141
 20
159.035757
 30
0.0
 40
1.118
  0
CIRCLE
  5
AE
100
AcDbEntity
  8
1
  6
CONTINUOUS
100
AcDbCircle
 10
166.184141
 20
159.035757
 30
0.0
 40
0.93
  0
LINE
  5
AF
100
AcDbEntity
  8
1
  6
CONTINUOUS
100
AcDbLine
 10
167.288141
 20
158.858757
 30
0.0
 11
167.537141
 21
158.858757
 31
0.0
  0
LINE
  5
B0
100
AcDbEntity
  8
1
  6
CONTINUOUS
100
AcDbLine
 10
167.537141
 20
158.858757
 30
0.0
 11
167.537141
 21
159.210757
 31
0.0
  0
LINE
  5
B1
100
AcDbEntity
  8
1
  6
CONTINUOUS
100
AcDbLine
 10
167.288141
 20
159.210757
 30
0.0
 11
167.537141
 21
159.210757
 31
0.0
  0
CIRCLE
  5
B2
100
AcDbEntity
  8
1
  6
CONTINUOUS
100
AcDbCircle
 10
170.416141
 20
159.035757
 30
0.0
 40
1.53
  0
LINE
  5
B3
100
AcDbEntity
  8
1
  6
CONTINUOUS
100
AcDbLine
 10
169.315141
 20
159.210757
 30
0.0
 11
169.064141
 21
159.210757
 31
0.0
  0
LINE
  5
B4
100
AcDbEntity
  8
1
  6
CONTINUOUS
100
AcDbLine
 10
169.064141
 20
159.210757
 30
0.0
 11
169.064141
 21
158.858757
 31
0.0
  0
LINE
  5
B5
100
AcDbEntity
  8
1
  6
CONTINUOUS
100
AcDbLine
 10
169.315141
 20
158.858757
 30
0.0
 11
169.064141
 21
158.858757
 31
0.0
  0
CIRCLE
  5
B6
100
AcDbEntity
  8
1
  6
CONTINUOUS
100
AcDbCircle
 10
170.416141
 20
159.035757
 30
0.0
 40
1.118
  0
CIRCLE
  5
B7
100
AcDbEntity
  8
1
  6
CONTINUOUS
100
AcDbCircle
 10
170.416141
 20
159.035757
 30
0.0
 40
0.93
  0
LINE
  5
B8
100
AcDbEntity
  8
1
  6
CONTINUOUS
100
AcDbLine
 10
171.520141
 20
158.858757
 30
0.0
 11
171.769141
 21
158.858757
 31
0.0
  0
LINE
  5
B9
100
AcDbEntity
  8
1
  6
CONTINUOUS
100
AcDbLine
 10
171.769141
 20
158.858757
 30
0.0
 11
171.769141
 21
159.210757
 31
0.0
  0
LINE
  5
BA
100
AcDbEntity
  8
1
  6
CONTINUOUS
100
AcDbLine
 10
171.520141
 20
159.210757
 30
0.0
 11
171.769141
 21
159.210757
 31
0.0
  0
CIRCLE
  5
BB
100
AcDbEntity
  8
1
  6
CONTINUOUS
100
AcDbCircle
 10
174.649141
 20
159.035757
 30
0.0
 40
1.53
  0
LINE
  5
BC
100
AcDbEntity
  8
1
  6
CONTINUOUS
100
AcDbLine
 10
173.546141
 20
159.210757
 30
0.0
 11
173.297141
 21
159.210757
 31
0.0
  0
LINE
  5
BD
100
AcDbEntity
  8
1
  6
CONTINUOUS
100
AcDbLine
 10
173.297141
 20
159.210757
 30
0.0
 11
173.297141
 21
158.858757
 31
0.0
  0
LINE
  5
BE
100
AcDbEntity
  8
1
  6
CONTINUOUS
100
AcDbLine
 10
173.546141
 20
158.858757
 30
0.0
 11
173.297141
 21
158.858757
 31
0.0
  0
CIRCLE
  5
BF
100
AcDbEntity
  8
1
  6
CONTINUOUS
100
AcDbCircle
 10
174.649141
 20
159.035757
 30
0.0
 40
1.118
  0
CIRCLE
  5
C0
100
AcDbEntity
  8
1
  6
CONTINUOUS
100
AcDbCircle
 10
174.649141
 20
159.035757
 30
0.0
 40
0.93
  0
LINE
  5
C1
100
AcDbEntity
  8
1
  6
CONTINUOUS
100
AcDbLine
 10
175.753141
 20
158.858757
 30
0.0
 11
176.002141
 21
158.858757
 31
0.0
  0
LINE
  5
C2
100
AcDbEntity
  8
1
  6
CONTINUOUS
100
AcDbLine
 10
176.002141
 20
158.858757
 30
0.0
 11
176.002141
 21
159.210757
 31
0.0
  0
LINE
  5
C3
100
AcDbEntity
  8
1
  6
CONTINUOUS
100
AcDbLine
 10
175.753141
 20
159.210757
 30
0.0
 11
176.002141
 21
159.210757
 31
0.0
  0
LINE
  5
C4
100
AcDbEntity
  8
1
  6
CONTINUOUS
100
AcDbLine
 10
179.984141
 20
159.210757
 30
0.0
 11
180.233141
 21
159.210757
 31
0.0
  0
LINE
  5
C5
100
AcDbEntity
  8
1
  6
CONTINUOUS
100
AcDbLine
 10
180.233141
 20
158.858757
 30
0.0
 11
180.233141
 21
159.210757
 31
0.0
  0
LINE
  5
C6
100
AcDbEntity
  8
1
  6
CONTINUOUS
100
AcDbLine
 10
179.984141
 20
158.858757
 30
0.0
 11
180.233141
 21
158.858757
 31
0.0
  0
CIRCLE
  5
C7
100
AcDbEntity
  8
1
  6
CONTINUOUS
100
AcDbCircle
 10
178.880141
 20
159.035757
 30
0.0
 40
0.93
  0
CIRCLE
  5
C8
100
AcDbEntity
  8
1
  6
CONTINUOUS
100
AcDbCircle
 10
178.880141
 20
159.035757
 30
0.0
 40
1.118
  0
LINE
  5
C9
100
AcDbEntity
  8
1
  6
CONTINUOUS
100
AcDbLine
 10
177.779141
 20
158.858757
 30
0.0
 11
177.529141
 21
158.858757
 31
0.0
  0
LINE
  5
CA
100
AcDbEntity
  8
1
  6
CONTINUOUS
100
AcDbLine
 10
177.529141
 20
159.210757
 30
0.0
 11
177.529141
 21
158.858757
 31
0.0
  0
LINE
  5
CB
100
AcDbEntity
  8
1
  6
CONTINUOUS
100
AcDbLine
 10
177.779141
 20
159.210757
 30
0.0
 11
177.529141
 21
159.210757
 31
0.0
  0
CIRCLE
  5
CC
100
AcDbEntity
  8
1
  6
CONTINUOUS
100
AcDbCircle
 10
178.880141
 20
159.035757
 30
0.0
 40
1.53
  0
TEXT
  5
CD
100
AcDbEntity
  8
1
100
AcDbText
 10
143.800141
 20
69.768757
 30
0.0
 40
1.315
  1
420
 41
0.715
  7
KANJI
100
AcDbText
  0
LINE
  5
CE
100
AcDbEntity
  8
1
  6
CONTINUOUS
100
AcDbLine
 10
95.834141
 20
75.282757
 30
0.0
 11
95.834141
 21
68.358757
 31
0.0
  0
LINE
  5
CF
100
AcDbEntity
  8
1
  6
CONTINUOUS
100
AcDbLine
 10
194.587141
 20
75.282757
 30
0.0
 11
194.587141
 21
68.358757
 31
0.0
  0
LINE
  5
D0
100
AcDbEntity
  8
1
  6
CONTINUOUS
100
AcDbLine
 10
95.834141
 20
69.299757
 30
0.0
 11
194.587141
 21
69.299757
 31
0.0
  0
LINE
  5
D1
100
AcDbEntity
  8
1
  6
CONTINUOUS
100
AcDbLine
 10
95.834141
 20
69.299757
 30
0.0
 11
96.743141
 21
69.542757
 31
0.0
  0
LINE
  5
D2
100
AcDbEntity
  8
1
  6
CONTINUOUS
100
AcDbLine
 10
95.834141
 20
69.299757
 30
0.0
 11
96.743141
 21
69.056757
 31
0.0
  0
LINE
  5
D3
100
AcDbEntity
  8
1
  6
CONTINUOUS
100
AcDbLine
 10
194.587141
 20
69.299757
 30
0.0
 11
193.679141
 21
69.056757
 31
0.0
  0
LINE
  5
D4
100
AcDbEntity
  8
1
  6
CONTINUOUS
100
AcDbLine
 10
194.587141
 20
69.299757
 30
0.0
 11
193.679141
 21
69.542757
 31
0.0
  0
TEXT
  5
D5
100
AcDbEntity
  8
1
100
AcDbText
 10
89.606141
 20
107.025757
 30
0.0
 40
1.315
  1
280
 50
90.0
 41
0.715
  7
KANJI
100
AcDbText
  0
LINE
  5
D6
100
AcDbEntity
  8
1
  6
CONTINUOUS
100
AcDbLine
 10
95.599141
 20
75.518757
 30
0.0
 11
89.137141
 21
75.518757
 31
0.0
  0
LINE
  5
D7
100
AcDbEntity
  8
1
  6
CONTINUOUS
100
AcDbLine
 10
95.693141
 20
141.353757
 30
0.0
 11
89.137141
 21
141.353757
 31
0.0
  0
LINE
  5
D8
100
AcDbEntity
  8
1
  6
CONTINUOUS
100
AcDbLine
 10
90.077141
 20
75.518757
 30
0.0
 11
90.077141
 21
141.353757
 31
0.0
  0
LINE
  5
D9
100
AcDbEntity
  8
1
  6
CONTINUOUS
100
AcDbLine
 10
90.077141
 20
75.518757
 30
0.0
 11
89.833141
 21
76.427757
 31
0.0
  0
LINE
  5
DA
100
AcDbEntity
  8
1
  6
CONTINUOUS
100
AcDbLine
 10
90.077141
 20
75.518757
 30
0.0
 11
90.319141
 21
76.427757
 31
0.0
  0
LINE
  5
DB
100
AcDbEntity
  8
1
  6
CONTINUOUS
100
AcDbLine
 10
90.077141
 20
141.353757
 30
0.0
 11
90.319141
 21
140.445757
 31
0.0
  0
LINE
  5
DC
100
AcDbEntity
  8
1
  6
CONTINUOUS
100
AcDbLine
 10
90.077141
 20
141.353757
 30
0.0
 11
89.833141
 21
140.445757
 31
0.0
  0
TEXT
  5
DD
100
AcDbEntity
  8
1
100
AcDbText
 10
90.614141
 20
50.594757
 30
0.0
 40
1.315
  1
44
 50
90.0
 41
0.715
  7
KANJI
100
AcDbText
  0
LINE
  5
DE
100
AcDbEntity
  8
1
  6
CONTINUOUS
100
AcDbLine
 10
95.599141
 20
46.362757
 30
0.0
 11
90.143141
 21
46.362757
 31
0.0
  0
LINE
  5
DF
100
AcDbEntity
  8
1
  6
CONTINUOUS
100
AcDbLine
 10
95.599141
 20
56.708757
 30
0.0
 11
90.143141
 21
56.708757
 31
0.0
  0
LINE
  5
E0
100
AcDbEntity
  8
1
  6
CONTINUOUS
100
AcDbLine
 10
91.084141
 20
46.362757
 30
0.0
 11
91.084141
 21
56.708757
 31
0.0
  0
LINE
  5
E1
100
AcDbEntity
  8
1
  6
CONTINUOUS
100
AcDbLine
 10
91.084141
 20
46.362757
 30
0.0
 11
90.841141
 21
47.271757
 31
0.0
  0
LINE
  5
E2
100
AcDbEntity
  8
1
  6
CONTINUOUS
100
AcDbLine
 10
91.084141
 20
46.362757
 30
0.0
 11
91.328141
 21
47.271757
 31
0.0
  0
LINE
  5
E3
100
AcDbEntity
  8
1
  6
CONTINUOUS
100
AcDbLine
 10
91.084141
 20
56.708757
 30
0.0
 11
91.328141
 21
55.799757
 31
0.0
  0
LINE
  5
E4
100
AcDbEntity
  8
1
  6
CONTINUOUS
100
AcDbLine
 10
91.084141
 20
56.708757
 30
0.0
 11
90.841141
 21
55.799757
 31
0.0
  0
LINE
  5
E5
100
AcDbEntity
  8
1
  6
CONTINUOUS
100
AcDbLine
 10
66.674141
 20
136.892757
 30
0.0
 11
67.156141
 21
136.409757
 31
0.0
  0
LINE
  5
E6
100
AcDbEntity
  8
1
  6
CONTINUOUS
100
AcDbLine
 10
67.156141
 20
136.892757
 30
0.0
 11
66.674141
 21
136.409757
 31
0.0
  0
CIRCLE
  5
E7
100
AcDbEntity
  8
1
  6
CONTINUOUS
100
AcDbCircle
 10
66.914141
 20
136.650757
 30
0.0
 40
0.812
  0
LINE
  5
E8
100
AcDbEntity
  8
1
  6
CONTINUOUS
100
AcDbLine
 10
66.674141
 20
83.505757
 30
0.0
 11
67.156141
 21
83.988757
 31
0.0
  0
LINE
  5
E9
100
AcDbEntity
  8
1
  6
CONTINUOUS
100
AcDbLine
 10
67.156141
 20
83.505757
 30
0.0
 11
66.674141
 21
83.988757
 31
0.0
  0
CIRCLE
  5
EA
100
AcDbEntity
  8
1
  6
CONTINUOUS
100
AcDbCircle
 10
66.914141
 20
83.747757
 30
0.0
 40
0.812
  0
CIRCLE
  5
EB
100
AcDbEntity
  8
1
  6
CONTINUOUS
100
AcDbCircle
 10
151.370141
 20
157.859757
 30
0.0
 40
0.53
  0
LINE
  5
EC
100
AcDbEntity
  8
1
  6
CONTINUOUS
100
AcDbLine
 10
151.370141
 20
157.859757
 30
0.0
 11
151.588141
 21
158.075757
 31
0.0
  0
LINE
  5
ED
100
AcDbEntity
  8
1
  6
CONTINUOUS
100
AcDbLine
 10
151.370141
 20
157.859757
 30
0.0
 11
151.156141
 21
157.643757
 31
0.0
  0
LINE
  5
EE
100
AcDbEntity
  8
1
  6
CONTINUOUS
100
AcDbLine
 10
151.370141
 20
157.859757
 30
0.0
 11
151.372141
 21
157.859757
 31
0.0
  0
LINE
  5
EF
100
AcDbEntity
  8
1
  6
CONTINUOUS
100
AcDbLine
 10
151.370141
 20
157.859757
 30
0.0
 11
151.156141
 21
158.075757
 31
0.0
  0
LINE
  5
F0
100
AcDbEntity
  8
1
  6
CONTINUOUS
100
AcDbLine
 10
151.370141
 20
157.859757
 30
0.0
 11
151.588141
 21
157.643757
 31
0.0
  0
CIRCLE
  5
F1
100
AcDbEntity
  8
1
  6
CONTINUOUS
100
AcDbCircle
 10
159.835141
 20
157.859757
 30
0.0
 40
0.53
  0
LINE
  5
F2
100
AcDbEntity
  8
1
  6
CONTINUOUS
100
AcDbLine
 10
159.835141
 20
157.859757
 30
0.0
 11
160.052141
 21
158.075757
 31
0.0
  0
LINE
  5
F3
100
AcDbEntity
  8
1
  6
CONTINUOUS
100
AcDbLine
 10
159.835141
 20
157.859757
 30
0.0
 11
159.620141
 21
157.643757
 31
0.0
  0
LINE
  5
F4
100
AcDbEntity
  8
1
  6
CONTINUOUS
100
AcDbLine
 10
159.835141
 20
157.859757
 30
0.0
 11
159.836141
 21
157.859757
 31
0.0
  0
LINE
  5
F5
100
AcDbEntity
  8
1
  6
CONTINUOUS
100
AcDbLine
 10
159.835141
 20
157.859757
 30
0.0
 11
159.620141
 21
158.075757
 31
0.0
  0
LINE
  5
F6
100
AcDbEntity
  8
1
  6
CONTINUOUS
100
AcDbLine
 10
159.835141
 20
157.859757
 30
0.0
 11
160.052141
 21
157.643757
 31
0.0
  0
CIRCLE
  5
F7
100
AcDbEntity
  8
1
  6
CONTINUOUS
100
AcDbCircle
 10
168.299141
 20
157.859757
 30
0.0
 40
0.53
  0
LINE
  5
F8
100
AcDbEntity
  8
1
  6
CONTINUOUS
100
AcDbLine
 10
168.299141
 20
157.859757
 30
0.0
 11
168.517141
 21
158.075757
 31
0.0
  0
LINE
  5
F9
100
AcDbEntity
  8
1
  6
CONTINUOUS
100
AcDbLine
 10
168.299141
 20
157.859757
 30
0.0
 11
168.085141
 21
157.643757
 31
0.0
  0
LINE
  5
FA
100
AcDbEntity
  8
1
  6
CONTINUOUS
100
AcDbLine
 10
168.299141
 20
157.859757
 30
0.0
 11
168.301141
 21
157.859757
 31
0.0
  0
LINE
  5
FB
100
AcDbEntity
  8
1
  6
CONTINUOUS
100
AcDbLine
 10
168.299141
 20
157.859757
 30
0.0
 11
168.085141
 21
158.075757
 31
0.0
  0
LINE
  5
FC
100
AcDbEntity
  8
1
  6
CONTINUOUS
100
AcDbLine
 10
168.299141
 20
157.859757
 30
0.0
 11
168.517141
 21
157.643757
 31
0.0
  0
CIRCLE
  5
FD
100
AcDbEntity
  8
1
  6
CONTINUOUS
100
AcDbCircle
 10
176.764141
 20
157.859757
 30
0.0
 40
0.53
  0
LINE
  5
FE
100
AcDbEntity
  8
1
  6
CONTINUOUS
100
AcDbLine
 10
176.764141
 20
157.859757
 30
0.0
 11
176.981141
 21
158.075757
 31
0.0
  0
LINE
  5
FF
100
AcDbEntity
  8
1
  6
CONTINUOUS
100
AcDbLine
 10
176.764141
 20
157.859757
 30
0.0
 11
176.549141
 21
157.643757
 31
0.0
  0
LINE
  5
100
100
AcDbEntity
  8
1
  6
CONTINUOUS
100
AcDbLine
 10
176.764141
 20
157.859757
 30
0.0
 11
176.765141
 21
157.859757
 31
0.0
  0
LINE
  5
101
100
AcDbEntity
  8
1
  6
CONTINUOUS
100
AcDbLine
 10
176.764141
 20
157.859757
 30
0.0
 11
176.549141
 21
158.075757
 31
0.0
  0
LINE
  5
102
100
AcDbEntity
  8
1
  6
CONTINUOUS
100
AcDbLine
 10
176.764141
 20
157.859757
 30
0.0
 11
176.981141
 21
157.643757
 31
0.0
  0
LINE
  5
103
100
AcDbEntity
  8
1
  6
CONTINUOUS
100
AcDbLine
 10
111.635141
 20
155.768757
 30
0.0
 11
125.176141
 21
155.768757
 31
0.0
  0
LINE
  5
104
100
AcDbEntity
  8
1
  6
CONTINUOUS
100
AcDbLine
 10
130.918141
 20
155.768757
 30
0.0
 11
144.553141
 21
155.768757
 31
0.0
  0
TEXT
  5
105
100
AcDbEntity
  8
1
100
AcDbText
 10
165.713141
 20
156.119757
 30
0.0
 40
0.705
  1
カメラ入力
 50
180.0
 41
0.779
  7
KANJI
100
AcDbText
  0
TEXT
  5
106
100
AcDbEntity
  8
1
100
AcDbText
 10
130.798141
 20
156.119757
 30
0.0
 40
0.705
  1
コントロ－ラ出力
 50
180.0
 41
0.8
  7
KANJI
100
AcDbText
  0
TEXT
  5
107
100
AcDbEntity
  8
1
100
AcDbText
 10
98.185141
 20
55.062757
 30
0.0
 40
0.94
  1
VP CUT BOX
 41
0.646
  7
KANJI
100
AcDbText
  0
ARC
  5
108
100
AcDbEntity
  8
1
  6
CONTINUOUS
100
AcDbCircle
 10
177.094141
 20
134.888757
 30
0.0
 40
0.236
100
AcDbArc
 50
180.0
 51
270.0
  0
LINE
  5
109
100
AcDbEntity
  8
1
  6
CONTINUOUS
100
AcDbLine
 10
193.318141
 20
134.888757
 30
0.0
 11
193.318141
 21
139.943757
 31
0.0
  0
LINE
  5
10A
100
AcDbEntity
  8
1
  6
CONTINUOUS
100
AcDbLine
 10
192.847141
 20
135.005757
 30
0.0
 11
192.847141
 21
139.826757
 31
0.0
  0
LINE
  5
10B
100
AcDbEntity
  8
1
  6
CONTINUOUS
100
AcDbLine
 10
176.858141
 20
134.888757
 30
0.0
 11
176.858141
 21
139.943757
 31
0.0
  0
LINE
  5
10C
100
AcDbEntity
  8
1
  6
CONTINUOUS
100
AcDbLine
 10
177.329141
 20
135.005757
 30
0.0
 11
177.329141
 21
139.826757
 31
0.0
  0
ARC
  5
10D
100
AcDbEntity
  8
1
  6
CONTINUOUS
100
AcDbCircle
 10
193.082141
 20
134.888757
 30
0.0
 40
0.236
100
AcDbArc
 50
270.0
 51
0.0
  0
LINE
  5
10E
100
AcDbEntity
  8
1
  6
CONTINUOUS
100
AcDbLine
 10
193.082141
 20
134.654757
 30
0.0
 11
177.094141
 21
134.654757
 31
0.0
  0
LINE
  5
10F
100
AcDbEntity
  8
1
  6
CONTINUOUS
100
AcDbLine
 10
177.329141
 20
135.005757
 30
0.0
 11
192.847141
 21
135.005757
 31
0.0
  0
ARC
  5
110
100
AcDbEntity
  8
1
  6
CONTINUOUS
100
AcDbCircle
 10
177.094141
 20
134.888757
 30
0.0
 40
0.236
100
AcDbArc
 50
180.0
 51
270.0
  0
ARC
  5
111
100
AcDbEntity
  8
1
  6
CONTINUOUS
100
AcDbCircle
 10
177.094141
 20
139.943757
 30
0.0
 40
0.236
100
AcDbArc
 50
90.0
 51
180.0
  0
ARC
  5
112
100
AcDbEntity
  8
1
  6
CONTINUOUS
100
AcDbCircle
 10
193.082141
 20
139.943757
 30
0.0
 40
0.236
100
AcDbArc
 50
0.0
 51
90.0
  0
LINE
  5
113
100
AcDbEntity
  8
1
  6
CONTINUOUS
100
AcDbLine
 10
177.329141
 20
138.062757
 30
0.0
 11
192.847141
 21
138.062757
 31
0.0
  0
LINE
  5
114
100
AcDbEntity
  8
1
  6
CONTINUOUS
100
AcDbLine
 10
177.329141
 20
139.826757
 30
0.0
 11
192.847141
 21
139.826757
 31
0.0
  0
LINE
  5
115
100
AcDbEntity
  8
1
  6
CONTINUOUS
100
AcDbLine
 10
177.094141
 20
140.178757
 30
0.0
 11
193.082141
 21
140.178757
 31
0.0
  0
LINE
  5
116
100
AcDbEntity
  8
1
  6
DASHDOT
100
AcDbLine
 10
105.239141
 20
43.106757
 30
0.0
 11
105.239141
 21
47.484757
 31
0.0
  0
LINE
  5
117
100
AcDbEntity
  8
1
  6
DASHDOT
100
AcDbLine
 10
185.182141
 20
43.106757
 30
0.0
 11
185.182141
 21
47.484757
 31
0.0
  0
TEXT
  5
118
100
AcDbEntity
  8
1
100
AcDbText
 10
98.185141
 20
54.122757
 30
0.0
 40
0.705
  1
J-4117
 41
0.678
  7
KANJI
100
AcDbText
  0
TEXT
  5
119
100
AcDbEntity
  8
1
100
AcDbText
 10
111.869141
 20
156.825757
 30
0.0
 40
0.564
  1
８
 50
180.0
 41
0.697
  7
KANJI
100
AcDbText
  0
TEXT
  5
11A
100
AcDbEntity
  8
1
100
AcDbText
 10
116.572141
 20
156.825757
 30
0.0
 40
0.564
  1
７
 50
180.0
 41
0.697
  7
KANJI
100
AcDbText
  0
TEXT
  5
11B
100
AcDbEntity
  8
1
100
AcDbText
 10
121.274141
 20
156.825757
 30
0.0
 40
0.564
  1
６
 50
180.0
 41
0.697
  7
KANJI
100
AcDbText
  0
TEXT
  5
11C
100
AcDbEntity
  8
1
100
AcDbText
 10
125.977141
 20
156.825757
 30
0.0
 40
0.564
  1
５
 50
180.0
 41
0.697
  7
KANJI
100
AcDbText
  0
LINE
  5
11D
100
AcDbEntity
  8
1
  6
CONTINUOUS
100
AcDbLine
 10
144.553141
 20
156.119757
 30
0.0
 11
144.553141
 21
155.768757
 31
0.0
  0
TEXT
  5
11E
100
AcDbEntity
  8
1
100
AcDbText
 10
144.787141
 20
156.825757
 30
0.0
 40
0.564
  1
１
 50
180.0
 41
0.697
  7
KANJI
100
AcDbText
  0
LINE
  5
11F
100
AcDbEntity
  8
1
  6
CONTINUOUS
100
AcDbLine
 10
111.635141
 20
156.119757
 30
0.0
 11
111.635141
 21
155.768757
 31
0.0
  0
TEXT
  5
120
100
AcDbEntity
  8
1
100
AcDbText
 10
135.382141
 20
156.825757
 30
0.0
 40
0.564
  1
３
 50
180.0
 41
0.697
  7
KANJI
100
AcDbText
  0
TEXT
  5
121
100
AcDbEntity
  8
1
100
AcDbText
 10
140.084141
 20
156.825757
 30
0.0
 40
0.564
  1
２
 50
180.0
 41
0.697
  7
KANJI
100
AcDbText
  0
TEXT
  5
122
100
AcDbEntity
  8
1
100
AcDbText
 10
130.679141
 20
156.825757
 30
0.0
 40
0.564
  1
４
 50
180.0
 41
0.697
  7
KANJI
100
AcDbText
  0
TEXT
  5
123
100
AcDbEntity
  8
1
100
AcDbText
 10
156.113
 20
236.98
 30
0.0
 40
0.564
  1
　
 50
180.0
 41
0.697
  7
KANJI
100
AcDbText
  0
TEXT
  5
124
100
AcDbEntity
  8
1
100
AcDbText
 10
179.116141
 20
156.825757
 30
0.0
 40
0.564
  1
１
 50
180.0
 41
0.697
  7
KANJI
100
AcDbText
  0
CIRCLE
  5
125
100
AcDbEntity
  8
1
  6
CONTINUOUS
100
AcDbCircle
 10
178.880141
 20
159.035757
 30
0.0
 40
1.53
  0
LINE
  5
126
100
AcDbEntity
  8
1
  6
CONTINUOUS
100
AcDbLine
 10
178.880141
 20
156.119757
 30
0.0
 11
178.880141
 21
155.768757
 31
0.0
  0
LINE
  5
127
100
AcDbEntity
  8
1
  6
CONTINUOUS
100
AcDbLine
 10
165.865141
 20
155.768757
 30
0.0
 11
178.880141
 21
155.768757
 31
0.0
  0
LINE
  5
128
100
AcDbEntity
  8
1
  6
CONTINUOUS
100
AcDbLine
 10
149.255141
 20
156.119757
 30
0.0
 11
149.255141
 21
155.768757
 31
0.0
  0
LINE
  5
129
100
AcDbEntity
  8
1
  6
CONTINUOUS
100
AcDbLine
 10
149.255141
 20
155.768757
 30
0.0
 11
162.289141
 21
155.768757
 31
0.0
  0
TEXT
  5
12A
100
AcDbEntity
  8
1
100
AcDbText
 10
157.954141
 20
156.825757
 30
0.0
 40
0.564
  1
６
 50
180.0
 41
0.697
  7
KANJI
100
AcDbText
  0
TEXT
  5
12B
100
AcDbEntity
  8
1
100
AcDbText
 10
162.187141
 20
156.825757
 30
0.0
 40
0.564
  1
５
 50
180.0
 41
0.697
  7
KANJI
100
AcDbText
  0
TEXT
  5
12C
100
AcDbEntity
  8
1
100
AcDbText
 10
153.722141
 20
156.825757
 30
0.0
 40
0.564
  1
７
 50
180.0
 41
0.697
  7
KANJI
100
AcDbText
  0
TEXT
  5
12D
100
AcDbEntity
  8
1
100
AcDbText
 10
149.489141
 20
156.825757
 30
0.0
 40
0.564
  1
８
 50
180.0
 41
0.697
  7
KANJI
100
AcDbText
  0
CIRCLE
  5
12E
100
AcDbEntity
  8
1
  6
CONTINUOUS
100
AcDbCircle
 10
149.255141
 20
159.035757
 30
0.0
 40
1.53
  0
CIRCLE
  5
12F
100
AcDbEntity
  8
1
  6
CONTINUOUS
100
AcDbCircle
 10
153.487141
 20
159.035757
 30
0.0
 40
1.53
  0
CIRCLE
  5
130
100
AcDbEntity
  8
1
  6
CONTINUOUS
100
AcDbCircle
 10
157.720141
 20
159.035757
 30
0.0
 40
1.53
  0
CIRCLE
  5
131
100
AcDbEntity
  8
1
  6
CONTINUOUS
100
AcDbCircle
 10
161.951141
 20
159.035757
 30
0.0
 40
1.53
  0
TEXT
  5
132
100
AcDbEntity
  8
1
100
AcDbText
 10
147.648
 20
236.98
 30
0.0
 40
0.564
  1
　
 50
180.0
 41
0.697
  7
KANJI
100
AcDbText
  0
TEXT
  5
133
100
AcDbEntity
  8
1
100
AcDbText
 10
170.651141
 20
156.825757
 30
0.0
 40
0.564
  1
３
 50
180.0
 41
0.697
  7
KANJI
100
AcDbText
  0
TEXT
  5
134
100
AcDbEntity
  8
1
100
AcDbText
 10
143.415
 20
236.98
 30
0.0
 40
0.564
  1
　
 50
180.0
 41
0.697
  7
KANJI
100
AcDbText
  0
TEXT
  5
135
100
AcDbEntity
  8
1
100
AcDbText
 10
166.418141
 20
156.825757
 30
0.0
 40
0.564
  1
４
 50
180.0
 41
0.697
  7
KANJI
100
AcDbText
  0
TEXT
  5
136
100
AcDbEntity
  8
1
100
AcDbText
 10
151.88
 20
236.98
 30
0.0
 40
0.564
  1
　
 50
180.0
 41
0.697
  7
KANJI
100
AcDbText
  0
TEXT
  5
137
100
AcDbEntity
  8
1
100
AcDbText
 10
174.883141
 20
156.825757
 30
0.0
 40
0.564
  1
２
 50
180.0
 41
0.697
  7
KANJI
100
AcDbText
  0
CIRCLE
  5
138
100
AcDbEntity
  8
1
  6
CONTINUOUS
100
AcDbCircle
 10
166.184141
 20
159.035757
 30
0.0
 40
1.53
  0
CIRCLE
  5
139
100
AcDbEntity
  8
1
  6
CONTINUOUS
100
AcDbCircle
 10
170.416141
 20
159.035757
 30
0.0
 40
1.53
  0
CIRCLE
  5
13A
100
AcDbEntity
  8
1
  6
CONTINUOUS
100
AcDbCircle
 10
174.649141
 20
159.035757
 30
0.0
 40
1.53
  0
LINE
  5
13B
100
AcDbEntity
  8
1
  6
CONTINUOUS
100
AcDbLine
 10
103.123141
 20
165.336757
 30
0.0
 11
107.356141
 21
165.336757
 31
0.0
  0
LINE
  5
13C
100
AcDbEntity
  8
1
  6
CONTINUOUS
100
AcDbLine
 10
102.887141
 20
162.984757
 30
0.0
 11
103.123141
 21
165.336757
 31
0.0
  0
LINE
  5
13D
100
AcDbEntity
  8
1
  6
CONTINUOUS
100
AcDbLine
 10
107.590141
 20
162.984757
 30
0.0
 11
107.356141
 21
165.336757
 31
0.0
  0
LINE
  5
13E
100
AcDbEntity
  8
1
  6
CONTINUOUS
100
AcDbLine
 10
182.830141
 20
162.984757
 30
0.0
 11
183.065141
 21
165.336757
 31
0.0
  0
LINE
  5
13F
100
AcDbEntity
  8
1
  6
CONTINUOUS
100
AcDbLine
 10
187.532141
 20
162.984757
 30
0.0
 11
187.298141
 21
165.336757
 31
0.0
  0
LINE
  5
140
100
AcDbEntity
  8
1
  6
CONTINUOUS
100
AcDbLine
 10
183.065141
 20
165.336757
 30
0.0
 11
187.298141
 21
165.336757
 31
0.0
  0
LINE
  5
141
100
AcDbEntity
  8
1
  6
CONTINUOUS
100
AcDbLine
 10
187.298141
 20
165.336757
 30
0.0
 11
183.065141
 21
165.336757
 31
0.0
  0
LINE
  5
142
100
AcDbEntity
  8
1
  6
CONTINUOUS
100
AcDbLine
 10
107.356141
 20
165.336757
 30
0.0
 11
103.123141
 21
165.336757
 31
0.0
  0
LINE
  5
143
100
AcDbEntity
  8
1
  6
CONTINUOUS
100
AcDbLine
 10
185.182141
 20
54.122757
 30
0.0
 11
185.182141
 21
55.140757
 31
0.0
  0
LINE
  5
144
100
AcDbEntity
  8
1
  6
CONTINUOUS
100
AcDbLine
 10
185.182141
 20
55.140757
 30
0.0
 11
185.408141
 21
55.140757
 31
0.0
  0
LINE
  5
145
100
AcDbEntity
  8
1
  6
CONTINUOUS
100
AcDbLine
 10
185.332141
 20
54.122757
 30
0.0
 11
185.332141
 21
54.891757
 31
0.0
  0
LINE
  5
146
100
AcDbEntity
  8
1
  6
CONTINUOUS
100
AcDbLine
 10
185.182141
 20
54.122757
 30
0.0
 11
185.332141
 21
54.122757
 31
0.0
  0
LINE
  5
147
100
AcDbEntity
  8
1
  6
CONTINUOUS
100
AcDbLine
 10
186.307141
 20
54.122757
 30
0.0
 11
186.307141
 21
55.140757
 31
0.0
  0
LINE
  5
148
100
AcDbEntity
  8
1
  6
CONTINUOUS
100
AcDbLine
 10
186.457141
 20
54.122757
 30
0.0
 11
186.457141
 21
55.140757
 31
0.0
  0
LINE
  5
149
100
AcDbEntity
  8
1
  6
CONTINUOUS
100
AcDbLine
 10
186.307141
 20
54.122757
 30
0.0
 11
186.457141
 21
54.122757
 31
0.0
  0
LINE
  5
14A
100
AcDbEntity
  8
1
  6
CONTINUOUS
100
AcDbLine
 10
186.307141
 20
55.140757
 30
0.0
 11
186.457141
 21
55.140757
 31
0.0
  0
LINE
  5
14B
100
AcDbEntity
  8
1
  6
CONTINUOUS
100
AcDbLine
 10
186.851141
 20
54.122757
 30
0.0
 11
186.851141
 21
54.993757
 31
0.0
  0
LINE
  5
14C
100
AcDbEntity
  8
1
  6
CONTINUOUS
100
AcDbLine
 10
187.001141
 20
54.122757
 30
0.0
 11
187.001141
 21
54.993757
 31
0.0
  0
LINE
  5
14D
100
AcDbEntity
  8
1
  6
CONTINUOUS
100
AcDbLine
 10
186.562141
 20
55.140757
 30
0.0
 11
187.291141
 21
55.140757
 31
0.0
  0
LINE
  5
14E
100
AcDbEntity
  8
1
  6
CONTINUOUS
100
AcDbLine
 10
186.851141
 20
54.122757
 30
0.0
 11
187.001141
 21
54.122757
 31
0.0
  0
LINE
  5
14F
100
AcDbEntity
  8
1
  6
CONTINUOUS
100
AcDbLine
 10
186.562141
 20
54.993757
 30
0.0
 11
186.851141
 21
54.993757
 31
0.0
  0
LINE
  5
150
100
AcDbEntity
  8
1
  6
CONTINUOUS
100
AcDbLine
 10
186.562141
 20
55.140757
 30
0.0
 11
186.562141
 21
54.993757
 31
0.0
  0
LINE
  5
151
100
AcDbEntity
  8
1
  6
CONTINUOUS
100
AcDbLine
 10
187.291141
 20
55.140757
 30
0.0
 11
187.291141
 21
54.993757
 31
0.0
  0
LINE
  5
152
100
AcDbEntity
  8
1
  6
CONTINUOUS
100
AcDbLine
 10
187.001141
 20
54.993757
 30
0.0
 11
187.291141
 21
54.993757
 31
0.0
  0
LINE
  5
153
100
AcDbEntity
  8
1
  6
CONTINUOUS
100
AcDbLine
 10
188.207141
 20
55.140757
 30
0.0
 11
188.207141
 21
54.509757
 31
0.0
  0
LINE
  5
154
100
AcDbEntity
  8
1
  6
CONTINUOUS
100
AcDbLine
 10
188.356141
 20
55.140757
 30
0.0
 11
188.356141
 21
54.486757
 31
0.0
  0
LINE
  5
155
100
AcDbEntity
  8
1
  6
CONTINUOUS
100
AcDbLine
 10
188.996141
 20
55.140757
 30
0.0
 11
188.996141
 21
54.509757
 31
0.0
  0
LINE
  5
156
100
AcDbEntity
  8
1
  6
CONTINUOUS
100
AcDbLine
 10
188.848141
 20
55.140757
 30
0.0
 11
188.848141
 21
54.486757
 31
0.0
  0
LINE
  5
157
100
AcDbEntity
  8
1
  6
CONTINUOUS
100
AcDbLine
 10
188.207141
 20
55.140757
 30
0.0
 11
188.356141
 21
55.140757
 31
0.0
  0
LINE
  5
158
100
AcDbEntity
  8
1
  6
CONTINUOUS
100
AcDbLine
 10
188.848141
 20
55.140757
 30
0.0
 11
188.996141
 21
55.140757
 31
0.0
  0
ARC
  5
159
100
AcDbEntity
  8
1
  6
CONTINUOUS
100
AcDbCircle
 10
188.579141
 20
54.531757
 30
0.0
 40
0.419
100
AcDbArc
 50
273.071
 51
0.0
  0
ARC
  5
15A
100
AcDbEntity
  8
1
  6
CONTINUOUS
100
AcDbCircle
 10
188.623141
 20
54.531757
 30
0.0
 40
0.419
100
AcDbArc
 50
180.0
 51
266.929
  0
LINE
  5
15B
100
AcDbEntity
  8
1
  6
CONTINUOUS
100
AcDbLine
 10
190.010141
 20
54.122757
 30
0.0
 11
190.010141
 21
55.140757
 31
0.0
  0
LINE
  5
15C
100
AcDbEntity
  8
1
  6
CONTINUOUS
100
AcDbLine
 10
190.010141
 20
55.140757
 30
0.0
 11
190.157141
 21
55.140757
 31
0.0
  0
LINE
  5
15D
100
AcDbEntity
  8
1
  6
CONTINUOUS
100
AcDbLine
 10
190.157141
 20
54.122757
 30
0.0
 11
190.157141
 21
55.140757
 31
0.0
  0
LINE
  5
15E
100
AcDbEntity
  8
1
  6
CONTINUOUS
100
AcDbLine
 10
190.010141
 20
54.122757
 30
0.0
 11
190.157141
 21
54.122757
 31
0.0
  0
LINE
  5
15F
100
AcDbEntity
  8
1
  6
CONTINUOUS
100
AcDbLine
 10
189.271141
 20
54.270757
 30
0.0
 11
189.271141
 21
54.567757
 31
0.0
  0
LINE
  5
160
100
AcDbEntity
  8
1
  6
CONTINUOUS
100
AcDbLine
 10
189.122141
 20
54.122757
 30
0.0
 11
189.122141
 21
55.140757
 31
0.0
  0
LINE
  5
161
100
AcDbEntity
  8
1
  6
CONTINUOUS
100
AcDbLine
 10
189.122141
 20
54.122757
 30
0.0
 11
189.575141
 21
54.122757
 31
0.0
  0
LINE
  5
162
100
AcDbEntity
  8
1
  6
CONTINUOUS
100
AcDbLine
 10
189.122141
 20
55.140757
 30
0.0
 11
189.554141
 21
55.140757
 31
0.0
  0
LINE
  5
163
100
AcDbEntity
  8
1
  6
CONTINUOUS
100
AcDbLine
 10
189.271141
 20
54.993757
 30
0.0
 11
189.554141
 21
54.993757
 31
0.0
  0
LINE
  5
164
100
AcDbEntity
  8
1
  6
CONTINUOUS
100
AcDbLine
 10
189.271141
 20
54.270757
 30
0.0
 11
189.578141
 21
54.270757
 31
0.0
  0
LINE
  5
165
100
AcDbEntity
  8
1
  6
CONTINUOUS
100
AcDbLine
 10
189.271141
 20
54.567757
 30
0.0
 11
189.578141
 21
54.567757
 31
0.0
  0
LINE
  5
166
100
AcDbEntity
  8
1
  6
CONTINUOUS
100
AcDbLine
 10
189.271141
 20
54.725757
 30
0.0
 11
189.554141
 21
54.725757
 31
0.0
  0
LINE
  5
167
100
AcDbEntity
  8
1
  6
CONTINUOUS
100
AcDbLine
 10
189.271141
 20
54.725757
 30
0.0
 11
189.271141
 21
54.993757
 31
0.0
  0
ARC
  5
168
100
AcDbEntity
  8
1
  6
CONTINUOUS
100
AcDbCircle
 10
189.622141
 20
54.866757
 30
0.0
 40
0.224
100
AcDbArc
 50
282.541
 51
334.587
  0
ARC
  5
169
100
AcDbEntity
  8
1
  6
CONTINUOUS
100
AcDbCircle
 10
189.637141
 20
54.383757
 30
0.0
 40
0.269
100
AcDbArc
 50
32.606
 51
82.796
  0
LINE
  5
16A
100
AcDbEntity
  8
1
  6
CONTINUOUS
100
AcDbLine
 10
191.186141
 20
55.140757
 30
0.0
 11
191.336141
 21
55.140757
 31
0.0
  0
LINE
  5
16B
100
AcDbEntity
  8
1
  6
CONTINUOUS
100
AcDbLine
 10
191.336141
 20
54.122757
 30
0.0
 11
191.336141
 21
54.575757
 31
0.0
  0
LINE
  5
16C
100
AcDbEntity
  8
1
  6
CONTINUOUS
100
AcDbLine
 10
191.186141
 20
54.122757
 30
0.0
 11
191.186141
 21
55.140757
 31
0.0
  0
LINE
  5
16D
100
AcDbEntity
  8
1
  6
CONTINUOUS
100
AcDbLine
 10
191.186141
 20
54.122757
 30
0.0
 11
191.336141
 21
54.122757
 31
0.0
  0
LINE
  5
16E
100
AcDbEntity
  8
1
  6
CONTINUOUS
100
AcDbLine
 10
191.812141
 20
55.140757
 30
0.0
 11
191.960141
 21
55.140757
 31
0.0
  0
LINE
  5
16F
100
AcDbEntity
  8
1
  6
CONTINUOUS
100
AcDbLine
 10
191.960141
 20
54.122757
 30
0.0
 11
191.960141
 21
55.140757
 31
0.0
  0
LINE
  5
170
100
AcDbEntity
  8
1
  6
CONTINUOUS
100
AcDbLine
 10
191.812141
 20
54.122757
 30
0.0
 11
191.812141
 21
54.575757
 31
0.0
  0
LINE
  5
171
100
AcDbEntity
  8
1
  6
CONTINUOUS
100
AcDbLine
 10
191.812141
 20
54.122757
 30
0.0
 11
191.960141
 21
54.122757
 31
0.0
  0
LINE
  5
172
100
AcDbEntity
  8
1
  6
CONTINUOUS
100
AcDbLine
 10
192.088141
 20
55.140757
 30
0.0
 11
192.235141
 21
55.140757
 31
0.0
  0
LINE
  5
173
100
AcDbEntity
  8
1
  6
CONTINUOUS
100
AcDbLine
 10
192.235141
 20
54.122757
 30
0.0
 11
192.235141
 21
55.140757
 31
0.0
  0
LINE
  5
174
100
AcDbEntity
  8
1
  6
CONTINUOUS
100
AcDbLine
 10
192.088141
 20
54.122757
 30
0.0
 11
192.088141
 21
55.140757
 31
0.0
  0
LINE
  5
175
100
AcDbEntity
  8
1
  6
CONTINUOUS
100
AcDbLine
 10
192.088141
 20
54.122757
 30
0.0
 11
192.235141
 21
54.122757
 31
0.0
  0
LINE
  5
176
100
AcDbEntity
  8
1
  6
CONTINUOUS
100
AcDbLine
 10
191.336141
 20
54.575757
 30
0.0
 11
191.812141
 21
54.575757
 31
0.0
  0
LINE
  5
177
100
AcDbEntity
  8
1
  6
CONTINUOUS
100
AcDbLine
 10
191.336141
 20
54.725757
 30
0.0
 11
191.812141
 21
54.725757
 31
0.0
  0
LINE
  5
178
100
AcDbEntity
  8
1
  6
CONTINUOUS
100
AcDbLine
 10
191.336141
 20
54.725757
 30
0.0
 11
191.336141
 21
55.140757
 31
0.0
  0
LINE
  5
179
100
AcDbEntity
  8
1
  6
CONTINUOUS
100
AcDbLine
 10
191.812141
 20
54.725757
 30
0.0
 11
191.812141
 21
55.140757
 31
0.0
  0
LINE
  5
17A
100
AcDbEntity
  8
1
  6
CONTINUOUS
100
AcDbLine
 10
185.681141
 20
54.357757
 30
0.0
 11
185.408141
 21
55.140757
 31
0.0
  0
LINE
  5
17B
100
AcDbEntity
  8
1
  6
CONTINUOUS
100
AcDbLine
 10
186.307141
 20
55.140757
 30
0.0
 11
186.457141
 21
55.140757
 31
0.0
  0
LINE
  5
17C
100
AcDbEntity
  8
1
  6
CONTINUOUS
100
AcDbLine
 10
190.010141
 20
55.140757
 30
0.0
 11
190.157141
 21
55.140757
 31
0.0
  0
LINE
  5
17D
100
AcDbEntity
  8
1
  6
CONTINUOUS
100
AcDbLine
 10
188.207141
 20
55.110757
 30
0.0
 11
188.356141
 21
55.110757
 31
0.0
  0
LINE
  5
17E
100
AcDbEntity
  8
1
  6
CONTINUOUS
100
AcDbLine
 10
188.848141
 20
55.110757
 30
0.0
 11
188.996141
 21
55.110757
 31
0.0
  0
LINE
  5
17F
100
AcDbEntity
  8
1
  6
CONTINUOUS
100
AcDbLine
 10
188.207141
 20
55.082757
 30
0.0
 11
188.356141
 21
55.082757
 31
0.0
  0
LINE
  5
180
100
AcDbEntity
  8
1
  6
CONTINUOUS
100
AcDbLine
 10
188.848141
 20
55.082757
 30
0.0
 11
188.996141
 21
55.082757
 31
0.0
  0
LINE
  5
181
100
AcDbEntity
  8
1
  6
CONTINUOUS
100
AcDbLine
 10
188.207141
 20
55.053757
 30
0.0
 11
188.356141
 21
55.053757
 31
0.0
  0
LINE
  5
182
100
AcDbEntity
  8
1
  6
CONTINUOUS
100
AcDbLine
 10
188.848141
 20
55.053757
 30
0.0
 11
188.996141
 21
55.053757
 31
0.0
  0
LINE
  5
183
100
AcDbEntity
  8
1
  6
CONTINUOUS
100
AcDbLine
 10
188.207141
 20
55.023757
 30
0.0
 11
188.356141
 21
55.023757
 31
0.0
  0
LINE
  5
184
100
AcDbEntity
  8
1
  6
CONTINUOUS
100
AcDbLine
 10
188.848141
 20
55.023757
 30
0.0
 11
188.996141
 21
55.023757
 31
0.0
  0
LINE
  5
185
100
AcDbEntity
  8
1
  6
CONTINUOUS
100
AcDbLine
 10
188.207141
 20
54.993757
 30
0.0
 11
188.356141
 21
54.993757
 31
0.0
  0
LINE
  5
186
100
AcDbEntity
  8
1
  6
CONTINUOUS
100
AcDbLine
 10
188.848141
 20
54.993757
 30
0.0
 11
188.996141
 21
54.993757
 31
0.0
  0
LINE
  5
187
100
AcDbEntity
  8
1
  6
CONTINUOUS
100
AcDbLine
 10
188.207141
 20
54.963757
 30
0.0
 11
188.356141
 21
54.963757
 31
0.0
  0
LINE
  5
188
100
AcDbEntity
  8
1
  6
CONTINUOUS
100
AcDbLine
 10
188.848141
 20
54.963757
 30
0.0
 11
188.996141
 21
54.963757
 31
0.0
  0
LINE
  5
189
100
AcDbEntity
  8
1
  6
CONTINUOUS
100
AcDbLine
 10
188.207141
 20
54.933757
 30
0.0
 11
188.356141
 21
54.933757
 31
0.0
  0
LINE
  5
18A
100
AcDbEntity
  8
1
  6
CONTINUOUS
100
AcDbLine
 10
188.848141
 20
54.933757
 30
0.0
 11
188.996141
 21
54.933757
 31
0.0
  0
LINE
  5
18B
100
AcDbEntity
  8
1
  6
CONTINUOUS
100
AcDbLine
 10
188.207141
 20
54.903757
 30
0.0
 11
188.356141
 21
54.903757
 31
0.0
  0
LINE
  5
18C
100
AcDbEntity
  8
1
  6
CONTINUOUS
100
AcDbLine
 10
189.122141
 20
55.140757
 30
0.0
 11
189.280141
 21
55.140757
 31
0.0
  0
LINE
  5
18D
100
AcDbEntity
  8
1
  6
CONTINUOUS
100
AcDbLine
 10
189.122141
 20
54.434757
 30
0.0
 11
189.271141
 21
54.434757
 31
0.0
  0
LINE
  5
18E
100
AcDbEntity
  8
1
  6
CONTINUOUS
100
AcDbLine
 10
189.122141
 20
54.404757
 30
0.0
 11
189.271141
 21
54.404757
 31
0.0
  0
LINE
  5
18F
100
AcDbEntity
  8
1
  6
CONTINUOUS
100
AcDbLine
 10
189.122141
 20
54.374757
 30
0.0
 11
189.271141
 21
54.374757
 31
0.0
  0
LINE
  5
190
100
AcDbEntity
  8
1
  6
CONTINUOUS
100
AcDbLine
 10
189.122141
 20
54.345757
 30
0.0
 11
189.271141
 21
54.345757
 31
0.0
  0
LINE
  5
191
100
AcDbEntity
  8
1
  6
CONTINUOUS
100
AcDbLine
 10
189.122141
 20
54.315757
 30
0.0
 11
189.271141
 21
54.315757
 31
0.0
  0
LINE
  5
192
100
AcDbEntity
  8
1
  6
CONTINUOUS
100
AcDbLine
 10
189.122141
 20
54.284757
 30
0.0
 11
189.271141
 21
54.284757
 31
0.0
  0
LINE
  5
193
100
AcDbEntity
  8
1
  6
CONTINUOUS
100
AcDbLine
 10
189.686141
 20
54.315757
 30
0.0
 11
189.688141
 21
54.315757
 31
0.0
  0
ARC
  5
194
100
AcDbEntity
  8
1
  6
CONTINUOUS
100
AcDbCircle
 10
188.594141
 20
54.486757
 30
0.0
 40
0.239
100
AcDbArc
 50
180.0
 51
271.791
  0
ARC
  5
195
100
AcDbEntity
  8
1
  6
CONTINUOUS
100
AcDbCircle
 10
188.609141
 20
54.486757
 30
0.0
 40
0.239
100
AcDbArc
 50
268.209
 51
0.0
  0
ARC
  5
196
100
AcDbEntity
  8
1
  6
CONTINUOUS
100
AcDbCircle
 10
189.554141
 20
54.858757
 30
0.0
 40
0.135
100
AcDbArc
 50
270.0
 51
90.0
  0
ARC
  5
197
100
AcDbEntity
  8
1
  6
CONTINUOUS
100
AcDbCircle
 10
189.554141
 20
54.858757
 30
0.0
 40
0.284
100
AcDbArc
 50
341.791
 51
90.0
  0
ARC
  5
198
100
AcDbEntity
  8
1
  6
CONTINUOUS
100
AcDbCircle
 10
189.584141
 20
54.420757
 30
0.0
 40
0.299
100
AcDbArc
 50
268.19
 51
21.068
  0
ARC
  5
199
100
AcDbEntity
  8
1
  6
CONTINUOUS
100
AcDbCircle
 10
189.584141
 20
54.420757
 30
0.0
 40
0.15
100
AcDbArc
 50
267.441
 51
315.493
  0
ARC
  5
19A
100
AcDbEntity
  8
1
  6
CONTINUOUS
100
AcDbCircle
 10
190.655141
 20
54.747757
 30
0.0
 40
0.411
100
AcDbArc
 50
11.452
 51
84.501
  0
ARC
  5
19B
100
AcDbEntity
  8
1
  6
CONTINUOUS
100
AcDbCircle
 10
190.690141
 20
54.764757
 30
0.0
 40
0.224
100
AcDbArc
 50
16.94
 51
90.0
  0
LINE
  5
19C
100
AcDbEntity
  8
1
  6
CONTINUOUS
100
AcDbLine
 10
191.057141
 20
54.828757
 30
0.0
 11
190.904141
 21
54.828757
 31
0.0
  0
ARC
  5
19D
100
AcDbEntity
  8
1
  6
CONTINUOUS
100
AcDbCircle
 10
190.712141
 20
54.738757
 30
0.0
 40
0.419
100
AcDbArc
 50
92.495
 51
158.643
  0
ARC
  5
19E
100
AcDbEntity
  8
1
  6
CONTINUOUS
100
AcDbCircle
 10
190.540141
 20
54.818757
 30
0.0
 40
0.224
100
AcDbArc
 50
158.643
 51
235.644
  0
ARC
  5
19F
100
AcDbEntity
  8
1
  6
CONTINUOUS
100
AcDbCircle
 10
190.579141
 20
54.845757
 30
0.0
 40
0.09
100
AcDbArc
 50
166.751
 51
170.874
  0
LINE
  5
1A0
100
AcDbEntity
  8
1
  6
CONTINUOUS
100
AcDbLine
 10
190.951141
 20
54.608757
 30
0.0
 11
190.547141
 21
54.752757
 31
0.0
  0
ARC
  5
1A1
100
AcDbEntity
  8
1
  6
CONTINUOUS
100
AcDbCircle
 10
190.720141
 20
54.531757
 30
0.0
 40
0.419
100
AcDbArc
 50
268.061
 51
302.351
  0
ARC
  5
1A2
100
AcDbEntity
  8
1
  6
CONTINUOUS
100
AcDbCircle
 10
190.691141
 20
54.531757
 30
0.0
 40
0.419
100
AcDbArc
 50
194.435
 51
271.939
  0
LINE
  5
1A3
100
AcDbEntity
  8
1
  6
CONTINUOUS
100
AcDbLine
 10
190.286141
 20
54.426757
 30
0.0
 11
190.445141
 21
54.426757
 31
0.0
  0
ARC
  5
1A4
100
AcDbEntity
  8
1
  6
CONTINUOUS
100
AcDbCircle
 10
190.661141
 20
54.486757
 30
0.0
 40
0.224
100
AcDbArc
 50
195.387
 51
277.46
  0
ARC
  5
1A5
100
AcDbEntity
  8
1
  6
CONTINUOUS
100
AcDbCircle
 10
190.720141
 20
54.486757
 30
0.0
 40
0.224
100
AcDbArc
 50
262.54
 51
316.552
  0
ARC
  5
1A6
100
AcDbEntity
  8
1
  6
CONTINUOUS
100
AcDbCircle
 10
190.816141
 20
54.395757
 30
0.0
 40
0.09
100
AcDbArc
 50
316.552
 51
71.928
  0
LINE
  5
1A7
100
AcDbEntity
  8
1
  6
CONTINUOUS
100
AcDbLine
 10
190.844141
 20
54.479757
 30
0.0
 11
190.414141
 21
54.633757
 31
0.0
  0
ARC
  5
1A8
100
AcDbEntity
  8
1
  6
CONTINUOUS
100
AcDbCircle
 10
190.690141
 20
54.764757
 30
0.0
 40
0.224
100
AcDbArc
 50
90.0
 51
147.404
  0
LINE
  5
1A9
100
AcDbEntity
  8
1
  6
CONTINUOUS
100
AcDbLine
 10
185.600141
 20
54.122757
 30
0.0
 11
185.681141
 21
54.122757
 31
0.0
  0
LINE
  5
1AA
100
AcDbEntity
  8
1
  6
CONTINUOUS
100
AcDbLine
 10
185.681141
 20
54.357757
 30
0.0
 11
185.954141
 21
55.140757
 31
0.0
  0
LINE
  5
1AB
100
AcDbEntity
  8
1
  6
CONTINUOUS
100
AcDbLine
 10
186.181141
 20
55.140757
 30
0.0
 11
185.954141
 21
55.140757
 31
0.0
  0
LINE
  5
1AC
100
AcDbEntity
  8
1
  6
CONTINUOUS
100
AcDbLine
 10
186.181141
 20
54.122757
 30
0.0
 11
186.181141
 21
55.140757
 31
0.0
  0
LINE
  5
1AD
100
AcDbEntity
  8
1
  6
CONTINUOUS
100
AcDbLine
 10
186.032141
 20
54.122757
 30
0.0
 11
186.032141
 21
54.891757
 31
0.0
  0
LINE
  5
1AE
100
AcDbEntity
  8
1
  6
CONTINUOUS
100
AcDbLine
 10
186.181141
 20
54.122757
 30
0.0
 11
186.032141
 21
54.122757
 31
0.0
  0
LINE
  5
1AF
100
AcDbEntity
  8
1
  6
CONTINUOUS
100
AcDbLine
 10
185.764141
 20
54.122757
 30
0.0
 11
185.681141
 21
54.122757
 31
0.0
  0
LINE
  5
1B0
100
AcDbEntity
  8
1
  6
CONTINUOUS
100
AcDbLine
 10
185.182141
 20
54.152757
 30
0.0
 11
185.332141
 21
54.150757
 31
0.0
  0
LINE
  5
1B1
100
AcDbEntity
  8
1
  6
CONTINUOUS
100
AcDbLine
 10
186.181141
 20
54.152757
 30
0.0
 11
186.032141
 21
54.150757
 31
0.0
  0
LINE
  5
1B2
100
AcDbEntity
  8
1
  6
CONTINUOUS
100
AcDbLine
 10
186.307141
 20
54.152757
 30
0.0
 11
186.457141
 21
54.152757
 31
0.0
  0
LINE
  5
1B3
100
AcDbEntity
  8
1
  6
CONTINUOUS
100
AcDbLine
 10
186.851141
 20
54.152757
 30
0.0
 11
187.001141
 21
54.152757
 31
0.0
  0
LINE
  5
1B4
100
AcDbEntity
  8
1
  6
CONTINUOUS
100
AcDbLine
 10
185.182141
 20
54.180757
 30
0.0
 11
185.332141
 21
54.180757
 31
0.0
  0
LINE
  5
1B5
100
AcDbEntity
  8
1
  6
CONTINUOUS
100
AcDbLine
 10
186.181141
 20
54.180757
 30
0.0
 11
186.032141
 21
54.180757
 31
0.0
  0
LINE
  5
1B6
100
AcDbEntity
  8
1
  6
CONTINUOUS
100
AcDbLine
 10
186.307141
 20
54.182757
 30
0.0
 11
186.457141
 21
54.180757
 31
0.0
  0
LINE
  5
1B7
100
AcDbEntity
  8
1
  6
CONTINUOUS
100
AcDbLine
 10
186.851141
 20
54.182757
 30
0.0
 11
187.001141
 21
54.180757
 31
0.0
  0
LINE
  5
1B8
100
AcDbEntity
  8
1
  6
CONTINUOUS
100
AcDbLine
 10
185.182141
 20
54.210757
 30
0.0
 11
185.332141
 21
54.210757
 31
0.0
  0
LINE
  5
1B9
100
AcDbEntity
  8
1
  6
CONTINUOUS
100
AcDbLine
 10
186.181141
 20
54.210757
 30
0.0
 11
186.032141
 21
54.210757
 31
0.0
  0
LINE
  5
1BA
100
AcDbEntity
  8
1
  6
CONTINUOUS
100
AcDbLine
 10
186.307141
 20
54.210757
 30
0.0
 11
186.457141
 21
54.210757
 31
0.0
  0
LINE
  5
1BB
100
AcDbEntity
  8
1
  6
CONTINUOUS
100
AcDbLine
 10
186.851141
 20
54.210757
 30
0.0
 11
187.001141
 21
54.210757
 31
0.0
  0
LINE
  5
1BC
100
AcDbEntity
  8
1
  6
CONTINUOUS
100
AcDbLine
 10
185.182141
 20
54.242757
 30
0.0
 11
185.332141
 21
54.240757
 31
0.0
  0
LINE
  5
1BD
100
AcDbEntity
  8
1
  6
CONTINUOUS
100
AcDbLine
 10
186.181141
 20
54.242757
 30
0.0
 11
186.032141
 21
54.240757
 31
0.0
  0
LINE
  5
1BE
100
AcDbEntity
  8
1
  6
CONTINUOUS
100
AcDbLine
 10
186.307141
 20
54.242757
 30
0.0
 11
186.457141
 21
54.242757
 31
0.0
  0
LINE
  5
1BF
100
AcDbEntity
  8
1
  6
CONTINUOUS
100
AcDbLine
 10
186.851141
 20
54.242757
 30
0.0
 11
187.001141
 21
54.242757
 31
0.0
  0
LINE
  5
1C0
100
AcDbEntity
  8
1
  6
CONTINUOUS
100
AcDbLine
 10
185.182141
 20
54.270757
 30
0.0
 11
185.332141
 21
54.270757
 31
0.0
  0
LINE
  5
1C1
100
AcDbEntity
  8
1
  6
CONTINUOUS
100
AcDbLine
 10
186.181141
 20
54.270757
 30
0.0
 11
186.032141
 21
54.270757
 31
0.0
  0
LINE
  5
1C2
100
AcDbEntity
  8
1
  6
CONTINUOUS
100
AcDbLine
 10
186.307141
 20
54.270757
 30
0.0
 11
186.457141
 21
54.270757
 31
0.0
  0
LINE
  5
1C3
100
AcDbEntity
  8
1
  6
CONTINUOUS
100
AcDbLine
 10
186.851141
 20
54.270757
 30
0.0
 11
187.001141
 21
54.270757
 31
0.0
  0
LINE
  5
1C4
100
AcDbEntity
  8
1
  6
CONTINUOUS
100
AcDbLine
 10
185.182141
 20
54.300757
 30
0.0
 11
185.332141
 21
54.300757
 31
0.0
  0
LINE
  5
1C5
100
AcDbEntity
  8
1
  6
CONTINUOUS
100
AcDbLine
 10
186.181141
 20
54.300757
 30
0.0
 11
186.032141
 21
54.300757
 31
0.0
  0
LINE
  5
1C6
100
AcDbEntity
  8
1
  6
CONTINUOUS
100
AcDbLine
 10
186.307141
 20
54.300757
 30
0.0
 11
186.457141
 21
54.300757
 31
0.0
  0
LINE
  5
1C7
100
AcDbEntity
  8
1
  6
CONTINUOUS
100
AcDbLine
 10
186.851141
 20
54.300757
 30
0.0
 11
187.001141
 21
54.300757
 31
0.0
  0
LINE
  5
1C8
100
AcDbEntity
  8
1
  6
CONTINUOUS
100
AcDbLine
 10
185.182141
 20
54.330757
 30
0.0
 11
185.332141
 21
54.329757
 31
0.0
  0
LINE
  5
1C9
100
AcDbEntity
  8
1
  6
CONTINUOUS
100
AcDbLine
 10
186.181141
 20
54.330757
 30
0.0
 11
186.032141
 21
54.329757
 31
0.0
  0
LINE
  5
1CA
100
AcDbEntity
  8
1
  6
CONTINUOUS
100
AcDbLine
 10
186.307141
 20
54.330757
 30
0.0
 11
186.457141
 21
54.330757
 31
0.0
  0
LINE
  5
1CB
100
AcDbEntity
  8
1
  6
CONTINUOUS
100
AcDbLine
 10
186.851141
 20
54.330757
 30
0.0
 11
187.001141
 21
54.330757
 31
0.0
  0
LINE
  5
1CC
100
AcDbEntity
  8
1
  6
CONTINUOUS
100
AcDbLine
 10
185.182141
 20
54.360757
 30
0.0
 11
185.332141
 21
54.359757
 31
0.0
  0
LINE
  5
1CD
100
AcDbEntity
  8
1
  6
CONTINUOUS
100
AcDbLine
 10
186.181141
 20
54.360757
 30
0.0
 11
186.032141
 21
54.359757
 31
0.0
  0
LINE
  5
1CE
100
AcDbEntity
  8
1
  6
CONTINUOUS
100
AcDbLine
 10
186.307141
 20
54.360757
 30
0.0
 11
186.457141
 21
54.360757
 31
0.0
  0
LINE
  5
1CF
100
AcDbEntity
  8
1
  6
CONTINUOUS
100
AcDbLine
 10
186.851141
 20
54.360757
 30
0.0
 11
187.001141
 21
54.360757
 31
0.0
  0
LINE
  5
1D0
100
AcDbEntity
  8
1
  6
CONTINUOUS
100
AcDbLine
 10
185.182141
 20
54.389757
 30
0.0
 11
185.332141
 21
54.389757
 31
0.0
  0
LINE
  5
1D1
100
AcDbEntity
  8
1
  6
CONTINUOUS
100
AcDbLine
 10
186.181141
 20
54.389757
 30
0.0
 11
186.032141
 21
54.389757
 31
0.0
  0
LINE
  5
1D2
100
AcDbEntity
  8
1
  6
CONTINUOUS
100
AcDbLine
 10
186.307141
 20
54.390757
 30
0.0
 11
186.457141
 21
54.389757
 31
0.0
  0
LINE
  5
1D3
100
AcDbEntity
  8
1
  6
CONTINUOUS
100
AcDbLine
 10
186.851141
 20
54.390757
 30
0.0
 11
187.001141
 21
54.389757
 31
0.0
  0
LINE
  5
1D4
100
AcDbEntity
  8
1
  6
CONTINUOUS
100
AcDbLine
 10
185.182141
 20
54.420757
 30
0.0
 11
185.332141
 21
54.419757
 31
0.0
  0
LINE
  5
1D5
100
AcDbEntity
  8
1
  6
CONTINUOUS
100
AcDbLine
 10
186.181141
 20
54.420757
 30
0.0
 11
186.032141
 21
54.419757
 31
0.0
  0
LINE
  5
1D6
100
AcDbEntity
  8
1
  6
CONTINUOUS
100
AcDbLine
 10
186.307141
 20
54.420757
 30
0.0
 11
186.457141
 21
54.420757
 31
0.0
  0
LINE
  5
1D7
100
AcDbEntity
  8
1
  6
CONTINUOUS
100
AcDbLine
 10
186.851141
 20
54.420757
 30
0.0
 11
187.001141
 21
54.420757
 31
0.0
  0
LINE
  5
1D8
100
AcDbEntity
  8
1
  6
CONTINUOUS
100
AcDbLine
 10
185.182141
 20
54.450757
 30
0.0
 11
185.332141
 21
54.449757
 31
0.0
  0
LINE
  5
1D9
100
AcDbEntity
  8
1
  6
CONTINUOUS
100
AcDbLine
 10
186.181141
 20
54.450757
 30
0.0
 11
186.032141
 21
54.449757
 31
0.0
  0
LINE
  5
1DA
100
AcDbEntity
  8
1
  6
CONTINUOUS
100
AcDbLine
 10
186.307141
 20
54.450757
 30
0.0
 11
186.457141
 21
54.450757
 31
0.0
  0
LINE
  5
1DB
100
AcDbEntity
  8
1
  6
CONTINUOUS
100
AcDbLine
 10
186.851141
 20
54.450757
 30
0.0
 11
187.001141
 21
54.450757
 31
0.0
  0
LINE
  5
1DC
100
AcDbEntity
  8
1
  6
CONTINUOUS
100
AcDbLine
 10
185.182141
 20
54.479757
 30
0.0
 11
185.332141
 21
54.479757
 31
0.0
  0
LINE
  5
1DD
100
AcDbEntity
  8
1
  6
CONTINUOUS
100
AcDbLine
 10
186.181141
 20
54.479757
 30
0.0
 11
186.032141
 21
54.479757
 31
0.0
  0
LINE
  5
1DE
100
AcDbEntity
  8
1
  6
CONTINUOUS
100
AcDbLine
 10
186.307141
 20
54.480757
 30
0.0
 11
186.457141
 21
54.479757
 31
0.0
  0
LINE
  5
1DF
100
AcDbEntity
  8
1
  6
CONTINUOUS
100
AcDbLine
 10
186.851141
 20
54.480757
 30
0.0
 11
187.001141
 21
54.479757
 31
0.0
  0
LINE
  5
1E0
100
AcDbEntity
  8
1
  6
CONTINUOUS
100
AcDbLine
 10
185.182141
 20
54.509757
 30
0.0
 11
185.332141
 21
54.509757
 31
0.0
  0
LINE
  5
1E1
100
AcDbEntity
  8
1
  6
CONTINUOUS
100
AcDbLine
 10
186.181141
 20
54.509757
 30
0.0
 11
186.032141
 21
54.509757
 31
0.0
  0
LINE
  5
1E2
100
AcDbEntity
  8
1
  6
CONTINUOUS
100
AcDbLine
 10
186.307141
 20
54.509757
 30
0.0
 11
186.457141
 21
54.509757
 31
0.0
  0
LINE
  5
1E3
100
AcDbEntity
  8
1
  6
CONTINUOUS
100
AcDbLine
 10
186.851141
 20
54.509757
 30
0.0
 11
187.001141
 21
54.509757
 31
0.0
  0
LINE
  5
1E4
100
AcDbEntity
  8
1
  6
CONTINUOUS
100
AcDbLine
 10
185.182141
 20
54.539757
 30
0.0
 11
185.332141
 21
54.537757
 31
0.0
  0
LINE
  5
1E5
100
AcDbEntity
  8
1
  6
CONTINUOUS
100
AcDbLine
 10
186.181141
 20
54.539757
 30
0.0
 11
186.032141
 21
54.537757
 31
0.0
  0
LINE
  5
1E6
100
AcDbEntity
  8
1
  6
CONTINUOUS
100
AcDbLine
 10
186.307141
 20
54.539757
 30
0.0
 11
186.457141
 21
54.539757
 31
0.0
  0
LINE
  5
1E7
100
AcDbEntity
  8
1
  6
CONTINUOUS
100
AcDbLine
 10
186.851141
 20
54.539757
 30
0.0
 11
187.001141
 21
54.539757
 31
0.0
  0
LINE
  5
1E8
100
AcDbEntity
  8
1
  6
CONTINUOUS
100
AcDbLine
 10
185.182141
 20
54.567757
 30
0.0
 11
185.332141
 21
54.567757
 31
0.0
  0
LINE
  5
1E9
100
AcDbEntity
  8
1
  6
CONTINUOUS
100
AcDbLine
 10
186.181141
 20
54.567757
 30
0.0
 11
186.032141
 21
54.567757
 31
0.0
  0
LINE
  5
1EA
100
AcDbEntity
  8
1
  6
CONTINUOUS
100
AcDbLine
 10
186.307141
 20
54.569757
 30
0.0
 11
186.457141
 21
54.567757
 31
0.0
  0
LINE
  5
1EB
100
AcDbEntity
  8
1
  6
CONTINUOUS
100
AcDbLine
 10
186.851141
 20
54.569757
 30
0.0
 11
187.001141
 21
54.567757
 31
0.0
  0
LINE
  5
1EC
100
AcDbEntity
  8
1
  6
CONTINUOUS
100
AcDbLine
 10
185.182141
 20
54.597757
 30
0.0
 11
185.332141
 21
54.597757
 31
0.0
  0
LINE
  5
1ED
100
AcDbEntity
  8
1
  6
CONTINUOUS
100
AcDbLine
 10
186.181141
 20
54.597757
 30
0.0
 11
186.032141
 21
54.597757
 31
0.0
  0
LINE
  5
1EE
100
AcDbEntity
  8
1
  6
CONTINUOUS
100
AcDbLine
 10
186.307141
 20
54.597757
 30
0.0
 11
186.457141
 21
54.597757
 31
0.0
  0
LINE
  5
1EF
100
AcDbEntity
  8
1
  6
CONTINUOUS
100
AcDbLine
 10
186.851141
 20
54.597757
 30
0.0
 11
187.001141
 21
54.597757
 31
0.0
  0
LINE
  5
1F0
100
AcDbEntity
  8
1
  6
CONTINUOUS
100
AcDbLine
 10
185.182141
 20
54.627757
 30
0.0
 11
185.332141
 21
54.627757
 31
0.0
  0
LINE
  5
1F1
100
AcDbEntity
  8
1
  6
CONTINUOUS
100
AcDbLine
 10
186.181141
 20
54.627757
 30
0.0
 11
186.032141
 21
54.627757
 31
0.0
  0
LINE
  5
1F2
100
AcDbEntity
  8
1
  6
CONTINUOUS
100
AcDbLine
 10
186.307141
 20
54.627757
 30
0.0
 11
186.457141
 21
54.627757
 31
0.0
  0
LINE
  5
1F3
100
AcDbEntity
  8
1
  6
CONTINUOUS
100
AcDbLine
 10
186.851141
 20
54.627757
 30
0.0
 11
187.001141
 21
54.627757
 31
0.0
  0
LINE
  5
1F4
100
AcDbEntity
  8
1
  6
CONTINUOUS
100
AcDbLine
 10
185.182141
 20
54.657757
 30
0.0
 11
185.332141
 21
54.657757
 31
0.0
  0
LINE
  5
1F5
100
AcDbEntity
  8
1
  6
CONTINUOUS
100
AcDbLine
 10
186.181141
 20
54.657757
 30
0.0
 11
186.032141
 21
54.657757
 31
0.0
  0
LINE
  5
1F6
100
AcDbEntity
  8
1
  6
CONTINUOUS
100
AcDbLine
 10
186.307141
 20
54.657757
 30
0.0
 11
186.457141
 21
54.657757
 31
0.0
  0
LINE
  5
1F7
100
AcDbEntity
  8
1
  6
CONTINUOUS
100
AcDbLine
 10
186.851141
 20
54.657757
 30
0.0
 11
187.001141
 21
54.657757
 31
0.0
  0
LINE
  5
1F8
100
AcDbEntity
  8
1
  6
CONTINUOUS
100
AcDbLine
 10
185.182141
 20
54.687757
 30
0.0
 11
185.332141
 21
54.687757
 31
0.0
  0
LINE
  5
1F9
100
AcDbEntity
  8
1
  6
CONTINUOUS
100
AcDbLine
 10
186.181141
 20
54.687757
 30
0.0
 11
186.032141
 21
54.687757
 31
0.0
  0
LINE
  5
1FA
100
AcDbEntity
  8
1
  6
CONTINUOUS
100
AcDbLine
 10
186.307141
 20
54.687757
 30
0.0
 11
186.457141
 21
54.687757
 31
0.0
  0
LINE
  5
1FB
100
AcDbEntity
  8
1
  6
CONTINUOUS
100
AcDbLine
 10
186.851141
 20
54.687757
 30
0.0
 11
187.001141
 21
54.687757
 31
0.0
  0
LINE
  5
1FC
100
AcDbEntity
  8
1
  6
CONTINUOUS
100
AcDbLine
 10
185.182141
 20
54.717757
 30
0.0
 11
185.332141
 21
54.716757
 31
0.0
  0
LINE
  5
1FD
100
AcDbEntity
  8
1
  6
CONTINUOUS
100
AcDbLine
 10
186.181141
 20
54.717757
 30
0.0
 11
186.032141
 21
54.716757
 31
0.0
  0
LINE
  5
1FE
100
AcDbEntity
  8
1
  6
CONTINUOUS
100
AcDbLine
 10
186.307141
 20
54.717757
 30
0.0
 11
186.457141
 21
54.717757
 31
0.0
  0
LINE
  5
1FF
100
AcDbEntity
  8
1
  6
CONTINUOUS
100
AcDbLine
 10
186.851141
 20
54.717757
 30
0.0
 11
187.001141
 21
54.717757
 31
0.0
  0
LINE
  5
200
100
AcDbEntity
  8
1
  6
CONTINUOUS
100
AcDbLine
 10
185.182141
 20
54.746757
 30
0.0
 11
185.332141
 21
54.746757
 31
0.0
  0
LINE
  5
201
100
AcDbEntity
  8
1
  6
CONTINUOUS
100
AcDbLine
 10
186.181141
 20
54.746757
 30
0.0
 11
186.032141
 21
54.746757
 31
0.0
  0
LINE
  5
202
100
AcDbEntity
  8
1
  6
CONTINUOUS
100
AcDbLine
 10
186.307141
 20
54.747757
 30
0.0
 11
186.457141
 21
54.746757
 31
0.0
  0
LINE
  5
203
100
AcDbEntity
  8
1
  6
CONTINUOUS
100
AcDbLine
 10
186.851141
 20
54.747757
 30
0.0
 11
187.001141
 21
54.746757
 31
0.0
  0
LINE
  5
204
100
AcDbEntity
  8
1
  6
CONTINUOUS
100
AcDbLine
 10
185.182141
 20
54.777757
 30
0.0
 11
185.332141
 21
54.777757
 31
0.0
  0
LINE
  5
205
100
AcDbEntity
  8
1
  6
CONTINUOUS
100
AcDbLine
 10
186.181141
 20
54.777757
 30
0.0
 11
186.032141
 21
54.777757
 31
0.0
  0
LINE
  5
206
100
AcDbEntity
  8
1
  6
CONTINUOUS
100
AcDbLine
 10
186.307141
 20
54.777757
 30
0.0
 11
186.457141
 21
54.777757
 31
0.0
  0
LINE
  5
207
100
AcDbEntity
  8
1
  6
CONTINUOUS
100
AcDbLine
 10
186.851141
 20
54.777757
 30
0.0
 11
187.001141
 21
54.777757
 31
0.0
  0
LINE
  5
208
100
AcDbEntity
  8
1
  6
CONTINUOUS
100
AcDbLine
 10
185.182141
 20
54.807757
 30
0.0
 11
185.332141
 21
54.806757
 31
0.0
  0
LINE
  5
209
100
AcDbEntity
  8
1
  6
CONTINUOUS
100
AcDbLine
 10
186.181141
 20
54.807757
 30
0.0
 11
186.032141
 21
54.806757
 31
0.0
  0
LINE
  5
20A
100
AcDbEntity
  8
1
  6
CONTINUOUS
100
AcDbLine
 10
186.307141
 20
54.807757
 30
0.0
 11
186.457141
 21
54.807757
 31
0.0
  0
LINE
  5
20B
100
AcDbEntity
  8
1
  6
CONTINUOUS
100
AcDbLine
 10
186.851141
 20
54.807757
 30
0.0
 11
187.001141
 21
54.807757
 31
0.0
  0
LINE
  5
20C
100
AcDbEntity
  8
1
  6
CONTINUOUS
100
AcDbLine
 10
185.182141
 20
54.836757
 30
0.0
 11
185.332141
 21
54.836757
 31
0.0
  0
LINE
  5
20D
100
AcDbEntity
  8
1
  6
CONTINUOUS
100
AcDbLine
 10
186.181141
 20
54.836757
 30
0.0
 11
186.032141
 21
54.836757
 31
0.0
  0
LINE
  5
20E
100
AcDbEntity
  8
1
  6
CONTINUOUS
100
AcDbLine
 10
186.307141
 20
54.837757
 30
0.0
 11
186.457141
 21
54.836757
 31
0.0
  0
LINE
  5
20F
100
AcDbEntity
  8
1
  6
CONTINUOUS
100
AcDbLine
 10
186.851141
 20
54.837757
 30
0.0
 11
187.001141
 21
54.836757
 31
0.0
  0
LINE
  5
210
100
AcDbEntity
  8
1
  6
CONTINUOUS
100
AcDbLine
 10
185.182141
 20
54.866757
 30
0.0
 11
185.332141
 21
54.866757
 31
0.0
  0
LINE
  5
211
100
AcDbEntity
  8
1
  6
CONTINUOUS
100
AcDbLine
 10
186.181141
 20
54.866757
 30
0.0
 11
186.032141
 21
54.866757
 31
0.0
  0
LINE
  5
212
100
AcDbEntity
  8
1
  6
CONTINUOUS
100
AcDbLine
 10
186.307141
 20
54.866757
 30
0.0
 11
186.457141
 21
54.866757
 31
0.0
  0
LINE
  5
213
100
AcDbEntity
  8
1
  6
CONTINUOUS
100
AcDbLine
 10
186.851141
 20
54.866757
 30
0.0
 11
187.001141
 21
54.866757
 31
0.0
  0
LINE
  5
214
100
AcDbEntity
  8
1
  6
CONTINUOUS
100
AcDbLine
 10
185.182141
 20
54.896757
 30
0.0
 11
185.332141
 21
54.896757
 31
0.0
  0
LINE
  5
215
100
AcDbEntity
  8
1
  6
CONTINUOUS
100
AcDbLine
 10
186.181141
 20
54.896757
 30
0.0
 11
186.032141
 21
54.896757
 31
0.0
  0
LINE
  5
216
100
AcDbEntity
  8
1
  6
CONTINUOUS
100
AcDbLine
 10
186.307141
 20
54.896757
 30
0.0
 11
186.457141
 21
54.896757
 31
0.0
  0
LINE
  5
217
100
AcDbEntity
  8
1
  6
CONTINUOUS
100
AcDbLine
 10
186.851141
 20
54.896757
 30
0.0
 11
187.001141
 21
54.896757
 31
0.0
  0
LINE
  5
218
100
AcDbEntity
  8
1
  6
CONTINUOUS
100
AcDbLine
 10
185.182141
 20
54.926757
 30
0.0
 11
185.332141
 21
54.926757
 31
0.0
  0
LINE
  5
219
100
AcDbEntity
  8
1
  6
CONTINUOUS
100
AcDbLine
 10
186.181141
 20
54.926757
 30
0.0
 11
186.032141
 21
54.926757
 31
0.0
  0
LINE
  5
21A
100
AcDbEntity
  8
1
  6
CONTINUOUS
100
AcDbLine
 10
186.307141
 20
54.926757
 30
0.0
 11
186.457141
 21
54.926757
 31
0.0
  0
LINE
  5
21B
100
AcDbEntity
  8
1
  6
CONTINUOUS
100
AcDbLine
 10
186.851141
 20
54.926757
 30
0.0
 11
187.001141
 21
54.926757
 31
0.0
  0
LINE
  5
21C
100
AcDbEntity
  8
1
  6
CONTINUOUS
100
AcDbLine
 10
185.182141
 20
54.956757
 30
0.0
 11
185.332141
 21
54.956757
 31
0.0
  0
LINE
  5
21D
100
AcDbEntity
  8
1
  6
CONTINUOUS
100
AcDbLine
 10
186.181141
 20
54.956757
 30
0.0
 11
186.032141
 21
54.956757
 31
0.0
  0
LINE
  5
21E
100
AcDbEntity
  8
1
  6
CONTINUOUS
100
AcDbLine
 10
186.307141
 20
54.956757
 30
0.0
 11
186.457141
 21
54.956757
 31
0.0
  0
LINE
  5
21F
100
AcDbEntity
  8
1
  6
CONTINUOUS
100
AcDbLine
 10
186.851141
 20
54.956757
 30
0.0
 11
187.001141
 21
54.956757
 31
0.0
  0
LINE
  5
220
100
AcDbEntity
  8
1
  6
CONTINUOUS
100
AcDbLine
 10
185.182141
 20
54.986757
 30
0.0
 11
185.332141
 21
54.984757
 31
0.0
  0
LINE
  5
221
100
AcDbEntity
  8
1
  6
CONTINUOUS
100
AcDbLine
 10
186.181141
 20
54.986757
 30
0.0
 11
186.032141
 21
54.984757
 31
0.0
  0
LINE
  5
222
100
AcDbEntity
  8
1
  6
CONTINUOUS
100
AcDbLine
 10
186.307141
 20
54.986757
 30
0.0
 11
186.457141
 21
54.986757
 31
0.0
  0
LINE
  5
223
100
AcDbEntity
  8
1
  6
CONTINUOUS
100
AcDbLine
 10
186.851141
 20
54.986757
 30
0.0
 11
187.001141
 21
54.986757
 31
0.0
  0
LINE
  5
224
100
AcDbEntity
  8
1
  6
CONTINUOUS
100
AcDbLine
 10
185.182141
 20
55.014757
 30
0.0
 11
185.332141
 21
55.014757
 31
0.0
  0
LINE
  5
225
100
AcDbEntity
  8
1
  6
CONTINUOUS
100
AcDbLine
 10
186.181141
 20
55.014757
 30
0.0
 11
186.032141
 21
55.014757
 31
0.0
  0
LINE
  5
226
100
AcDbEntity
  8
1
  6
CONTINUOUS
100
AcDbLine
 10
186.307141
 20
55.016757
 30
0.0
 11
186.457141
 21
55.014757
 31
0.0
  0
LINE
  5
227
100
AcDbEntity
  8
1
  6
CONTINUOUS
100
AcDbLine
 10
185.182141
 20
55.044757
 30
0.0
 11
185.332141
 21
55.044757
 31
0.0
  0
LINE
  5
228
100
AcDbEntity
  8
1
  6
CONTINUOUS
100
AcDbLine
 10
186.181141
 20
55.044757
 30
0.0
 11
186.032141
 21
55.044757
 31
0.0
  0
LINE
  5
229
100
AcDbEntity
  8
1
  6
CONTINUOUS
100
AcDbLine
 10
186.307141
 20
55.044757
 30
0.0
 11
186.457141
 21
55.044757
 31
0.0
  0
LINE
  5
22A
100
AcDbEntity
  8
1
  6
CONTINUOUS
100
AcDbLine
 10
185.182141
 20
55.074757
 30
0.0
 11
185.332141
 21
55.074757
 31
0.0
  0
LINE
  5
22B
100
AcDbEntity
  8
1
  6
CONTINUOUS
100
AcDbLine
 10
186.181141
 20
55.074757
 30
0.0
 11
186.032141
 21
55.074757
 31
0.0
  0
LINE
  5
22C
100
AcDbEntity
  8
1
  6
CONTINUOUS
100
AcDbLine
 10
186.307141
 20
55.074757
 30
0.0
 11
186.457141
 21
55.074757
 31
0.0
  0
LINE
  5
22D
100
AcDbEntity
  8
1
  6
CONTINUOUS
100
AcDbLine
 10
185.182141
 20
55.104757
 30
0.0
 11
185.332141
 21
55.104757
 31
0.0
  0
LINE
  5
22E
100
AcDbEntity
  8
1
  6
CONTINUOUS
100
AcDbLine
 10
186.181141
 20
55.104757
 30
0.0
 11
186.032141
 21
55.104757
 31
0.0
  0
LINE
  5
22F
100
AcDbEntity
  8
1
  6
CONTINUOUS
100
AcDbLine
 10
186.307141
 20
55.106757
 30
0.0
 11
186.457141
 21
55.104757
 31
0.0
  0
LINE
  5
230
100
AcDbEntity
  8
1
  6
CONTINUOUS
100
AcDbLine
 10
185.182141
 20
55.134757
 30
0.0
 11
185.332141
 21
55.134757
 31
0.0
  0
LINE
  5
231
100
AcDbEntity
  8
1
  6
CONTINUOUS
100
AcDbLine
 10
186.181141
 20
55.134757
 30
0.0
 11
186.032141
 21
55.134757
 31
0.0
  0
LINE
  5
232
100
AcDbEntity
  8
1
  6
CONTINUOUS
100
AcDbLine
 10
186.307141
 20
55.134757
 30
0.0
 11
186.457141
 21
55.134757
 31
0.0
  0
LINE
  5
233
100
AcDbEntity
  8
1
  6
CONTINUOUS
100
AcDbLine
 10
185.774141
 20
54.149757
 30
0.0
 11
185.690141
 21
54.149757
 31
0.0
  0
LINE
  5
234
100
AcDbEntity
  8
1
  6
CONTINUOUS
100
AcDbLine
 10
185.609141
 20
54.149757
 30
0.0
 11
185.690141
 21
54.149757
 31
0.0
  0
LINE
  5
235
100
AcDbEntity
  8
1
  6
CONTINUOUS
100
AcDbLine
 10
185.783141
 20
54.177757
 30
0.0
 11
185.702141
 21
54.177757
 31
0.0
  0
LINE
  5
236
100
AcDbEntity
  8
1
  6
CONTINUOUS
100
AcDbLine
 10
185.620141
 20
54.177757
 30
0.0
 11
185.702141
 21
54.177757
 31
0.0
  0
LINE
  5
237
100
AcDbEntity
  8
1
  6
CONTINUOUS
100
AcDbLine
 10
185.792141
 20
54.204757
 30
0.0
 11
185.711141
 21
54.206757
 31
0.0
  0
LINE
  5
238
100
AcDbEntity
  8
1
  6
CONTINUOUS
100
AcDbLine
 10
185.629141
 20
54.204757
 30
0.0
 11
185.711141
 21
54.206757
 31
0.0
  0
LINE
  5
239
100
AcDbEntity
  8
1
  6
CONTINUOUS
100
AcDbLine
 10
185.803141
 20
54.233757
 30
0.0
 11
185.722141
 21
54.234757
 31
0.0
  0
LINE
  5
23A
100
AcDbEntity
  8
1
  6
CONTINUOUS
100
AcDbLine
 10
185.639141
 20
54.233757
 30
0.0
 11
185.722141
 21
54.234757
 31
0.0
  0
LINE
  5
23B
100
AcDbEntity
  8
1
  6
CONTINUOUS
100
AcDbLine
 10
185.812141
 20
54.261757
 30
0.0
 11
185.731141
 21
54.263757
 31
0.0
  0
LINE
  5
23C
100
AcDbEntity
  8
1
  6
CONTINUOUS
100
AcDbLine
 10
185.650141
 20
54.261757
 30
0.0
 11
185.731141
 21
54.263757
 31
0.0
  0
LINE
  5
23D
100
AcDbEntity
  8
1
  6
CONTINUOUS
100
AcDbLine
 10
185.822141
 20
54.290757
 30
0.0
 11
185.741141
 21
54.290757
 31
0.0
  0
LINE
  5
23E
100
AcDbEntity
  8
1
  6
CONTINUOUS
100
AcDbLine
 10
185.659141
 20
54.290757
 30
0.0
 11
185.741141
 21
54.290757
 31
0.0
  0
LINE
  5
23F
100
AcDbEntity
  8
1
  6
CONTINUOUS
100
AcDbLine
 10
185.831141
 20
54.318757
 30
0.0
 11
185.750141
 21
54.318757
 31
0.0
  0
LINE
  5
240
100
AcDbEntity
  8
1
  6
CONTINUOUS
100
AcDbLine
 10
185.668141
 20
54.318757
 30
0.0
 11
185.750141
 21
54.318757
 31
0.0
  0
LINE
  5
241
100
AcDbEntity
  8
1
  6
CONTINUOUS
100
AcDbLine
 10
185.842141
 20
54.345757
 30
0.0
 11
185.761141
 21
54.345757
 31
0.0
  0
LINE
  5
242
100
AcDbEntity
  8
1
  6
CONTINUOUS
100
AcDbLine
 10
185.678141
 20
54.345757
 30
0.0
 11
185.761141
 21
54.345757
 31
0.0
  0
LINE
  5
243
100
AcDbEntity
  8
1
  6
CONTINUOUS
100
AcDbLine
 10
185.852141
 20
54.374757
 30
0.0
 11
185.770141
 21
54.374757
 31
0.0
  0
LINE
  5
244
100
AcDbEntity
  8
1
  6
CONTINUOUS
100
AcDbLine
 10
185.689141
 20
54.374757
 30
0.0
 11
185.770141
 21
54.374757
 31
0.0
  0
LINE
  5
245
100
AcDbEntity
  8
1
  6
CONTINUOUS
100
AcDbLine
 10
185.861141
 20
54.402757
 30
0.0
 11
185.779141
 21
54.402757
 31
0.0
  0
LINE
  5
246
100
AcDbEntity
  8
1
  6
CONTINUOUS
100
AcDbLine
 10
185.698141
 20
54.402757
 30
0.0
 11
185.779141
 21
54.402757
 31
0.0
  0
LINE
  5
247
100
AcDbEntity
  8
1
  6
CONTINUOUS
100
AcDbLine
 10
185.872141
 20
54.431757
 30
0.0
 11
185.791141
 21
54.431757
 31
0.0
  0
LINE
  5
248
100
AcDbEntity
  8
1
  6
CONTINUOUS
100
AcDbLine
 10
185.707141
 20
54.431757
 30
0.0
 11
185.791141
 21
54.431757
 31
0.0
  0
LINE
  5
249
100
AcDbEntity
  8
1
  6
CONTINUOUS
100
AcDbLine
 10
185.881141
 20
54.459757
 30
0.0
 11
185.800141
 21
54.459757
 31
0.0
  0
LINE
  5
24A
100
AcDbEntity
  8
1
  6
CONTINUOUS
100
AcDbLine
 10
185.717141
 20
54.459757
 30
0.0
 11
185.800141
 21
54.459757
 31
0.0
  0
LINE
  5
24B
100
AcDbEntity
  8
1
  6
CONTINUOUS
100
AcDbLine
 10
185.891141
 20
54.486757
 30
0.0
 11
185.809141
 21
54.486757
 31
0.0
  0
LINE
  5
24C
100
AcDbEntity
  8
1
  6
CONTINUOUS
100
AcDbLine
 10
185.726141
 20
54.486757
 30
0.0
 11
185.809141
 21
54.486757
 31
0.0
  0
LINE
  5
24D
100
AcDbEntity
  8
1
  6
CONTINUOUS
100
AcDbLine
 10
185.902141
 20
54.515757
 30
0.0
 11
185.819141
 21
54.515757
 31
0.0
  0
LINE
  5
24E
100
AcDbEntity
  8
1
  6
CONTINUOUS
100
AcDbLine
 10
185.737141
 20
54.515757
 30
0.0
 11
185.819141
 21
54.515757
 31
0.0
  0
LINE
  5
24F
100
AcDbEntity
  8
1
  6
CONTINUOUS
100
AcDbLine
 10
185.911141
 20
54.542757
 30
0.0
 11
185.828141
 21
54.543757
 31
0.0
  0
LINE
  5
250
100
AcDbEntity
  8
1
  6
CONTINUOUS
100
AcDbLine
 10
185.746141
 20
54.542757
 30
0.0
 11
185.828141
 21
54.543757
 31
0.0
  0
LINE
  5
251
100
AcDbEntity
  8
1
  6
CONTINUOUS
100
AcDbLine
 10
185.921141
 20
54.570757
 30
0.0
 11
185.839141
 21
54.572757
 31
0.0
  0
LINE
  5
252
100
AcDbEntity
  8
1
  6
CONTINUOUS
100
AcDbLine
 10
185.756141
 20
54.570757
 30
0.0
 11
185.839141
 21
54.572757
 31
0.0
  0
LINE
  5
253
100
AcDbEntity
  8
1
  6
CONTINUOUS
100
AcDbLine
 10
185.930141
 20
54.599757
 30
0.0
 11
185.848141
 21
54.600757
 31
0.0
  0
LINE
  5
254
100
AcDbEntity
  8
1
  6
CONTINUOUS
100
AcDbLine
 10
185.765141
 20
54.599757
 30
0.0
 11
185.848141
 21
54.600757
 31
0.0
  0
LINE
  5
255
100
AcDbEntity
  8
1
  6
CONTINUOUS
100
AcDbLine
 10
185.941141
 20
54.627757
 30
0.0
 11
185.858141
 21
54.627757
 31
0.0
  0
LINE
  5
256
100
AcDbEntity
  8
1
  6
CONTINUOUS
100
AcDbLine
 10
185.776141
 20
54.627757
 30
0.0
 11
185.858141
 21
54.627757
 31
0.0
  0
LINE
  5
257
100
AcDbEntity
  8
1
  6
CONTINUOUS
100
AcDbLine
 10
185.950141
 20
54.656757
 30
0.0
 11
185.867141
 21
54.656757
 31
0.0
  0
LINE
  5
258
100
AcDbEntity
  8
1
  6
CONTINUOUS
100
AcDbLine
 10
185.786141
 20
54.656757
 30
0.0
 11
185.867141
 21
54.656757
 31
0.0
  0
LINE
  5
259
100
AcDbEntity
  8
1
  6
CONTINUOUS
100
AcDbLine
 10
185.959141
 20
54.683757
 30
0.0
 11
185.878141
 21
54.683757
 31
0.0
  0
LINE
  5
25A
100
AcDbEntity
  8
1
  6
CONTINUOUS
100
AcDbLine
 10
185.795141
 20
54.683757
 30
0.0
 11
185.878141
 21
54.683757
 31
0.0
  0
LINE
  5
25B
100
AcDbEntity
  8
1
  6
CONTINUOUS
100
AcDbLine
 10
185.969141
 20
54.711757
 30
0.0
 11
185.887141
 21
54.711757
 31
0.0
  0
LINE
  5
25C
100
AcDbEntity
  8
1
  6
CONTINUOUS
100
AcDbLine
 10
185.806141
 20
54.711757
 30
0.0
 11
185.887141
 21
54.711757
 31
0.0
  0
LINE
  5
25D
100
AcDbEntity
  8
1
  6
CONTINUOUS
100
AcDbLine
 10
185.978141
 20
54.740757
 30
0.0
 11
185.897141
 21
54.740757
 31
0.0
  0
LINE
  5
25E
100
AcDbEntity
  8
1
  6
CONTINUOUS
100
AcDbLine
 10
185.816141
 20
54.740757
 30
0.0
 11
185.897141
 21
54.740757
 31
0.0
  0
LINE
  5
25F
100
AcDbEntity
  8
1
  6
CONTINUOUS
100
AcDbLine
 10
185.989141
 20
54.768757
 30
0.0
 11
185.908141
 21
54.768757
 31
0.0
  0
LINE
  5
260
100
AcDbEntity
  8
1
  6
CONTINUOUS
100
AcDbLine
 10
185.825141
 20
54.768757
 30
0.0
 11
185.908141
 21
54.768757
 31
0.0
  0
LINE
  5
261
100
AcDbEntity
  8
1
  6
CONTINUOUS
100
AcDbLine
 10
185.998141
 20
54.797757
 30
0.0
 11
185.917141
 21
54.797757
 31
0.0
  0
LINE
  5
262
100
AcDbEntity
  8
1
  6
CONTINUOUS
100
AcDbLine
 10
185.836141
 20
54.797757
 30
0.0
 11
185.917141
 21
54.797757
 31
0.0
  0
LINE
  5
263
100
AcDbEntity
  8
1
  6
CONTINUOUS
100
AcDbLine
 10
186.008141
 20
54.825757
 30
0.0
 11
185.926141
 21
54.825757
 31
0.0
  0
LINE
  5
264
100
AcDbEntity
  8
1
  6
CONTINUOUS
100
AcDbLine
 10
185.845141
 20
54.825757
 30
0.0
 11
185.926141
 21
54.825757
 31
0.0
  0
LINE
  5
265
100
AcDbEntity
  8
1
  6
CONTINUOUS
100
AcDbLine
 10
186.019141
 20
54.854757
 30
0.0
 11
185.936141
 21
54.854757
 31
0.0
  0
LINE
  5
266
100
AcDbEntity
  8
1
  6
CONTINUOUS
100
AcDbLine
 10
185.855141
 20
54.854757
 30
0.0
 11
185.936141
 21
54.854757
 31
0.0
  0
LINE
  5
267
100
AcDbEntity
  8
1
  6
CONTINUOUS
100
AcDbLine
 10
186.028141
 20
54.881757
 30
0.0
 11
185.947141
 21
54.882757
 31
0.0
  0
LINE
  5
268
100
AcDbEntity
  8
1
  6
CONTINUOUS
100
AcDbLine
 10
185.864141
 20
54.881757
 30
0.0
 11
185.947141
 21
54.882757
 31
0.0
  0
LINE
  5
269
100
AcDbEntity
  8
1
  6
CONTINUOUS
100
AcDbLine
 10
186.038141
 20
54.909757
 30
0.0
 11
185.957141
 21
54.909757
 31
0.0
  0
LINE
  5
26A
100
AcDbEntity
  8
1
  6
CONTINUOUS
100
AcDbLine
 10
185.875141
 20
54.909757
 30
0.0
 11
185.957141
 21
54.909757
 31
0.0
  0
LINE
  5
26B
100
AcDbEntity
  8
1
  6
CONTINUOUS
100
AcDbLine
 10
186.047141
 20
54.938757
 30
0.0
 11
185.966141
 21
54.938757
 31
0.0
  0
LINE
  5
26C
100
AcDbEntity
  8
1
  6
CONTINUOUS
100
AcDbLine
 10
185.884141
 20
54.938757
 30
0.0
 11
185.966141
 21
54.938757
 31
0.0
  0
LINE
  5
26D
100
AcDbEntity
  8
1
  6
CONTINUOUS
100
AcDbLine
 10
186.058141
 20
54.965757
 30
0.0
 11
185.977141
 21
54.966757
 31
0.0
  0
LINE
  5
26E
100
AcDbEntity
  8
1
  6
CONTINUOUS
100
AcDbLine
 10
185.893141
 20
54.965757
 30
0.0
 11
185.977141
 21
54.966757
 31
0.0
  0
LINE
  5
26F
100
AcDbEntity
  8
1
  6
CONTINUOUS
100
AcDbLine
 10
186.067141
 20
54.993757
 30
0.0
 11
185.986141
 21
54.993757
 31
0.0
  0
LINE
  5
270
100
AcDbEntity
  8
1
  6
CONTINUOUS
100
AcDbLine
 10
185.903141
 20
54.993757
 30
0.0
 11
185.986141
 21
54.993757
 31
0.0
  0
LINE
  5
271
100
AcDbEntity
  8
1
  6
CONTINUOUS
100
AcDbLine
 10
186.079141
 20
55.022757
 30
0.0
 11
185.995141
 21
55.022757
 31
0.0
  0
LINE
  5
272
100
AcDbEntity
  8
1
  6
CONTINUOUS
100
AcDbLine
 10
185.912141
 20
55.022757
 30
0.0
 11
185.995141
 21
55.022757
 31
0.0
  0
LINE
  5
273
100
AcDbEntity
  8
1
  6
CONTINUOUS
100
AcDbLine
 10
186.088141
 20
55.050757
 30
0.0
 11
186.005141
 21
55.050757
 31
0.0
  0
LINE
  5
274
100
AcDbEntity
  8
1
  6
CONTINUOUS
100
AcDbLine
 10
185.923141
 20
55.050757
 30
0.0
 11
186.005141
 21
55.050757
 31
0.0
  0
LINE
  5
275
100
AcDbEntity
  8
1
  6
CONTINUOUS
100
AcDbLine
 10
186.097141
 20
55.079757
 30
0.0
 11
186.014141
 21
55.079757
 31
0.0
  0
LINE
  5
276
100
AcDbEntity
  8
1
  6
CONTINUOUS
100
AcDbLine
 10
185.933141
 20
55.079757
 30
0.0
 11
186.014141
 21
55.079757
 31
0.0
  0
LINE
  5
277
100
AcDbEntity
  8
1
  6
CONTINUOUS
100
AcDbLine
 10
186.107141
 20
55.106757
 30
0.0
 11
186.025141
 21
55.106757
 31
0.0
  0
LINE
  5
278
100
AcDbEntity
  8
1
  6
CONTINUOUS
100
AcDbLine
 10
185.942141
 20
55.106757
 30
0.0
 11
186.025141
 21
55.106757
 31
0.0
  0
LINE
  5
279
100
AcDbEntity
  8
1
  6
CONTINUOUS
100
AcDbLine
 10
186.116141
 20
55.134757
 30
0.0
 11
186.035141
 21
55.134757
 31
0.0
  0
LINE
  5
27A
100
AcDbEntity
  8
1
  6
CONTINUOUS
100
AcDbLine
 10
185.953141
 20
55.134757
 30
0.0
 11
186.035141
 21
55.134757
 31
0.0
  0
LINE
  5
27B
100
AcDbEntity
  8
1
  6
CONTINUOUS
100
AcDbLine
 10
186.032141
 20
54.891757
 30
0.0
 11
185.764141
 21
54.122757
 31
0.0
  0
LINE
  5
27C
100
AcDbEntity
  8
1
  6
CONTINUOUS
100
AcDbLine
 10
185.590141
 20
54.149757
 30
0.0
 11
185.672141
 21
54.149757
 31
0.0
  0
LINE
  5
27D
100
AcDbEntity
  8
1
  6
CONTINUOUS
100
AcDbLine
 10
185.753141
 20
54.149757
 30
0.0
 11
185.672141
 21
54.149757
 31
0.0
  0
LINE
  5
27E
100
AcDbEntity
  8
1
  6
CONTINUOUS
100
AcDbLine
 10
185.581141
 20
54.177757
 30
0.0
 11
185.662141
 21
54.177757
 31
0.0
  0
LINE
  5
27F
100
AcDbEntity
  8
1
  6
CONTINUOUS
100
AcDbLine
 10
185.744141
 20
54.177757
 30
0.0
 11
185.662141
 21
54.177757
 31
0.0
  0
LINE
  5
280
100
AcDbEntity
  8
1
  6
CONTINUOUS
100
AcDbLine
 10
185.570141
 20
54.204757
 30
0.0
 11
185.651141
 21
54.206757
 31
0.0
  0
LINE
  5
281
100
AcDbEntity
  8
1
  6
CONTINUOUS
100
AcDbLine
 10
185.735141
 20
54.204757
 30
0.0
 11
185.651141
 21
54.206757
 31
0.0
  0
LINE
  5
282
100
AcDbEntity
  8
1
  6
CONTINUOUS
100
AcDbLine
 10
185.561141
 20
54.233757
 30
0.0
 11
185.642141
 21
54.234757
 31
0.0
  0
LINE
  5
283
100
AcDbEntity
  8
1
  6
CONTINUOUS
100
AcDbLine
 10
185.723141
 20
54.233757
 30
0.0
 11
185.642141
 21
54.234757
 31
0.0
  0
LINE
  5
284
100
AcDbEntity
  8
1
  6
CONTINUOUS
100
AcDbLine
 10
185.551141
 20
54.261757
 30
0.0
 11
185.633141
 21
54.263757
 31
0.0
  0
LINE
  5
285
100
AcDbEntity
  8
1
  6
CONTINUOUS
100
AcDbLine
 10
185.714141
 20
54.261757
 30
0.0
 11
185.633141
 21
54.263757
 31
0.0
  0
LINE
  5
286
100
AcDbEntity
  8
1
  6
CONTINUOUS
100
AcDbLine
 10
185.540141
 20
54.290757
 30
0.0
 11
185.623141
 21
54.290757
 31
0.0
  0
LINE
  5
287
100
AcDbEntity
  8
1
  6
CONTINUOUS
100
AcDbLine
 10
185.705141
 20
54.290757
 30
0.0
 11
185.623141
 21
54.290757
 31
0.0
  0
LINE
  5
288
100
AcDbEntity
  8
1
  6
CONTINUOUS
100
AcDbLine
 10
185.531141
 20
54.318757
 30
0.0
 11
185.612141
 21
54.318757
 31
0.0
  0
LINE
  5
289
100
AcDbEntity
  8
1
  6
CONTINUOUS
100
AcDbLine
 10
185.695141
 20
54.318757
 30
0.0
 11
185.612141
 21
54.318757
 31
0.0
  0
LINE
  5
28A
100
AcDbEntity
  8
1
  6
CONTINUOUS
100
AcDbLine
 10
185.522141
 20
54.345757
 30
0.0
 11
185.603141
 21
54.345757
 31
0.0
  0
LINE
  5
28B
100
AcDbEntity
  8
1
  6
CONTINUOUS
100
AcDbLine
 10
185.686141
 20
54.345757
 30
0.0
 11
185.603141
 21
54.345757
 31
0.0
  0
LINE
  5
28C
100
AcDbEntity
  8
1
  6
CONTINUOUS
100
AcDbLine
 10
185.510141
 20
54.374757
 30
0.0
 11
185.594141
 21
54.374757
 31
0.0
  0
LINE
  5
28D
100
AcDbEntity
  8
1
  6
CONTINUOUS
100
AcDbLine
 10
185.675141
 20
54.374757
 30
0.0
 11
185.594141
 21
54.374757
 31
0.0
  0
LINE
  5
28E
100
AcDbEntity
  8
1
  6
CONTINUOUS
100
AcDbLine
 10
185.501141
 20
54.402757
 30
0.0
 11
185.584141
 21
54.402757
 31
0.0
  0
LINE
  5
28F
100
AcDbEntity
  8
1
  6
CONTINUOUS
100
AcDbLine
 10
185.666141
 20
54.402757
 30
0.0
 11
185.584141
 21
54.402757
 31
0.0
  0
LINE
  5
290
100
AcDbEntity
  8
1
  6
CONTINUOUS
100
AcDbLine
 10
185.492141
 20
54.431757
 30
0.0
 11
185.573141
 21
54.431757
 31
0.0
  0
LINE
  5
291
100
AcDbEntity
  8
1
  6
CONTINUOUS
100
AcDbLine
 10
185.656141
 20
54.431757
 30
0.0
 11
185.573141
 21
54.431757
 31
0.0
  0
LINE
  5
292
100
AcDbEntity
  8
1
  6
CONTINUOUS
100
AcDbLine
 10
185.482141
 20
54.459757
 30
0.0
 11
185.564141
 21
54.459757
 31
0.0
  0
LINE
  5
293
100
AcDbEntity
  8
1
  6
CONTINUOUS
100
AcDbLine
 10
185.647141
 20
54.459757
 30
0.0
 11
185.564141
 21
54.459757
 31
0.0
  0
LINE
  5
294
100
AcDbEntity
  8
1
  6
CONTINUOUS
100
AcDbLine
 10
185.473141
 20
54.486757
 30
0.0
 11
185.555141
 21
54.486757
 31
0.0
  0
LINE
  5
295
100
AcDbEntity
  8
1
  6
CONTINUOUS
100
AcDbLine
 10
185.636141
 20
54.486757
 30
0.0
 11
185.555141
 21
54.486757
 31
0.0
  0
LINE
  5
296
100
AcDbEntity
  8
1
  6
CONTINUOUS
100
AcDbLine
 10
185.462141
 20
54.515757
 30
0.0
 11
185.545141
 21
54.515757
 31
0.0
  0
LINE
  5
297
100
AcDbEntity
  8
1
  6
CONTINUOUS
100
AcDbLine
 10
185.626141
 20
54.515757
 30
0.0
 11
185.545141
 21
54.515757
 31
0.0
  0
LINE
  5
298
100
AcDbEntity
  8
1
  6
CONTINUOUS
100
AcDbLine
 10
185.453141
 20
54.543757
 30
0.0
 11
185.536141
 21
54.543757
 31
0.0
  0
LINE
  5
299
100
AcDbEntity
  8
1
  6
CONTINUOUS
100
AcDbLine
 10
185.617141
 20
54.543757
 30
0.0
 11
185.536141
 21
54.543757
 31
0.0
  0
LINE
  5
29A
100
AcDbEntity
  8
1
  6
CONTINUOUS
100
AcDbLine
 10
185.443141
 20
54.570757
 30
0.0
 11
185.525141
 21
54.572757
 31
0.0
  0
LINE
  5
29B
100
AcDbEntity
  8
1
  6
CONTINUOUS
100
AcDbLine
 10
185.608141
 20
54.570757
 30
0.0
 11
185.525141
 21
54.572757
 31
0.0
  0
LINE
  5
29C
100
AcDbEntity
  8
1
  6
CONTINUOUS
100
AcDbLine
 10
185.434141
 20
54.599757
 30
0.0
 11
185.515141
 21
54.600757
 31
0.0
  0
LINE
  5
29D
100
AcDbEntity
  8
1
  6
CONTINUOUS
100
AcDbLine
 10
185.596141
 20
54.599757
 30
0.0
 11
185.515141
 21
54.600757
 31
0.0
  0
LINE
  5
29E
100
AcDbEntity
  8
1
  6
CONTINUOUS
100
AcDbLine
 10
185.423141
 20
54.627757
 30
0.0
 11
185.506141
 21
54.627757
 31
0.0
  0
LINE
  5
29F
100
AcDbEntity
  8
1
  6
CONTINUOUS
100
AcDbLine
 10
185.587141
 20
54.627757
 30
0.0
 11
185.506141
 21
54.627757
 31
0.0
  0
LINE
  5
2A0
100
AcDbEntity
  8
1
  6
CONTINUOUS
100
AcDbLine
 10
185.414141
 20
54.656757
 30
0.0
 11
185.495141
 21
54.656757
 31
0.0
  0
LINE
  5
2A1
100
AcDbEntity
  8
1
  6
CONTINUOUS
100
AcDbLine
 10
185.578141
 20
54.656757
 30
0.0
 11
185.495141
 21
54.656757
 31
0.0
  0
LINE
  5
2A2
100
AcDbEntity
  8
1
  6
CONTINUOUS
100
AcDbLine
 10
185.404141
 20
54.683757
 30
0.0
 11
185.486141
 21
54.683757
 31
0.0
  0
LINE
  5
2A3
100
AcDbEntity
  8
1
  6
CONTINUOUS
100
AcDbLine
 10
185.567141
 20
54.683757
 30
0.0
 11
185.486141
 21
54.683757
 31
0.0
  0
LINE
  5
2A4
100
AcDbEntity
  8
1
  6
CONTINUOUS
100
AcDbLine
 10
185.395141
 20
54.711757
 30
0.0
 11
185.476141
 21
54.711757
 31
0.0
  0
LINE
  5
2A5
100
AcDbEntity
  8
1
  6
CONTINUOUS
100
AcDbLine
 10
185.557141
 20
54.711757
 30
0.0
 11
185.476141
 21
54.711757
 31
0.0
  0
LINE
  5
2A6
100
AcDbEntity
  8
1
  6
CONTINUOUS
100
AcDbLine
 10
185.384141
 20
54.740757
 30
0.0
 11
185.467141
 21
54.740757
 31
0.0
  0
LINE
  5
2A7
100
AcDbEntity
  8
1
  6
CONTINUOUS
100
AcDbLine
 10
185.548141
 20
54.740757
 30
0.0
 11
185.467141
 21
54.740757
 31
0.0
  0
LINE
  5
2A8
100
AcDbEntity
  8
1
  6
CONTINUOUS
100
AcDbLine
 10
185.374141
 20
54.768757
 30
0.0
 11
185.458141
 21
54.768757
 31
0.0
  0
LINE
  5
2A9
100
AcDbEntity
  8
1
  6
CONTINUOUS
100
AcDbLine
 10
185.539141
 20
54.768757
 30
0.0
 11
185.458141
 21
54.768757
 31
0.0
  0
LINE
  5
2AA
100
AcDbEntity
  8
1
  6
CONTINUOUS
100
AcDbLine
 10
185.365141
 20
54.797757
 30
0.0
 11
185.446141
 21
54.797757
 31
0.0
  0
LINE
  5
2AB
100
AcDbEntity
  8
1
  6
CONTINUOUS
100
AcDbLine
 10
185.528141
 20
54.797757
 30
0.0
 11
185.446141
 21
54.797757
 31
0.0
  0
LINE
  5
2AC
100
AcDbEntity
  8
1
  6
CONTINUOUS
100
AcDbLine
 10
185.356141
 20
54.825757
 30
0.0
 11
185.437141
 21
54.825757
 31
0.0
  0
LINE
  5
2AD
100
AcDbEntity
  8
1
  6
CONTINUOUS
100
AcDbLine
 10
185.519141
 20
54.825757
 30
0.0
 11
185.437141
 21
54.825757
 31
0.0
  0
LINE
  5
2AE
100
AcDbEntity
  8
1
  6
CONTINUOUS
100
AcDbLine
 10
185.345141
 20
54.854757
 30
0.0
 11
185.426141
 21
54.854757
 31
0.0
  0
LINE
  5
2AF
100
AcDbEntity
  8
1
  6
CONTINUOUS
100
AcDbLine
 10
185.509141
 20
54.854757
 30
0.0
 11
185.426141
 21
54.854757
 31
0.0
  0
LINE
  5
2B0
100
AcDbEntity
  8
1
  6
CONTINUOUS
100
AcDbLine
 10
185.336141
 20
54.882757
 30
0.0
 11
185.417141
 21
54.882757
 31
0.0
  0
LINE
  5
2B1
100
AcDbEntity
  8
1
  6
CONTINUOUS
100
AcDbLine
 10
185.500141
 20
54.882757
 30
0.0
 11
185.417141
 21
54.882757
 31
0.0
  0
LINE
  5
2B2
100
AcDbEntity
  8
1
  6
CONTINUOUS
100
AcDbLine
 10
185.326141
 20
54.909757
 30
0.0
 11
185.407141
 21
54.909757
 31
0.0
  0
LINE
  5
2B3
100
AcDbEntity
  8
1
  6
CONTINUOUS
100
AcDbLine
 10
185.489141
 20
54.909757
 30
0.0
 11
185.407141
 21
54.909757
 31
0.0
  0
LINE
  5
2B4
100
AcDbEntity
  8
1
  6
CONTINUOUS
100
AcDbLine
 10
185.317141
 20
54.938757
 30
0.0
 11
185.398141
 21
54.938757
 31
0.0
  0
LINE
  5
2B5
100
AcDbEntity
  8
1
  6
CONTINUOUS
100
AcDbLine
 10
185.480141
 20
54.938757
 30
0.0
 11
185.398141
 21
54.938757
 31
0.0
  0
LINE
  5
2B6
100
AcDbEntity
  8
1
  6
CONTINUOUS
100
AcDbLine
 10
185.305141
 20
54.965757
 30
0.0
 11
185.389141
 21
54.966757
 31
0.0
  0
LINE
  5
2B7
100
AcDbEntity
  8
1
  6
CONTINUOUS
100
AcDbLine
 10
185.470141
 20
54.965757
 30
0.0
 11
185.389141
 21
54.966757
 31
0.0
  0
LINE
  5
2B8
100
AcDbEntity
  8
1
  6
CONTINUOUS
100
AcDbLine
 10
185.296141
 20
54.993757
 30
0.0
 11
185.378141
 21
54.995757
 31
0.0
  0
LINE
  5
2B9
100
AcDbEntity
  8
1
  6
CONTINUOUS
100
AcDbLine
 10
185.459141
 20
54.993757
 30
0.0
 11
185.378141
 21
54.995757
 31
0.0
  0
LINE
  5
2BA
100
AcDbEntity
  8
1
  6
CONTINUOUS
100
AcDbLine
 10
185.287141
 20
55.022757
 30
0.0
 11
185.368141
 21
55.022757
 31
0.0
  0
LINE
  5
2BB
100
AcDbEntity
  8
1
  6
CONTINUOUS
100
AcDbLine
 10
185.450141
 20
55.022757
 30
0.0
 11
185.368141
 21
55.022757
 31
0.0
  0
LINE
  5
2BC
100
AcDbEntity
  8
1
  6
CONTINUOUS
100
AcDbLine
 10
185.276141
 20
55.050757
 30
0.0
 11
185.359141
 21
55.050757
 31
0.0
  0
LINE
  5
2BD
100
AcDbEntity
  8
1
  6
CONTINUOUS
100
AcDbLine
 10
185.441141
 20
55.050757
 30
0.0
 11
185.359141
 21
55.050757
 31
0.0
  0
LINE
  5
2BE
100
AcDbEntity
  8
1
  6
CONTINUOUS
100
AcDbLine
 10
185.266141
 20
55.079757
 30
0.0
 11
185.348141
 21
55.079757
 31
0.0
  0
LINE
  5
2BF
100
AcDbEntity
  8
1
  6
CONTINUOUS
100
AcDbLine
 10
185.431141
 20
55.079757
 30
0.0
 11
185.348141
 21
55.079757
 31
0.0
  0
LINE
  5
2C0
100
AcDbEntity
  8
1
  6
CONTINUOUS
100
AcDbLine
 10
185.257141
 20
55.106757
 30
0.0
 11
185.339141
 21
55.106757
 31
0.0
  0
LINE
  5
2C1
100
AcDbEntity
  8
1
  6
CONTINUOUS
100
AcDbLine
 10
185.422141
 20
55.106757
 30
0.0
 11
185.339141
 21
55.106757
 31
0.0
  0
LINE
  5
2C2
100
AcDbEntity
  8
1
  6
CONTINUOUS
100
AcDbLine
 10
185.248141
 20
55.134757
 30
0.0
 11
185.329141
 21
55.134757
 31
0.0
  0
LINE
  5
2C3
100
AcDbEntity
  8
1
  6
CONTINUOUS
100
AcDbLine
 10
185.411141
 20
55.134757
 30
0.0
 11
185.329141
 21
55.134757
 31
0.0
  0
LINE
  5
2C4
100
AcDbEntity
  8
1
  6
CONTINUOUS
100
AcDbLine
 10
185.332141
 20
54.891757
 30
0.0
 11
185.600141
 21
54.122757
 31
0.0
  0
LINE
  5
2C5
100
AcDbEntity
  8
1
  6
CONTINUOUS
100
AcDbLine
 10
186.562141
 20
55.110757
 30
0.0
 11
187.291141
 21
55.110757
 31
0.0
  0
LINE
  5
2C6
100
AcDbEntity
  8
1
  6
CONTINUOUS
100
AcDbLine
 10
186.562141
 20
55.082757
 30
0.0
 11
187.291141
 21
55.082757
 31
0.0
  0
LINE
  5
2C7
100
AcDbEntity
  8
1
  6
CONTINUOUS
100
AcDbLine
 10
186.562141
 20
55.053757
 30
0.0
 11
187.291141
 21
55.053757
 31
0.0
  0
LINE
  5
2C8
100
AcDbEntity
  8
1
  6
CONTINUOUS
100
AcDbLine
 10
186.562141
 20
55.023757
 30
0.0
 11
187.291141
 21
55.023757
 31
0.0
  0
ARC
  5
2C9
100
AcDbEntity
  8
1
  6
CONTINUOUS
100
AcDbCircle
 10
190.577141
 20
54.836757
 30
0.0
 40
0.09
100
AcDbArc
 50
147.404
 51
250.226
  0
ARC
  5
2CA
100
AcDbEntity
  8
1
  6
CONTINUOUS
100
AcDbCircle
 10
190.841141
 20
54.395757
 30
0.0
 40
0.239
100
AcDbArc
 50
294.888
 51
62.963
  0
LINE
  5
2CB
100
AcDbEntity
  8
1
  6
CONTINUOUS
100
AcDbLine
 10
190.606141
 20
55.140757
 30
0.0
 11
190.766141
 21
55.140757
 31
0.0
  0
LINE
  5
2CC
100
AcDbEntity
  8
1
  6
CONTINUOUS
100
AcDbLine
 10
190.528141
 20
55.110757
 30
0.0
 11
190.841141
 21
55.112757
 31
0.0
  0
LINE
  5
2CD
100
AcDbEntity
  8
1
  6
CONTINUOUS
100
AcDbLine
 10
190.477141
 20
55.082757
 30
0.0
 11
190.891141
 21
55.082757
 31
0.0
  0
LINE
  5
2CE
100
AcDbEntity
  8
1
  6
CONTINUOUS
100
AcDbLine
 10
190.438141
 20
55.053757
 30
0.0
 11
190.928141
 21
55.053757
 31
0.0
  0
LINE
  5
2CF
100
AcDbEntity
  8
1
  6
CONTINUOUS
100
AcDbLine
 10
190.408141
 20
55.023757
 30
0.0
 11
190.960141
 21
55.023757
 31
0.0
  0
LINE
  5
2D0
100
AcDbEntity
  8
1
  6
CONTINUOUS
100
AcDbLine
 10
190.343141
 20
54.933757
 30
0.0
 11
190.546141
 21
54.933757
 31
0.0
  0
LINE
  5
2D1
100
AcDbEntity
  8
1
  6
CONTINUOUS
100
AcDbLine
 10
190.361141
 20
54.963757
 30
0.0
 11
190.589141
 21
54.963757
 31
0.0
  0
LINE
  5
2D2
100
AcDbEntity
  8
1
  6
CONTINUOUS
100
AcDbLine
 10
190.333141
 20
54.903757
 30
0.0
 11
190.516141
 21
54.903757
 31
0.0
  0
LINE
  5
2D3
100
AcDbEntity
  8
1
  6
CONTINUOUS
100
AcDbLine
 10
190.324141
 20
54.873757
 30
0.0
 11
190.496141
 21
54.873757
 31
0.0
  0
LINE
  5
2D4
100
AcDbEntity
  8
1
  6
CONTINUOUS
100
AcDbLine
 10
190.318141
 20
54.843757
 30
0.0
 11
190.489141
 21
54.843757
 31
0.0
  0
LINE
  5
2D5
100
AcDbEntity
  8
1
  6
CONTINUOUS
100
AcDbLine
 10
190.316141
 20
54.815757
 30
0.0
 11
190.490141
 21
54.815757
 31
0.0
  0
LINE
  5
2D6
100
AcDbEntity
  8
1
  6
CONTINUOUS
100
AcDbLine
 10
190.319141
 20
54.783757
 30
0.0
 11
190.504141
 21
54.783757
 31
0.0
  0
LINE
  5
2D7
100
AcDbEntity
  8
1
  6
CONTINUOUS
100
AcDbLine
 10
190.325141
 20
54.755757
 30
0.0
 11
190.540141
 21
54.755757
 31
0.0
  0
LINE
  5
2D8
100
AcDbEntity
  8
1
  6
CONTINUOUS
100
AcDbLine
 10
190.337141
 20
54.725757
 30
0.0
 11
190.624141
 21
54.725757
 31
0.0
  0
LINE
  5
2D9
100
AcDbEntity
  8
1
  6
CONTINUOUS
100
AcDbLine
 10
190.354141
 20
54.695757
 30
0.0
 11
190.706141
 21
54.695757
 31
0.0
  0
LINE
  5
2DA
100
AcDbEntity
  8
1
  6
CONTINUOUS
100
AcDbLine
 10
190.378141
 20
54.665757
 30
0.0
 11
190.789141
 21
54.665757
 31
0.0
  0
LINE
  5
2DB
100
AcDbEntity
  8
1
  6
CONTINUOUS
100
AcDbLine
 10
190.411141
 20
54.636757
 30
0.0
 11
190.871141
 21
54.636757
 31
0.0
  0
LINE
  5
2DC
100
AcDbEntity
  8
1
  6
CONTINUOUS
100
AcDbLine
 10
190.493141
 20
54.605757
 30
0.0
 11
190.952141
 21
54.605757
 31
0.0
  0
LINE
  5
2DD
100
AcDbEntity
  8
1
  6
CONTINUOUS
100
AcDbLine
 10
190.576141
 20
54.575757
 30
0.0
 11
190.997141
 21
54.575757
 31
0.0
  0
LINE
  5
2DE
100
AcDbEntity
  8
1
  6
CONTINUOUS
100
AcDbLine
 10
190.658141
 20
54.546757
 30
0.0
 11
191.026141
 21
54.546757
 31
0.0
  0
LINE
  5
2DF
100
AcDbEntity
  8
1
  6
CONTINUOUS
100
AcDbLine
 10
190.741141
 20
54.516757
 30
0.0
 11
191.047141
 21
54.516757
 31
0.0
  0
LINE
  5
2E0
100
AcDbEntity
  8
1
  6
CONTINUOUS
100
AcDbLine
 10
190.823141
 20
54.486757
 30
0.0
 11
191.062141
 21
54.486757
 31
0.0
  0
LINE
  5
2E1
100
AcDbEntity
  8
1
  6
CONTINUOUS
100
AcDbLine
 10
190.880141
 20
54.456757
 30
0.0
 11
191.072141
 21
54.456757
 31
0.0
  0
LINE
  5
2E2
100
AcDbEntity
  8
1
  6
CONTINUOUS
100
AcDbLine
 10
190.900141
 20
54.426757
 30
0.0
 11
191.077141
 21
54.426757
 31
0.0
  0
LINE
  5
2E3
100
AcDbEntity
  8
1
  6
CONTINUOUS
100
AcDbLine
 10
190.906141
 20
54.396757
 30
0.0
 11
191.080141
 21
54.396757
 31
0.0
  0
LINE
  5
2E4
100
AcDbEntity
  8
1
  6
CONTINUOUS
100
AcDbLine
 10
190.901141
 20
54.368757
 30
0.0
 11
191.078141
 21
54.368757
 31
0.0
  0
LINE
  5
2E5
100
AcDbEntity
  8
1
  6
CONTINUOUS
100
AcDbLine
 10
190.886141
 20
54.338757
 30
0.0
 11
191.072141
 21
54.338757
 31
0.0
  0
LINE
  5
2E6
100
AcDbEntity
  8
1
  6
CONTINUOUS
100
AcDbLine
 10
190.852141
 20
54.308757
 30
0.0
 11
191.063141
 21
54.308757
 31
0.0
  0
LINE
  5
2E7
100
AcDbEntity
  8
1
  6
CONTINUOUS
100
AcDbLine
 10
190.799141
 20
54.278757
 30
0.0
 11
191.050141
 21
54.279757
 31
0.0
  0
LINE
  5
2E8
100
AcDbEntity
  8
1
  6
CONTINUOUS
100
AcDbLine
 10
190.297141
 20
54.396757
 30
0.0
 11
190.456141
 21
54.396757
 31
0.0
  0
LINE
  5
2E9
100
AcDbEntity
  8
1
  6
CONTINUOUS
100
AcDbLine
 10
190.307141
 20
54.366757
 30
0.0
 11
190.472141
 21
54.366757
 31
0.0
  0
LINE
  5
2EA
100
AcDbEntity
  8
1
  6
CONTINUOUS
100
AcDbLine
 10
190.322141
 20
54.338757
 30
0.0
 11
190.495141
 21
54.338757
 31
0.0
  0
LINE
  5
2EB
100
AcDbEntity
  8
1
  6
CONTINUOUS
100
AcDbLine
 10
190.358141
 20
54.278757
 30
0.0
 11
190.580141
 21
54.278757
 31
0.0
  0
LINE
  5
2EC
100
AcDbEntity
  8
1
  6
CONTINUOUS
100
AcDbLine
 10
190.339141
 20
54.308757
 30
0.0
 11
190.526141
 21
54.308757
 31
0.0
  0
LINE
  5
2ED
100
AcDbEntity
  8
1
  6
CONTINUOUS
100
AcDbLine
 10
190.384141
 20
54.248757
 30
0.0
 11
191.029141
 21
54.248757
 31
0.0
  0
LINE
  5
2EE
100
AcDbEntity
  8
1
  6
CONTINUOUS
100
AcDbLine
 10
190.414141
 20
54.218757
 30
0.0
 11
191.002141
 21
54.218757
 31
0.0
  0
LINE
  5
2EF
100
AcDbEntity
  8
1
  6
CONTINUOUS
100
AcDbLine
 10
190.453141
 20
54.188757
 30
0.0
 11
190.957141
 21
54.188757
 31
0.0
  0
LINE
  5
2F0
100
AcDbEntity
  8
1
  6
CONTINUOUS
100
AcDbLine
 10
190.502141
 20
54.159757
 30
0.0
 11
190.907141
 21
54.159757
 31
0.0
  0
LINE
  5
2F1
100
AcDbEntity
  8
1
  6
CONTINUOUS
100
AcDbLine
 10
190.580141
 20
54.129757
 30
0.0
 11
190.829141
 21
54.129757
 31
0.0
  0
LINE
  5
2F2
100
AcDbEntity
  8
1
  6
CONTINUOUS
100
AcDbLine
 10
190.885141
 20
54.873757
 30
0.0
 11
191.045141
 21
54.873757
 31
0.0
  0
LINE
  5
2F3
100
AcDbEntity
  8
1
  6
CONTINUOUS
100
AcDbLine
 10
190.792141
 20
54.963757
 30
0.0
 11
191.003141
 21
54.963757
 31
0.0
  0
LINE
  5
2F4
100
AcDbEntity
  8
1
  6
CONTINUOUS
100
AcDbLine
 10
190.835141
 20
54.933757
 30
0.0
 11
191.021141
 21
54.933757
 31
0.0
  0
LINE
  5
2F5
100
AcDbEntity
  8
1
  6
CONTINUOUS
100
AcDbLine
 10
190.865141
 20
54.903757
 30
0.0
 11
191.035141
 21
54.903757
 31
0.0
  0
LINE
  5
2F6
100
AcDbEntity
  8
1
  6
CONTINUOUS
100
AcDbLine
 10
190.898141
 20
54.843757
 30
0.0
 11
191.054141
 21
54.843757
 31
0.0
  0
LINE
  5
2F7
100
AcDbEntity
  8
1
  6
CONTINUOUS
100
AcDbLine
 10
190.382141
 20
54.993757
 30
0.0
 11
190.982141
 21
54.993757
 31
0.0
  0
LINE
  5
2F8
100
AcDbEntity
  8
1
  6
CONTINUOUS
100
AcDbLine
 10
190.010141
 20
54.152757
 30
0.0
 11
190.157141
 21
54.152757
 31
0.0
  0
LINE
  5
2F9
100
AcDbEntity
  8
1
  6
CONTINUOUS
100
AcDbLine
 10
191.186141
 20
54.152757
 30
0.0
 11
191.336141
 21
54.152757
 31
0.0
  0
LINE
  5
2FA
100
AcDbEntity
  8
1
  6
CONTINUOUS
100
AcDbLine
 10
191.812141
 20
54.152757
 30
0.0
 11
191.960141
 21
54.152757
 31
0.0
  0
LINE
  5
2FB
100
AcDbEntity
  8
1
  6
CONTINUOUS
100
AcDbLine
 10
192.088141
 20
54.152757
 30
0.0
 11
192.235141
 21
54.152757
 31
0.0
  0
LINE
  5
2FC
100
AcDbEntity
  8
1
  6
CONTINUOUS
100
AcDbLine
 10
190.010141
 20
54.182757
 30
0.0
 11
190.157141
 21
54.180757
 31
0.0
  0
LINE
  5
2FD
100
AcDbEntity
  8
1
  6
CONTINUOUS
100
AcDbLine
 10
191.186141
 20
54.182757
 30
0.0
 11
191.336141
 21
54.180757
 31
0.0
  0
LINE
  5
2FE
100
AcDbEntity
  8
1
  6
CONTINUOUS
100
AcDbLine
 10
191.812141
 20
54.182757
 30
0.0
 11
191.960141
 21
54.180757
 31
0.0
  0
LINE
  5
2FF
100
AcDbEntity
  8
1
  6
CONTINUOUS
100
AcDbLine
 10
192.088141
 20
54.182757
 30
0.0
 11
192.235141
 21
54.180757
 31
0.0
  0
LINE
  5
300
100
AcDbEntity
  8
1
  6
CONTINUOUS
100
AcDbLine
 10
190.010141
 20
54.210757
 30
0.0
 11
190.157141
 21
54.210757
 31
0.0
  0
LINE
  5
301
100
AcDbEntity
  8
1
  6
CONTINUOUS
100
AcDbLine
 10
191.186141
 20
54.210757
 30
0.0
 11
191.336141
 21
54.210757
 31
0.0
  0
LINE
  5
302
100
AcDbEntity
  8
1
  6
CONTINUOUS
100
AcDbLine
 10
191.812141
 20
54.210757
 30
0.0
 11
191.960141
 21
54.210757
 31
0.0
  0
LINE
  5
303
100
AcDbEntity
  8
1
  6
CONTINUOUS
100
AcDbLine
 10
192.088141
 20
54.210757
 30
0.0
 11
192.235141
 21
54.210757
 31
0.0
  0
LINE
  5
304
100
AcDbEntity
  8
1
  6
CONTINUOUS
100
AcDbLine
 10
190.010141
 20
54.242757
 30
0.0
 11
190.157141
 21
54.242757
 31
0.0
  0
LINE
  5
305
100
AcDbEntity
  8
1
  6
CONTINUOUS
100
AcDbLine
 10
191.186141
 20
54.242757
 30
0.0
 11
191.336141
 21
54.242757
 31
0.0
  0
LINE
  5
306
100
AcDbEntity
  8
1
  6
CONTINUOUS
100
AcDbLine
 10
191.812141
 20
54.242757
 30
0.0
 11
191.960141
 21
54.242757
 31
0.0
  0
LINE
  5
307
100
AcDbEntity
  8
1
  6
CONTINUOUS
100
AcDbLine
 10
192.088141
 20
54.242757
 30
0.0
 11
192.235141
 21
54.242757
 31
0.0
  0
LINE
  5
308
100
AcDbEntity
  8
1
  6
CONTINUOUS
100
AcDbLine
 10
190.010141
 20
54.270757
 30
0.0
 11
190.157141
 21
54.270757
 31
0.0
  0
LINE
  5
309
100
AcDbEntity
  8
1
  6
CONTINUOUS
100
AcDbLine
 10
191.186141
 20
54.270757
 30
0.0
 11
191.336141
 21
54.270757
 31
0.0
  0
LINE
  5
30A
100
AcDbEntity
  8
1
  6
CONTINUOUS
100
AcDbLine
 10
191.812141
 20
54.270757
 30
0.0
 11
191.960141
 21
54.270757
 31
0.0
  0
LINE
  5
30B
100
AcDbEntity
  8
1
  6
CONTINUOUS
100
AcDbLine
 10
192.088141
 20
54.270757
 30
0.0
 11
192.235141
 21
54.270757
 31
0.0
  0
LINE
  5
30C
100
AcDbEntity
  8
1
  6
CONTINUOUS
100
AcDbLine
 10
190.010141
 20
54.300757
 30
0.0
 11
190.157141
 21
54.300757
 31
0.0
  0
LINE
  5
30D
100
AcDbEntity
  8
1
  6
CONTINUOUS
100
AcDbLine
 10
191.186141
 20
54.300757
 30
0.0
 11
191.336141
 21
54.300757
 31
0.0
  0
LINE
  5
30E
100
AcDbEntity
  8
1
  6
CONTINUOUS
100
AcDbLine
 10
191.812141
 20
54.300757
 30
0.0
 11
191.960141
 21
54.300757
 31
0.0
  0
LINE
  5
30F
100
AcDbEntity
  8
1
  6
CONTINUOUS
100
AcDbLine
 10
192.088141
 20
54.300757
 30
0.0
 11
192.235141
 21
54.300757
 31
0.0
  0
LINE
  5
310
100
AcDbEntity
  8
1
  6
CONTINUOUS
100
AcDbLine
 10
190.010141
 20
54.330757
 30
0.0
 11
190.157141
 21
54.330757
 31
0.0
  0
LINE
  5
311
100
AcDbEntity
  8
1
  6
CONTINUOUS
100
AcDbLine
 10
191.186141
 20
54.330757
 30
0.0
 11
191.336141
 21
54.330757
 31
0.0
  0
LINE
  5
312
100
AcDbEntity
  8
1
  6
CONTINUOUS
100
AcDbLine
 10
191.812141
 20
54.330757
 30
0.0
 11
191.960141
 21
54.330757
 31
0.0
  0
LINE
  5
313
100
AcDbEntity
  8
1
  6
CONTINUOUS
100
AcDbLine
 10
192.088141
 20
54.330757
 30
0.0
 11
192.235141
 21
54.330757
 31
0.0
  0
LINE
  5
314
100
AcDbEntity
  8
1
  6
CONTINUOUS
100
AcDbLine
 10
190.010141
 20
54.360757
 30
0.0
 11
190.157141
 21
54.360757
 31
0.0
  0
LINE
  5
315
100
AcDbEntity
  8
1
  6
CONTINUOUS
100
AcDbLine
 10
191.186141
 20
54.360757
 30
0.0
 11
191.336141
 21
54.360757
 31
0.0
  0
LINE
  5
316
100
AcDbEntity
  8
1
  6
CONTINUOUS
100
AcDbLine
 10
191.812141
 20
54.360757
 30
0.0
 11
191.960141
 21
54.360757
 31
0.0
  0
LINE
  5
317
100
AcDbEntity
  8
1
  6
CONTINUOUS
100
AcDbLine
 10
192.088141
 20
54.360757
 30
0.0
 11
192.235141
 21
54.360757
 31
0.0
  0
LINE
  5
318
100
AcDbEntity
  8
1
  6
CONTINUOUS
100
AcDbLine
 10
190.010141
 20
54.390757
 30
0.0
 11
190.157141
 21
54.389757
 31
0.0
  0
LINE
  5
319
100
AcDbEntity
  8
1
  6
CONTINUOUS
100
AcDbLine
 10
191.186141
 20
54.390757
 30
0.0
 11
191.336141
 21
54.389757
 31
0.0
  0
LINE
  5
31A
100
AcDbEntity
  8
1
  6
CONTINUOUS
100
AcDbLine
 10
191.812141
 20
54.390757
 30
0.0
 11
191.960141
 21
54.389757
 31
0.0
  0
LINE
  5
31B
100
AcDbEntity
  8
1
  6
CONTINUOUS
100
AcDbLine
 10
192.088141
 20
54.390757
 30
0.0
 11
192.235141
 21
54.389757
 31
0.0
  0
LINE
  5
31C
100
AcDbEntity
  8
1
  6
CONTINUOUS
100
AcDbLine
 10
190.010141
 20
54.420757
 30
0.0
 11
190.157141
 21
54.420757
 31
0.0
  0
LINE
  5
31D
100
AcDbEntity
  8
1
  6
CONTINUOUS
100
AcDbLine
 10
191.186141
 20
54.420757
 30
0.0
 11
191.336141
 21
54.420757
 31
0.0
  0
LINE
  5
31E
100
AcDbEntity
  8
1
  6
CONTINUOUS
100
AcDbLine
 10
191.812141
 20
54.420757
 30
0.0
 11
191.960141
 21
54.420757
 31
0.0
  0
LINE
  5
31F
100
AcDbEntity
  8
1
  6
CONTINUOUS
100
AcDbLine
 10
192.088141
 20
54.420757
 30
0.0
 11
192.235141
 21
54.420757
 31
0.0
  0
LINE
  5
320
100
AcDbEntity
  8
1
  6
CONTINUOUS
100
AcDbLine
 10
190.010141
 20
54.450757
 30
0.0
 11
190.157141
 21
54.450757
 31
0.0
  0
LINE
  5
321
100
AcDbEntity
  8
1
  6
CONTINUOUS
100
AcDbLine
 10
191.186141
 20
54.450757
 30
0.0
 11
191.336141
 21
54.450757
 31
0.0
  0
LINE
  5
322
100
AcDbEntity
  8
1
  6
CONTINUOUS
100
AcDbLine
 10
191.812141
 20
54.450757
 30
0.0
 11
191.960141
 21
54.450757
 31
0.0
  0
LINE
  5
323
100
AcDbEntity
  8
1
  6
CONTINUOUS
100
AcDbLine
 10
192.088141
 20
54.450757
 30
0.0
 11
192.235141
 21
54.450757
 31
0.0
  0
LINE
  5
324
100
AcDbEntity
  8
1
  6
CONTINUOUS
100
AcDbLine
 10
190.010141
 20
54.480757
 30
0.0
 11
190.157141
 21
54.479757
 31
0.0
  0
LINE
  5
325
100
AcDbEntity
  8
1
  6
CONTINUOUS
100
AcDbLine
 10
191.186141
 20
54.480757
 30
0.0
 11
191.336141
 21
54.479757
 31
0.0
  0
LINE
  5
326
100
AcDbEntity
  8
1
  6
CONTINUOUS
100
AcDbLine
 10
191.812141
 20
54.480757
 30
0.0
 11
191.960141
 21
54.479757
 31
0.0
  0
LINE
  5
327
100
AcDbEntity
  8
1
  6
CONTINUOUS
100
AcDbLine
 10
192.088141
 20
54.480757
 30
0.0
 11
192.235141
 21
54.479757
 31
0.0
  0
LINE
  5
328
100
AcDbEntity
  8
1
  6
CONTINUOUS
100
AcDbLine
 10
190.010141
 20
54.509757
 30
0.0
 11
190.157141
 21
54.509757
 31
0.0
  0
LINE
  5
329
100
AcDbEntity
  8
1
  6
CONTINUOUS
100
AcDbLine
 10
191.186141
 20
54.509757
 30
0.0
 11
191.336141
 21
54.509757
 31
0.0
  0
LINE
  5
32A
100
AcDbEntity
  8
1
  6
CONTINUOUS
100
AcDbLine
 10
191.812141
 20
54.509757
 30
0.0
 11
191.960141
 21
54.509757
 31
0.0
  0
LINE
  5
32B
100
AcDbEntity
  8
1
  6
CONTINUOUS
100
AcDbLine
 10
192.088141
 20
54.509757
 30
0.0
 11
192.235141
 21
54.509757
 31
0.0
  0
LINE
  5
32C
100
AcDbEntity
  8
1
  6
CONTINUOUS
100
AcDbLine
 10
190.010141
 20
54.539757
 30
0.0
 11
190.157141
 21
54.539757
 31
0.0
  0
LINE
  5
32D
100
AcDbEntity
  8
1
  6
CONTINUOUS
100
AcDbLine
 10
191.186141
 20
54.539757
 30
0.0
 11
191.336141
 21
54.539757
 31
0.0
  0
LINE
  5
32E
100
AcDbEntity
  8
1
  6
CONTINUOUS
100
AcDbLine
 10
191.812141
 20
54.539757
 30
0.0
 11
191.960141
 21
54.539757
 31
0.0
  0
LINE
  5
32F
100
AcDbEntity
  8
1
  6
CONTINUOUS
100
AcDbLine
 10
192.088141
 20
54.539757
 30
0.0
 11
192.235141
 21
54.539757
 31
0.0
  0
LINE
  5
330
100
AcDbEntity
  8
1
  6
CONTINUOUS
100
AcDbLine
 10
190.010141
 20
54.569757
 30
0.0
 11
190.157141
 21
54.567757
 31
0.0
  0
LINE
  5
331
100
AcDbEntity
  8
1
  6
CONTINUOUS
100
AcDbLine
 10
191.186141
 20
54.569757
 30
0.0
 11
191.336141
 21
54.567757
 31
0.0
  0
LINE
  5
332
100
AcDbEntity
  8
1
  6
CONTINUOUS
100
AcDbLine
 10
191.812141
 20
54.569757
 30
0.0
 11
191.960141
 21
54.567757
 31
0.0
  0
LINE
  5
333
100
AcDbEntity
  8
1
  6
CONTINUOUS
100
AcDbLine
 10
192.088141
 20
54.569757
 30
0.0
 11
192.235141
 21
54.567757
 31
0.0
  0
LINE
  5
334
100
AcDbEntity
  8
1
  6
CONTINUOUS
100
AcDbLine
 10
190.010141
 20
54.597757
 30
0.0
 11
190.157141
 21
54.597757
 31
0.0
  0
LINE
  5
335
100
AcDbEntity
  8
1
  6
CONTINUOUS
100
AcDbLine
 10
191.186141
 20
54.597757
 30
0.0
 11
191.960141
 21
54.597757
 31
0.0
  0
LINE
  5
336
100
AcDbEntity
  8
1
  6
CONTINUOUS
100
AcDbLine
 10
192.088141
 20
54.597757
 30
0.0
 11
192.235141
 21
54.597757
 31
0.0
  0
LINE
  5
337
100
AcDbEntity
  8
1
  6
CONTINUOUS
100
AcDbLine
 10
190.010141
 20
54.627757
 30
0.0
 11
190.157141
 21
54.627757
 31
0.0
  0
LINE
  5
338
100
AcDbEntity
  8
1
  6
CONTINUOUS
100
AcDbLine
 10
191.186141
 20
54.627757
 30
0.0
 11
191.960141
 21
54.627757
 31
0.0
  0
LINE
  5
339
100
AcDbEntity
  8
1
  6
CONTINUOUS
100
AcDbLine
 10
192.088141
 20
54.627757
 30
0.0
 11
192.235141
 21
54.627757
 31
0.0
  0
LINE
  5
33A
100
AcDbEntity
  8
1
  6
CONTINUOUS
100
AcDbLine
 10
190.010141
 20
54.657757
 30
0.0
 11
190.157141
 21
54.657757
 31
0.0
  0
LINE
  5
33B
100
AcDbEntity
  8
1
  6
CONTINUOUS
100
AcDbLine
 10
191.186141
 20
54.657757
 30
0.0
 11
191.960141
 21
54.657757
 31
0.0
  0
LINE
  5
33C
100
AcDbEntity
  8
1
  6
CONTINUOUS
100
AcDbLine
 10
192.088141
 20
54.657757
 30
0.0
 11
192.235141
 21
54.657757
 31
0.0
  0
LINE
  5
33D
100
AcDbEntity
  8
1
  6
CONTINUOUS
100
AcDbLine
 10
190.010141
 20
54.687757
 30
0.0
 11
190.157141
 21
54.687757
 31
0.0
  0
LINE
  5
33E
100
AcDbEntity
  8
1
  6
CONTINUOUS
100
AcDbLine
 10
191.186141
 20
54.687757
 30
0.0
 11
191.960141
 21
54.687757
 31
0.0
  0
LINE
  5
33F
100
AcDbEntity
  8
1
  6
CONTINUOUS
100
AcDbLine
 10
192.088141
 20
54.687757
 30
0.0
 11
192.235141
 21
54.687757
 31
0.0
  0
LINE
  5
340
100
AcDbEntity
  8
1
  6
CONTINUOUS
100
AcDbLine
 10
190.010141
 20
54.717757
 30
0.0
 11
190.157141
 21
54.717757
 31
0.0
  0
LINE
  5
341
100
AcDbEntity
  8
1
  6
CONTINUOUS
100
AcDbLine
 10
191.186141
 20
54.717757
 30
0.0
 11
191.812141
 21
54.717757
 31
0.0
  0
LINE
  5
342
100
AcDbEntity
  8
1
  6
CONTINUOUS
100
AcDbLine
 10
191.812141
 20
54.717757
 30
0.0
 11
191.960141
 21
54.717757
 31
0.0
  0
LINE
  5
343
100
AcDbEntity
  8
1
  6
CONTINUOUS
100
AcDbLine
 10
192.088141
 20
54.717757
 30
0.0
 11
192.235141
 21
54.717757
 31
0.0
  0
LINE
  5
344
100
AcDbEntity
  8
1
  6
CONTINUOUS
100
AcDbLine
 10
190.010141
 20
54.747757
 30
0.0
 11
190.157141
 21
54.746757
 31
0.0
  0
LINE
  5
345
100
AcDbEntity
  8
1
  6
CONTINUOUS
100
AcDbLine
 10
191.186141
 20
54.747757
 30
0.0
 11
191.336141
 21
54.746757
 31
0.0
  0
LINE
  5
346
100
AcDbEntity
  8
1
  6
CONTINUOUS
100
AcDbLine
 10
191.812141
 20
54.747757
 30
0.0
 11
191.960141
 21
54.746757
 31
0.0
  0
LINE
  5
347
100
AcDbEntity
  8
1
  6
CONTINUOUS
100
AcDbLine
 10
192.088141
 20
54.747757
 30
0.0
 11
192.235141
 21
54.746757
 31
0.0
  0
LINE
  5
348
100
AcDbEntity
  8
1
  6
CONTINUOUS
100
AcDbLine
 10
190.010141
 20
54.777757
 30
0.0
 11
190.157141
 21
54.777757
 31
0.0
  0
LINE
  5
349
100
AcDbEntity
  8
1
  6
CONTINUOUS
100
AcDbLine
 10
191.186141
 20
54.777757
 30
0.0
 11
191.336141
 21
54.777757
 31
0.0
  0
LINE
  5
34A
100
AcDbEntity
  8
1
  6
CONTINUOUS
100
AcDbLine
 10
191.812141
 20
54.777757
 30
0.0
 11
191.960141
 21
54.777757
 31
0.0
  0
LINE
  5
34B
100
AcDbEntity
  8
1
  6
CONTINUOUS
100
AcDbLine
 10
192.088141
 20
54.777757
 30
0.0
 11
192.235141
 21
54.777757
 31
0.0
  0
LINE
  5
34C
100
AcDbEntity
  8
1
  6
CONTINUOUS
100
AcDbLine
 10
190.010141
 20
54.807757
 30
0.0
 11
190.157141
 21
54.807757
 31
0.0
  0
LINE
  5
34D
100
AcDbEntity
  8
1
  6
CONTINUOUS
100
AcDbLine
 10
191.186141
 20
54.807757
 30
0.0
 11
191.336141
 21
54.807757
 31
0.0
  0
LINE
  5
34E
100
AcDbEntity
  8
1
  6
CONTINUOUS
100
AcDbLine
 10
191.812141
 20
54.807757
 30
0.0
 11
191.960141
 21
54.807757
 31
0.0
  0
LINE
  5
34F
100
AcDbEntity
  8
1
  6
CONTINUOUS
100
AcDbLine
 10
192.088141
 20
54.807757
 30
0.0
 11
192.235141
 21
54.807757
 31
0.0
  0
LINE
  5
350
100
AcDbEntity
  8
1
  6
CONTINUOUS
100
AcDbLine
 10
190.010141
 20
54.837757
 30
0.0
 11
190.157141
 21
54.836757
 31
0.0
  0
LINE
  5
351
100
AcDbEntity
  8
1
  6
CONTINUOUS
100
AcDbLine
 10
191.186141
 20
54.837757
 30
0.0
 11
191.336141
 21
54.836757
 31
0.0
  0
LINE
  5
352
100
AcDbEntity
  8
1
  6
CONTINUOUS
100
AcDbLine
 10
191.812141
 20
54.837757
 30
0.0
 11
191.960141
 21
54.836757
 31
0.0
  0
LINE
  5
353
100
AcDbEntity
  8
1
  6
CONTINUOUS
100
AcDbLine
 10
192.088141
 20
54.837757
 30
0.0
 11
192.235141
 21
54.836757
 31
0.0
  0
LINE
  5
354
100
AcDbEntity
  8
1
  6
CONTINUOUS
100
AcDbLine
 10
190.010141
 20
54.866757
 30
0.0
 11
190.157141
 21
54.866757
 31
0.0
  0
LINE
  5
355
100
AcDbEntity
  8
1
  6
CONTINUOUS
100
AcDbLine
 10
191.186141
 20
54.866757
 30
0.0
 11
191.336141
 21
54.866757
 31
0.0
  0
LINE
  5
356
100
AcDbEntity
  8
1
  6
CONTINUOUS
100
AcDbLine
 10
191.812141
 20
54.866757
 30
0.0
 11
191.960141
 21
54.866757
 31
0.0
  0
LINE
  5
357
100
AcDbEntity
  8
1
  6
CONTINUOUS
100
AcDbLine
 10
192.088141
 20
54.866757
 30
0.0
 11
192.235141
 21
54.866757
 31
0.0
  0
LINE
  5
358
100
AcDbEntity
  8
1
  6
CONTINUOUS
100
AcDbLine
 10
190.010141
 20
54.896757
 30
0.0
 11
190.157141
 21
54.896757
 31
0.0
  0
LINE
  5
359
100
AcDbEntity
  8
1
  6
CONTINUOUS
100
AcDbLine
 10
191.186141
 20
54.896757
 30
0.0
 11
191.336141
 21
54.896757
 31
0.0
  0
LINE
  5
35A
100
AcDbEntity
  8
1
  6
CONTINUOUS
100
AcDbLine
 10
191.812141
 20
54.896757
 30
0.0
 11
191.960141
 21
54.896757
 31
0.0
  0
LINE
  5
35B
100
AcDbEntity
  8
1
  6
CONTINUOUS
100
AcDbLine
 10
192.088141
 20
54.896757
 30
0.0
 11
192.235141
 21
54.896757
 31
0.0
  0
LINE
  5
35C
100
AcDbEntity
  8
1
  6
CONTINUOUS
100
AcDbLine
 10
190.010141
 20
54.926757
 30
0.0
 11
190.157141
 21
54.926757
 31
0.0
  0
LINE
  5
35D
100
AcDbEntity
  8
1
  6
CONTINUOUS
100
AcDbLine
 10
191.186141
 20
54.926757
 30
0.0
 11
191.336141
 21
54.926757
 31
0.0
  0
LINE
  5
35E
100
AcDbEntity
  8
1
  6
CONTINUOUS
100
AcDbLine
 10
191.812141
 20
54.926757
 30
0.0
 11
191.960141
 21
54.926757
 31
0.0
  0
LINE
  5
35F
100
AcDbEntity
  8
1
  6
CONTINUOUS
100
AcDbLine
 10
192.088141
 20
54.926757
 30
0.0
 11
192.235141
 21
54.926757
 31
0.0
  0
LINE
  5
360
100
AcDbEntity
  8
1
  6
CONTINUOUS
100
AcDbLine
 10
190.010141
 20
54.956757
 30
0.0
 11
190.157141
 21
54.956757
 31
0.0
  0
LINE
  5
361
100
AcDbEntity
  8
1
  6
CONTINUOUS
100
AcDbLine
 10
191.186141
 20
54.956757
 30
0.0
 11
191.336141
 21
54.956757
 31
0.0
  0
LINE
  5
362
100
AcDbEntity
  8
1
  6
CONTINUOUS
100
AcDbLine
 10
191.812141
 20
54.956757
 30
0.0
 11
191.960141
 21
54.956757
 31
0.0
  0
LINE
  5
363
100
AcDbEntity
  8
1
  6
CONTINUOUS
100
AcDbLine
 10
192.088141
 20
54.956757
 30
0.0
 11
192.235141
 21
54.956757
 31
0.0
  0
LINE
  5
364
100
AcDbEntity
  8
1
  6
CONTINUOUS
100
AcDbLine
 10
190.010141
 20
54.986757
 30
0.0
 11
190.157141
 21
54.986757
 31
0.0
  0
LINE
  5
365
100
AcDbEntity
  8
1
  6
CONTINUOUS
100
AcDbLine
 10
191.186141
 20
54.986757
 30
0.0
 11
191.336141
 21
54.986757
 31
0.0
  0
LINE
  5
366
100
AcDbEntity
  8
1
  6
CONTINUOUS
100
AcDbLine
 10
191.812141
 20
54.986757
 30
0.0
 11
191.960141
 21
54.986757
 31
0.0
  0
LINE
  5
367
100
AcDbEntity
  8
1
  6
CONTINUOUS
100
AcDbLine
 10
192.088141
 20
54.986757
 30
0.0
 11
192.235141
 21
54.986757
 31
0.0
  0
LINE
  5
368
100
AcDbEntity
  8
1
  6
CONTINUOUS
100
AcDbLine
 10
190.010141
 20
55.016757
 30
0.0
 11
190.157141
 21
55.014757
 31
0.0
  0
LINE
  5
369
100
AcDbEntity
  8
1
  6
CONTINUOUS
100
AcDbLine
 10
191.186141
 20
55.016757
 30
0.0
 11
191.336141
 21
55.014757
 31
0.0
  0
LINE
  5
36A
100
AcDbEntity
  8
1
  6
CONTINUOUS
100
AcDbLine
 10
191.812141
 20
55.016757
 30
0.0
 11
191.960141
 21
55.014757
 31
0.0
  0
LINE
  5
36B
100
AcDbEntity
  8
1
  6
CONTINUOUS
100
AcDbLine
 10
192.088141
 20
55.016757
 30
0.0
 11
192.235141
 21
55.014757
 31
0.0
  0
LINE
  5
36C
100
AcDbEntity
  8
1
  6
CONTINUOUS
100
AcDbLine
 10
190.010141
 20
55.044757
 30
0.0
 11
190.157141
 21
55.044757
 31
0.0
  0
LINE
  5
36D
100
AcDbEntity
  8
1
  6
CONTINUOUS
100
AcDbLine
 10
191.186141
 20
55.044757
 30
0.0
 11
191.336141
 21
55.044757
 31
0.0
  0
LINE
  5
36E
100
AcDbEntity
  8
1
  6
CONTINUOUS
100
AcDbLine
 10
191.812141
 20
55.044757
 30
0.0
 11
191.960141
 21
55.044757
 31
0.0
  0
LINE
  5
36F
100
AcDbEntity
  8
1
  6
CONTINUOUS
100
AcDbLine
 10
192.088141
 20
55.044757
 30
0.0
 11
192.235141
 21
55.044757
 31
0.0
  0
LINE
  5
370
100
AcDbEntity
  8
1
  6
CONTINUOUS
100
AcDbLine
 10
190.010141
 20
55.074757
 30
0.0
 11
190.157141
 21
55.074757
 31
0.0
  0
LINE
  5
371
100
AcDbEntity
  8
1
  6
CONTINUOUS
100
AcDbLine
 10
191.186141
 20
55.074757
 30
0.0
 11
191.336141
 21
55.074757
 31
0.0
  0
LINE
  5
372
100
AcDbEntity
  8
1
  6
CONTINUOUS
100
AcDbLine
 10
191.812141
 20
55.074757
 30
0.0
 11
191.960141
 21
55.074757
 31
0.0
  0
LINE
  5
373
100
AcDbEntity
  8
1
  6
CONTINUOUS
100
AcDbLine
 10
192.088141
 20
55.074757
 30
0.0
 11
192.235141
 21
55.074757
 31
0.0
  0
LINE
  5
374
100
AcDbEntity
  8
1
  6
CONTINUOUS
100
AcDbLine
 10
190.010141
 20
55.106757
 30
0.0
 11
190.157141
 21
55.104757
 31
0.0
  0
LINE
  5
375
100
AcDbEntity
  8
1
  6
CONTINUOUS
100
AcDbLine
 10
191.186141
 20
55.106757
 30
0.0
 11
191.336141
 21
55.104757
 31
0.0
  0
LINE
  5
376
100
AcDbEntity
  8
1
  6
CONTINUOUS
100
AcDbLine
 10
191.812141
 20
55.106757
 30
0.0
 11
191.960141
 21
55.104757
 31
0.0
  0
LINE
  5
377
100
AcDbEntity
  8
1
  6
CONTINUOUS
100
AcDbLine
 10
192.088141
 20
55.106757
 30
0.0
 11
192.235141
 21
55.104757
 31
0.0
  0
LINE
  5
378
100
AcDbEntity
  8
1
  6
CONTINUOUS
100
AcDbLine
 10
190.010141
 20
55.134757
 30
0.0
 11
190.157141
 21
55.134757
 31
0.0
  0
LINE
  5
379
100
AcDbEntity
  8
1
  6
CONTINUOUS
100
AcDbLine
 10
191.186141
 20
55.134757
 30
0.0
 11
191.336141
 21
55.134757
 31
0.0
  0
LINE
  5
37A
100
AcDbEntity
  8
1
  6
CONTINUOUS
100
AcDbLine
 10
191.812141
 20
55.134757
 30
0.0
 11
191.960141
 21
55.134757
 31
0.0
  0
LINE
  5
37B
100
AcDbEntity
  8
1
  6
CONTINUOUS
100
AcDbLine
 10
192.088141
 20
55.134757
 30
0.0
 11
192.235141
 21
55.134757
 31
0.0
  0
LINE
  5
37C
100
AcDbEntity
  8
1
  6
CONTINUOUS
100
AcDbLine
 10
189.122141
 20
54.584757
 30
0.0
 11
189.271141
 21
54.584757
 31
0.0
  0
LINE
  5
37D
100
AcDbEntity
  8
1
  6
CONTINUOUS
100
AcDbLine
 10
189.122141
 20
54.612757
 30
0.0
 11
189.271141
 21
54.612757
 31
0.0
  0
LINE
  5
37E
100
AcDbEntity
  8
1
  6
CONTINUOUS
100
AcDbLine
 10
189.122141
 20
54.642757
 30
0.0
 11
189.271141
 21
54.642757
 31
0.0
  0
LINE
  5
37F
100
AcDbEntity
  8
1
  6
CONTINUOUS
100
AcDbLine
 10
189.122141
 20
54.672757
 30
0.0
 11
189.271141
 21
54.672757
 31
0.0
  0
LINE
  5
380
100
AcDbEntity
  8
1
  6
CONTINUOUS
100
AcDbLine
 10
189.122141
 20
54.702757
 30
0.0
 11
189.271141
 21
54.702757
 31
0.0
  0
LINE
  5
381
100
AcDbEntity
  8
1
  6
CONTINUOUS
100
AcDbLine
 10
189.122141
 20
54.732757
 30
0.0
 11
189.271141
 21
54.732757
 31
0.0
  0
LINE
  5
382
100
AcDbEntity
  8
1
  6
CONTINUOUS
100
AcDbLine
 10
189.122141
 20
54.762757
 30
0.0
 11
189.271141
 21
54.762757
 31
0.0
  0
LINE
  5
383
100
AcDbEntity
  8
1
  6
CONTINUOUS
100
AcDbLine
 10
189.122141
 20
54.792757
 30
0.0
 11
189.271141
 21
54.792757
 31
0.0
  0
LINE
  5
384
100
AcDbEntity
  8
1
  6
CONTINUOUS
100
AcDbLine
 10
189.122141
 20
54.822757
 30
0.0
 11
189.271141
 21
54.822757
 31
0.0
  0
LINE
  5
385
100
AcDbEntity
  8
1
  6
CONTINUOUS
100
AcDbLine
 10
189.122141
 20
54.852757
 30
0.0
 11
189.271141
 21
54.852757
 31
0.0
  0
LINE
  5
386
100
AcDbEntity
  8
1
  6
CONTINUOUS
100
AcDbLine
 10
189.122141
 20
54.882757
 30
0.0
 11
189.271141
 21
54.882757
 31
0.0
  0
LINE
  5
387
100
AcDbEntity
  8
1
  6
CONTINUOUS
100
AcDbLine
 10
189.122141
 20
54.911757
 30
0.0
 11
189.271141
 21
54.911757
 31
0.0
  0
LINE
  5
388
100
AcDbEntity
  8
1
  6
CONTINUOUS
100
AcDbLine
 10
189.122141
 20
54.939757
 30
0.0
 11
189.271141
 21
54.939757
 31
0.0
  0
LINE
  5
389
100
AcDbEntity
  8
1
  6
CONTINUOUS
100
AcDbLine
 10
189.122141
 20
54.969757
 30
0.0
 11
189.271141
 21
54.969757
 31
0.0
  0
ARC
  5
38A
100
AcDbEntity
  8
1
  6
CONTINUOUS
100
AcDbCircle
 10
187.681141
 20
54.747757
 30
0.0
 40
0.411
100
AcDbArc
 50
11.452
 51
84.501
  0
ARC
  5
38B
100
AcDbEntity
  8
1
  6
CONTINUOUS
100
AcDbCircle
 10
187.715141
 20
54.764757
 30
0.0
 40
0.224
100
AcDbArc
 50
16.94
 51
90.0
  0
LINE
  5
38C
100
AcDbEntity
  8
1
  6
CONTINUOUS
100
AcDbLine
 10
188.083141
 20
54.828757
 30
0.0
 11
187.928141
 21
54.828757
 31
0.0
  0
ARC
  5
38D
100
AcDbEntity
  8
1
  6
CONTINUOUS
100
AcDbCircle
 10
187.715141
 20
54.531757
 30
0.0
 40
0.419
100
AcDbArc
 50
194.435
 51
271.939
  0
LINE
  5
38E
100
AcDbEntity
  8
1
  6
CONTINUOUS
100
AcDbLine
 10
187.312141
 20
54.426757
 30
0.0
 11
187.471141
 21
54.426757
 31
0.0
  0
ARC
  5
38F
100
AcDbEntity
  8
1
  6
CONTINUOUS
100
AcDbCircle
 10
187.744141
 20
54.486757
 30
0.0
 40
0.224
100
AcDbArc
 50
262.54
 51
316.552
  0
ARC
  5
390
100
AcDbEntity
  8
1
  6
CONTINUOUS
100
AcDbCircle
 10
187.841141
 20
54.395757
 30
0.0
 40
0.09
100
AcDbArc
 50
316.552
 51
71.928
  0
LINE
  5
391
100
AcDbEntity
  8
1
  6
CONTINUOUS
100
AcDbLine
 10
187.868141
 20
54.479757
 30
0.0
 11
187.438141
 21
54.633757
 31
0.0
  0
ARC
  5
392
100
AcDbEntity
  8
1
  6
CONTINUOUS
100
AcDbCircle
 10
187.603141
 20
54.845757
 30
0.0
 40
0.09
100
AcDbArc
 50
166.751
 51
170.874
  0
ARC
  5
393
100
AcDbEntity
  8
1
  6
CONTINUOUS
100
AcDbCircle
 10
187.603141
 20
54.836757
 30
0.0
 40
0.09
100
AcDbArc
 50
147.404
 51
250.226
  0
ARC
  5
394
100
AcDbEntity
  8
1
  6
CONTINUOUS
100
AcDbCircle
 10
187.715141
 20
54.764757
 30
0.0
 40
0.224
100
AcDbArc
 50
90.0
 51
147.404
  0
LINE
  5
395
100
AcDbEntity
  8
1
  6
CONTINUOUS
100
AcDbLine
 10
187.975141
 20
54.608757
 30
0.0
 11
187.571141
 21
54.752757
 31
0.0
  0
ARC
  5
396
100
AcDbEntity
  8
1
  6
CONTINUOUS
100
AcDbCircle
 10
187.744141
 20
54.531757
 30
0.0
 40
0.419
100
AcDbArc
 50
268.061
 51
302.351
  0
ARC
  5
397
100
AcDbEntity
  8
1
  6
CONTINUOUS
100
AcDbCircle
 10
187.867141
 20
54.395757
 30
0.0
 40
0.239
100
AcDbArc
 50
294.888
 51
62.963
  0
ARC
  5
398
100
AcDbEntity
  8
1
  6
CONTINUOUS
100
AcDbCircle
 10
187.565141
 20
54.818757
 30
0.0
 40
0.224
100
AcDbArc
 50
158.643
 51
235.644
  0
ARC
  5
399
100
AcDbEntity
  8
1
  6
CONTINUOUS
100
AcDbCircle
 10
187.738141
 20
54.738757
 30
0.0
 40
0.419
100
AcDbArc
 50
92.495
 51
158.643
  0
LINE
  5
39A
100
AcDbEntity
  8
1
  6
CONTINUOUS
100
AcDbLine
 10
187.321141
 20
54.396757
 30
0.0
 11
187.481141
 21
54.396757
 31
0.0
  0
LINE
  5
39B
100
AcDbEntity
  8
1
  6
CONTINUOUS
100
AcDbLine
 10
187.331141
 20
54.366757
 30
0.0
 11
187.496141
 21
54.366757
 31
0.0
  0
LINE
  5
39C
100
AcDbEntity
  8
1
  6
CONTINUOUS
100
AcDbLine
 10
187.345141
 20
54.338757
 30
0.0
 11
187.519141
 21
54.338757
 31
0.0
  0
LINE
  5
39D
100
AcDbEntity
  8
1
  6
CONTINUOUS
100
AcDbLine
 10
187.384141
 20
54.278757
 30
0.0
 11
187.604141
 21
54.278757
 31
0.0
  0
LINE
  5
39E
100
AcDbEntity
  8
1
  6
CONTINUOUS
100
AcDbLine
 10
187.363141
 20
54.308757
 30
0.0
 11
187.552141
 21
54.308757
 31
0.0
  0
LINE
  5
39F
100
AcDbEntity
  8
1
  6
CONTINUOUS
100
AcDbLine
 10
187.604141
 20
54.129757
 30
0.0
 11
187.853141
 21
54.129757
 31
0.0
  0
LINE
  5
3A0
100
AcDbEntity
  8
1
  6
CONTINUOUS
100
AcDbLine
 10
187.528141
 20
54.159757
 30
0.0
 11
187.931141
 21
54.159757
 31
0.0
  0
LINE
  5
3A1
100
AcDbEntity
  8
1
  6
CONTINUOUS
100
AcDbLine
 10
187.477141
 20
54.188757
 30
0.0
 11
187.981141
 21
54.188757
 31
0.0
  0
LINE
  5
3A2
100
AcDbEntity
  8
1
  6
CONTINUOUS
100
AcDbLine
 10
187.439141
 20
54.218757
 30
0.0
 11
188.027141
 21
54.218757
 31
0.0
  0
LINE
  5
3A3
100
AcDbEntity
  8
1
  6
CONTINUOUS
100
AcDbLine
 10
187.408141
 20
54.248757
 30
0.0
 11
188.054141
 21
54.248757
 31
0.0
  0
LINE
  5
3A4
100
AcDbEntity
  8
1
  6
CONTINUOUS
100
AcDbLine
 10
187.823141
 20
54.278757
 30
0.0
 11
188.074141
 21
54.279757
 31
0.0
  0
LINE
  5
3A5
100
AcDbEntity
  8
1
  6
CONTINUOUS
100
AcDbLine
 10
187.877141
 20
54.308757
 30
0.0
 11
188.087141
 21
54.308757
 31
0.0
  0
LINE
  5
3A6
100
AcDbEntity
  8
1
  6
CONTINUOUS
100
AcDbLine
 10
187.909141
 20
54.338757
 30
0.0
 11
188.098141
 21
54.338757
 31
0.0
  0
LINE
  5
3A7
100
AcDbEntity
  8
1
  6
CONTINUOUS
100
AcDbLine
 10
187.931141
 20
54.396757
 30
0.0
 11
188.104141
 21
54.396757
 31
0.0
  0
LINE
  5
3A8
100
AcDbEntity
  8
1
  6
CONTINUOUS
100
AcDbLine
 10
187.925141
 20
54.368757
 30
0.0
 11
188.102141
 21
54.368757
 31
0.0
  0
LINE
  5
3A9
100
AcDbEntity
  8
1
  6
CONTINUOUS
100
AcDbLine
 10
187.924141
 20
54.426757
 30
0.0
 11
188.102141
 21
54.426757
 31
0.0
  0
LINE
  5
3AA
100
AcDbEntity
  8
1
  6
CONTINUOUS
100
AcDbLine
 10
187.904141
 20
54.456757
 30
0.0
 11
188.096141
 21
54.456757
 31
0.0
  0
LINE
  5
3AB
100
AcDbEntity
  8
1
  6
CONTINUOUS
100
AcDbLine
 10
187.847141
 20
54.486757
 30
0.0
 11
188.087141
 21
54.486757
 31
0.0
  0
LINE
  5
3AC
100
AcDbEntity
  8
1
  6
CONTINUOUS
100
AcDbLine
 10
187.765141
 20
54.516757
 30
0.0
 11
188.072141
 21
54.516757
 31
0.0
  0
LINE
  5
3AD
100
AcDbEntity
  8
1
  6
CONTINUOUS
100
AcDbLine
 10
187.682141
 20
54.546757
 30
0.0
 11
188.050141
 21
54.546757
 31
0.0
  0
LINE
  5
3AE
100
AcDbEntity
  8
1
  6
CONTINUOUS
100
AcDbLine
 10
187.600141
 20
54.575757
 30
0.0
 11
188.021141
 21
54.575757
 31
0.0
  0
LINE
  5
3AF
100
AcDbEntity
  8
1
  6
CONTINUOUS
100
AcDbLine
 10
187.517141
 20
54.605757
 30
0.0
 11
187.978141
 21
54.605757
 31
0.0
  0
LINE
  5
3B0
100
AcDbEntity
  8
1
  6
CONTINUOUS
100
AcDbLine
 10
187.436141
 20
54.636757
 30
0.0
 11
187.895141
 21
54.636757
 31
0.0
  0
LINE
  5
3B1
100
AcDbEntity
  8
1
  6
CONTINUOUS
100
AcDbLine
 10
187.402141
 20
54.665757
 30
0.0
 11
187.813141
 21
54.665757
 31
0.0
  0
LINE
  5
3B2
100
AcDbEntity
  8
1
  6
CONTINUOUS
100
AcDbLine
 10
187.378141
 20
54.695757
 30
0.0
 11
187.730141
 21
54.695757
 31
0.0
  0
LINE
  5
3B3
100
AcDbEntity
  8
1
  6
CONTINUOUS
100
AcDbLine
 10
187.361141
 20
54.725757
 30
0.0
 11
187.646141
 21
54.725757
 31
0.0
  0
LINE
  5
3B4
100
AcDbEntity
  8
1
  6
CONTINUOUS
100
AcDbLine
 10
187.351141
 20
54.755757
 30
0.0
 11
187.565141
 21
54.755757
 31
0.0
  0
LINE
  5
3B5
100
AcDbEntity
  8
1
  6
CONTINUOUS
100
AcDbLine
 10
187.343141
 20
54.783757
 30
0.0
 11
187.529141
 21
54.783757
 31
0.0
  0
LINE
  5
3B6
100
AcDbEntity
  8
1
  6
CONTINUOUS
100
AcDbLine
 10
187.340141
 20
54.815757
 30
0.0
 11
187.516141
 21
54.815757
 31
0.0
  0
LINE
  5
3B7
100
AcDbEntity
  8
1
  6
CONTINUOUS
100
AcDbLine
 10
187.343141
 20
54.843757
 30
0.0
 11
187.513141
 21
54.843757
 31
0.0
  0
LINE
  5
3B8
100
AcDbEntity
  8
1
  6
CONTINUOUS
100
AcDbLine
 10
187.348141
 20
54.873757
 30
0.0
 11
187.522141
 21
54.873757
 31
0.0
  0
LINE
  5
3B9
100
AcDbEntity
  8
1
  6
CONTINUOUS
100
AcDbLine
 10
187.358141
 20
54.903757
 30
0.0
 11
187.540141
 21
54.903757
 31
0.0
  0
LINE
  5
3BA
100
AcDbEntity
  8
1
  6
CONTINUOUS
100
AcDbLine
 10
187.369141
 20
54.933757
 30
0.0
 11
187.570141
 21
54.933757
 31
0.0
  0
LINE
  5
3BB
100
AcDbEntity
  8
1
  6
CONTINUOUS
100
AcDbLine
 10
187.387141
 20
54.963757
 30
0.0
 11
187.613141
 21
54.963757
 31
0.0
  0
LINE
  5
3BC
100
AcDbEntity
  8
1
  6
CONTINUOUS
100
AcDbLine
 10
187.924141
 20
54.843757
 30
0.0
 11
188.078141
 21
54.843757
 31
0.0
  0
LINE
  5
3BD
100
AcDbEntity
  8
1
  6
CONTINUOUS
100
AcDbLine
 10
187.909141
 20
54.873757
 30
0.0
 11
188.069141
 21
54.873757
 31
0.0
  0
LINE
  5
3BE
100
AcDbEntity
  8
1
  6
CONTINUOUS
100
AcDbLine
 10
187.889141
 20
54.903757
 30
0.0
 11
188.059141
 21
54.903757
 31
0.0
  0
LINE
  5
3BF
100
AcDbEntity
  8
1
  6
CONTINUOUS
100
AcDbLine
 10
187.861141
 20
54.933757
 30
0.0
 11
188.045141
 21
54.933757
 31
0.0
  0
LINE
  5
3C0
100
AcDbEntity
  8
1
  6
CONTINUOUS
100
AcDbLine
 10
187.816141
 20
54.963757
 30
0.0
 11
188.029141
 21
54.963757
 31
0.0
  0
LINE
  5
3C1
100
AcDbEntity
  8
1
  6
CONTINUOUS
100
AcDbLine
 10
187.432141
 20
55.023757
 30
0.0
 11
187.984141
 21
55.023757
 31
0.0
  0
LINE
  5
3C2
100
AcDbEntity
  8
1
  6
CONTINUOUS
100
AcDbLine
 10
187.463141
 20
55.053757
 30
0.0
 11
187.954141
 21
55.053757
 31
0.0
  0
LINE
  5
3C3
100
AcDbEntity
  8
1
  6
CONTINUOUS
100
AcDbLine
 10
187.501141
 20
55.082757
 30
0.0
 11
187.916141
 21
55.082757
 31
0.0
  0
LINE
  5
3C4
100
AcDbEntity
  8
1
  6
CONTINUOUS
100
AcDbLine
 10
187.552141
 20
55.110757
 30
0.0
 11
187.868141
 21
55.112757
 31
0.0
  0
LINE
  5
3C5
100
AcDbEntity
  8
1
  6
CONTINUOUS
100
AcDbLine
 10
187.631141
 20
55.140757
 30
0.0
 11
187.792141
 21
55.140757
 31
0.0
  0
ARC
  5
3C6
100
AcDbEntity
  8
1
  6
CONTINUOUS
100
AcDbCircle
 10
187.685141
 20
54.486757
 30
0.0
 40
0.224
100
AcDbArc
 50
195.387
 51
277.46
  0
LINE
  5
3C7
100
AcDbEntity
  8
1
  6
CONTINUOUS
100
AcDbLine
 10
187.406141
 20
54.993757
 30
0.0
 11
188.009141
 21
54.993757
 31
0.0
  0
LINE
  5
3C8
100
AcDbEntity
  8
1
  6
CONTINUOUS
100
AcDbLine
 10
188.848141
 20
54.903757
 30
0.0
 11
188.996141
 21
54.903757
 31
0.0
  0
LINE
  5
3C9
100
AcDbEntity
  8
1
  6
CONTINUOUS
100
AcDbLine
 10
188.207141
 20
54.873757
 30
0.0
 11
188.356141
 21
54.873757
 31
0.0
  0
LINE
  5
3CA
100
AcDbEntity
  8
1
  6
CONTINUOUS
100
AcDbLine
 10
188.848141
 20
54.873757
 30
0.0
 11
188.996141
 21
54.873757
 31
0.0
  0
LINE
  5
3CB
100
AcDbEntity
  8
1
  6
CONTINUOUS
100
AcDbLine
 10
188.207141
 20
54.843757
 30
0.0
 11
188.356141
 21
54.843757
 31
0.0
  0
LINE
  5
3CC
100
AcDbEntity
  8
1
  6
CONTINUOUS
100
AcDbLine
 10
188.848141
 20
54.843757
 30
0.0
 11
188.996141
 21
54.843757
 31
0.0
  0
LINE
  5
3CD
100
AcDbEntity
  8
1
  6
CONTINUOUS
100
AcDbLine
 10
188.207141
 20
54.815757
 30
0.0
 11
188.356141
 21
54.815757
 31
0.0
  0
LINE
  5
3CE
100
AcDbEntity
  8
1
  6
CONTINUOUS
100
AcDbLine
 10
188.848141
 20
54.815757
 30
0.0
 11
188.996141
 21
54.815757
 31
0.0
  0
LINE
  5
3CF
100
AcDbEntity
  8
1
  6
CONTINUOUS
100
AcDbLine
 10
188.207141
 20
54.783757
 30
0.0
 11
188.356141
 21
54.783757
 31
0.0
  0
LINE
  5
3D0
100
AcDbEntity
  8
1
  6
CONTINUOUS
100
AcDbLine
 10
188.848141
 20
54.783757
 30
0.0
 11
188.996141
 21
54.783757
 31
0.0
  0
LINE
  5
3D1
100
AcDbEntity
  8
1
  6
CONTINUOUS
100
AcDbLine
 10
188.207141
 20
54.755757
 30
0.0
 11
188.356141
 21
54.755757
 31
0.0
  0
LINE
  5
3D2
100
AcDbEntity
  8
1
  6
CONTINUOUS
100
AcDbLine
 10
188.848141
 20
54.755757
 30
0.0
 11
188.996141
 21
54.755757
 31
0.0
  0
LINE
  5
3D3
100
AcDbEntity
  8
1
  6
CONTINUOUS
100
AcDbLine
 10
188.207141
 20
54.725757
 30
0.0
 11
188.356141
 21
54.725757
 31
0.0
  0
LINE
  5
3D4
100
AcDbEntity
  8
1
  6
CONTINUOUS
100
AcDbLine
 10
188.848141
 20
54.725757
 30
0.0
 11
188.996141
 21
54.725757
 31
0.0
  0
LINE
  5
3D5
100
AcDbEntity
  8
1
  6
CONTINUOUS
100
AcDbLine
 10
188.207141
 20
54.695757
 30
0.0
 11
188.356141
 21
54.695757
 31
0.0
  0
LINE
  5
3D6
100
AcDbEntity
  8
1
  6
CONTINUOUS
100
AcDbLine
 10
188.848141
 20
54.695757
 30
0.0
 11
188.996141
 21
54.695757
 31
0.0
  0
LINE
  5
3D7
100
AcDbEntity
  8
1
  6
CONTINUOUS
100
AcDbLine
 10
188.207141
 20
54.665757
 30
0.0
 11
188.356141
 21
54.665757
 31
0.0
  0
LINE
  5
3D8
100
AcDbEntity
  8
1
  6
CONTINUOUS
100
AcDbLine
 10
188.848141
 20
54.665757
 30
0.0
 11
188.996141
 21
54.665757
 31
0.0
  0
LINE
  5
3D9
100
AcDbEntity
  8
1
  6
CONTINUOUS
100
AcDbLine
 10
188.207141
 20
54.636757
 30
0.0
 11
188.356141
 21
54.636757
 31
0.0
  0
LINE
  5
3DA
100
AcDbEntity
  8
1
  6
CONTINUOUS
100
AcDbLine
 10
188.848141
 20
54.636757
 30
0.0
 11
188.996141
 21
54.636757
 31
0.0
  0
LINE
  5
3DB
100
AcDbEntity
  8
1
  6
CONTINUOUS
100
AcDbLine
 10
188.207141
 20
54.605757
 30
0.0
 11
188.356141
 21
54.605757
 31
0.0
  0
LINE
  5
3DC
100
AcDbEntity
  8
1
  6
CONTINUOUS
100
AcDbLine
 10
188.848141
 20
54.605757
 30
0.0
 11
188.996141
 21
54.605757
 31
0.0
  0
LINE
  5
3DD
100
AcDbEntity
  8
1
  6
CONTINUOUS
100
AcDbLine
 10
188.207141
 20
54.575757
 30
0.0
 11
188.356141
 21
54.575757
 31
0.0
  0
LINE
  5
3DE
100
AcDbEntity
  8
1
  6
CONTINUOUS
100
AcDbLine
 10
188.848141
 20
54.575757
 30
0.0
 11
188.996141
 21
54.575757
 31
0.0
  0
LINE
  5
3DF
100
AcDbEntity
  8
1
  6
CONTINUOUS
100
AcDbLine
 10
188.207141
 20
54.546757
 30
0.0
 11
188.356141
 21
54.546757
 31
0.0
  0
LINE
  5
3E0
100
AcDbEntity
  8
1
  6
CONTINUOUS
100
AcDbLine
 10
188.848141
 20
54.546757
 30
0.0
 11
188.996141
 21
54.546757
 31
0.0
  0
LINE
  5
3E1
100
AcDbEntity
  8
1
  6
CONTINUOUS
100
AcDbLine
 10
188.207141
 20
54.516757
 30
0.0
 11
188.356141
 21
54.516757
 31
0.0
  0
LINE
  5
3E2
100
AcDbEntity
  8
1
  6
CONTINUOUS
100
AcDbLine
 10
188.848141
 20
54.516757
 30
0.0
 11
188.996141
 21
54.516757
 31
0.0
  0
LINE
  5
3E3
100
AcDbEntity
  8
1
  6
CONTINUOUS
100
AcDbLine
 10
188.207141
 20
54.486757
 30
0.0
 11
188.356141
 21
54.486757
 31
0.0
  0
LINE
  5
3E4
100
AcDbEntity
  8
1
  6
CONTINUOUS
100
AcDbLine
 10
188.848141
 20
54.486757
 30
0.0
 11
188.996141
 21
54.486757
 31
0.0
  0
LINE
  5
3E5
100
AcDbEntity
  8
1
  6
CONTINUOUS
100
AcDbLine
 10
188.725141
 20
54.279757
 30
0.0
 11
188.911141
 21
54.279757
 31
0.0
  0
LINE
  5
3E6
100
AcDbEntity
  8
1
  6
CONTINUOUS
100
AcDbLine
 10
188.767141
 20
54.308757
 30
0.0
 11
188.930141
 21
54.308757
 31
0.0
  0
LINE
  5
3E7
100
AcDbEntity
  8
1
  6
CONTINUOUS
100
AcDbLine
 10
188.794141
 20
54.338757
 30
0.0
 11
188.950141
 21
54.338757
 31
0.0
  0
LINE
  5
3E8
100
AcDbEntity
  8
1
  6
CONTINUOUS
100
AcDbLine
 10
188.815141
 20
54.368757
 30
0.0
 11
188.963141
 21
54.368757
 31
0.0
  0
LINE
  5
3E9
100
AcDbEntity
  8
1
  6
CONTINUOUS
100
AcDbLine
 10
188.830141
 20
54.396757
 30
0.0
 11
188.975141
 21
54.396757
 31
0.0
  0
LINE
  5
3EA
100
AcDbEntity
  8
1
  6
CONTINUOUS
100
AcDbLine
 10
188.840141
 20
54.426757
 30
0.0
 11
188.983141
 21
54.426757
 31
0.0
  0
LINE
  5
3EB
100
AcDbEntity
  8
1
  6
CONTINUOUS
100
AcDbLine
 10
188.845141
 20
54.456757
 30
0.0
 11
188.989141
 21
54.456757
 31
0.0
  0
LINE
  5
3EC
100
AcDbEntity
  8
1
  6
CONTINUOUS
100
AcDbLine
 10
188.848141
 20
54.486757
 30
0.0
 11
188.996141
 21
54.486757
 31
0.0
  0
LINE
  5
3ED
100
AcDbEntity
  8
1
  6
CONTINUOUS
100
AcDbLine
 10
188.209141
 20
54.486757
 30
0.0
 11
188.356141
 21
54.486757
 31
0.0
  0
LINE
  5
3EE
100
AcDbEntity
  8
1
  6
CONTINUOUS
100
AcDbLine
 10
188.215141
 20
54.456757
 30
0.0
 11
188.357141
 21
54.456757
 31
0.0
  0
LINE
  5
3EF
100
AcDbEntity
  8
1
  6
CONTINUOUS
100
AcDbLine
 10
188.219141
 20
54.426757
 30
0.0
 11
188.363141
 21
54.426757
 31
0.0
  0
LINE
  5
3F0
100
AcDbEntity
  8
1
  6
CONTINUOUS
100
AcDbLine
 10
188.228141
 20
54.396757
 30
0.0
 11
188.374141
 21
54.396757
 31
0.0
  0
LINE
  5
3F1
100
AcDbEntity
  8
1
  6
CONTINUOUS
100
AcDbLine
 10
188.240141
 20
54.368757
 30
0.0
 11
188.387141
 21
54.368757
 31
0.0
  0
LINE
  5
3F2
100
AcDbEntity
  8
1
  6
CONTINUOUS
100
AcDbLine
 10
188.254141
 20
54.338757
 30
0.0
 11
188.408141
 21
54.338757
 31
0.0
  0
LINE
  5
3F3
100
AcDbEntity
  8
1
  6
CONTINUOUS
100
AcDbLine
 10
188.272141
 20
54.308757
 30
0.0
 11
188.437141
 21
54.308757
 31
0.0
  0
LINE
  5
3F4
100
AcDbEntity
  8
1
  6
CONTINUOUS
100
AcDbLine
 10
188.293141
 20
54.279757
 30
0.0
 11
188.479141
 21
54.279757
 31
0.0
  0
LINE
  5
3F5
100
AcDbEntity
  8
1
  6
CONTINUOUS
100
AcDbLine
 10
188.317141
 20
54.248757
 30
0.0
 11
188.885141
 21
54.248757
 31
0.0
  0
LINE
  5
3F6
100
AcDbEntity
  8
1
  6
CONTINUOUS
100
AcDbLine
 10
188.348141
 20
54.218757
 30
0.0
 11
188.855141
 21
54.218757
 31
0.0
  0
LINE
  5
3F7
100
AcDbEntity
  8
1
  6
CONTINUOUS
100
AcDbLine
 10
188.386141
 20
54.188757
 30
0.0
 11
188.818141
 21
54.188757
 31
0.0
  0
LINE
  5
3F8
100
AcDbEntity
  8
1
  6
CONTINUOUS
100
AcDbLine
 10
188.435141
 20
54.159757
 30
0.0
 11
188.768141
 21
54.159757
 31
0.0
  0
LINE
  5
3F9
100
AcDbEntity
  8
1
  6
CONTINUOUS
100
AcDbLine
 10
188.512141
 20
54.129757
 30
0.0
 11
188.690141
 21
54.129757
 31
0.0
  0
LINE
  5
3FA
100
AcDbEntity
  8
1
  6
CONTINUOUS
100
AcDbLine
 10
189.122141
 20
55.119757
 30
0.0
 11
189.665141
 21
55.119757
 31
0.0
  0
LINE
  5
3FB
100
AcDbEntity
  8
1
  6
CONTINUOUS
100
AcDbLine
 10
189.122141
 20
55.089757
 30
0.0
 11
189.719141
 21
55.089757
 31
0.0
  0
LINE
  5
3FC
100
AcDbEntity
  8
1
  6
CONTINUOUS
100
AcDbLine
 10
189.122141
 20
55.059757
 30
0.0
 11
189.754141
 21
55.059757
 31
0.0
  0
LINE
  5
3FD
100
AcDbEntity
  8
1
  6
CONTINUOUS
100
AcDbLine
 10
189.122141
 20
55.029757
 30
0.0
 11
189.781141
 21
55.029757
 31
0.0
  0
LINE
  5
3FE
100
AcDbEntity
  8
1
  6
CONTINUOUS
100
AcDbLine
 10
189.122141
 20
54.999757
 30
0.0
 11
189.800141
 21
54.999757
 31
0.0
  0
LINE
  5
3FF
100
AcDbEntity
  8
1
  6
CONTINUOUS
100
AcDbLine
 10
189.271141
 20
54.702757
 30
0.0
 11
189.775141
 21
54.702757
 31
0.0
  0
LINE
  5
400
100
AcDbEntity
  8
1
  6
CONTINUOUS
100
AcDbLine
 10
189.271141
 20
54.672757
 30
0.0
 11
189.733141
 21
54.672757
 31
0.0
  0
LINE
  5
401
100
AcDbEntity
  8
1
  6
CONTINUOUS
100
AcDbLine
 10
189.271141
 20
54.642757
 30
0.0
 11
189.622141
 21
54.642757
 31
0.0
  0
LINE
  5
402
100
AcDbEntity
  8
1
  6
CONTINUOUS
100
AcDbLine
 10
189.271141
 20
54.612757
 30
0.0
 11
189.772141
 21
54.612757
 31
0.0
  0
LINE
  5
403
100
AcDbEntity
  8
1
  6
CONTINUOUS
100
AcDbLine
 10
189.271141
 20
54.584757
 30
0.0
 11
189.814141
 21
54.584757
 31
0.0
  0
LINE
  5
404
100
AcDbEntity
  8
1
  6
CONTINUOUS
100
AcDbLine
 10
189.122141
 20
54.255757
 30
0.0
 11
189.833141
 21
54.255757
 31
0.0
  0
LINE
  5
405
100
AcDbEntity
  8
1
  6
CONTINUOUS
100
AcDbLine
 10
189.122141
 20
54.225757
 30
0.0
 11
189.812141
 21
54.225757
 31
0.0
  0
LINE
  5
406
100
AcDbEntity
  8
1
  6
CONTINUOUS
100
AcDbLine
 10
189.122141
 20
54.195757
 30
0.0
 11
189.781141
 21
54.195757
 31
0.0
  0
LINE
  5
407
100
AcDbEntity
  8
1
  6
CONTINUOUS
100
AcDbLine
 10
189.122141
 20
54.167757
 30
0.0
 11
189.742141
 21
54.167757
 31
0.0
  0
LINE
  5
408
100
AcDbEntity
  8
1
  6
CONTINUOUS
100
AcDbLine
 10
189.122141
 20
54.137757
 30
0.0
 11
189.677141
 21
54.137757
 31
0.0
  0
LINE
  5
409
100
AcDbEntity
  8
1
  6
CONTINUOUS
100
AcDbLine
 10
189.122141
 20
54.464757
 30
0.0
 11
189.271141
 21
54.464757
 31
0.0
  0
LINE
  5
40A
100
AcDbEntity
  8
1
  6
CONTINUOUS
100
AcDbLine
 10
189.122141
 20
54.494757
 30
0.0
 11
189.271141
 21
54.494757
 31
0.0
  0
LINE
  5
40B
100
AcDbEntity
  8
1
  6
CONTINUOUS
100
AcDbLine
 10
189.122141
 20
54.524757
 30
0.0
 11
189.271141
 21
54.524757
 31
0.0
  0
LINE
  5
40C
100
AcDbEntity
  8
1
  6
CONTINUOUS
100
AcDbLine
 10
189.122141
 20
54.554757
 30
0.0
 11
189.271141
 21
54.554757
 31
0.0
  0
LINE
  5
40D
100
AcDbEntity
  8
1
  6
CONTINUOUS
100
AcDbLine
 10
189.622141
 20
54.642757
 30
0.0
 11
189.700141
 21
54.642757
 31
0.0
  0
LINE
  5
40E
100
AcDbEntity
  8
1
  6
CONTINUOUS
100
AcDbLine
 10
189.691141
 20
54.315757
 30
0.0
 11
189.865141
 21
54.315757
 31
0.0
  0
ARC
  5
40F
100
AcDbEntity
  8
1
  6
CONTINUOUS
100
AcDbCircle
 10
189.584141
 20
54.420757
 30
0.0
 40
0.15
100
AcDbArc
 50
315.493
 51
92.559
  0
LINE
  5
410
100
AcDbEntity
  8
1
  6
CONTINUOUS
100
AcDbLine
 10
189.727141
 20
54.374757
 30
0.0
 11
189.880141
 21
54.374757
 31
0.0
  0
LINE
  5
411
100
AcDbEntity
  8
1
  6
CONTINUOUS
100
AcDbLine
 10
189.733141
 20
54.404757
 30
0.0
 11
189.883141
 21
54.404757
 31
0.0
  0
LINE
  5
412
100
AcDbEntity
  8
1
  6
CONTINUOUS
100
AcDbLine
 10
189.733141
 20
54.434757
 30
0.0
 11
189.883141
 21
54.434757
 31
0.0
  0
LINE
  5
413
100
AcDbEntity
  8
1
  6
CONTINUOUS
100
AcDbLine
 10
189.727141
 20
54.464757
 30
0.0
 11
189.880141
 21
54.464757
 31
0.0
  0
LINE
  5
414
100
AcDbEntity
  8
1
  6
CONTINUOUS
100
AcDbLine
 10
189.713141
 20
54.494757
 30
0.0
 11
189.874141
 21
54.494757
 31
0.0
  0
LINE
  5
415
100
AcDbEntity
  8
1
  6
CONTINUOUS
100
AcDbLine
 10
189.691141
 20
54.524757
 30
0.0
 11
189.865141
 21
54.524757
 31
0.0
  0
LINE
  5
416
100
AcDbEntity
  8
1
  6
CONTINUOUS
100
AcDbLine
 10
189.649141
 20
54.554757
 30
0.0
 11
189.844141
 21
54.554757
 31
0.0
  0
LINE
  5
417
100
AcDbEntity
  8
1
  6
CONTINUOUS
100
AcDbLine
 10
189.649141
 20
54.284757
 30
0.0
 11
189.851141
 21
54.284757
 31
0.0
  0
LINE
  5
418
100
AcDbEntity
  8
1
  6
CONTINUOUS
100
AcDbLine
 10
189.629141
 20
54.969757
 30
0.0
 11
189.815141
 21
54.969757
 31
0.0
  0
LINE
  5
419
100
AcDbEntity
  8
1
  6
CONTINUOUS
100
AcDbLine
 10
189.661141
 20
54.939757
 30
0.0
 11
189.826141
 21
54.939757
 31
0.0
  0
LINE
  5
41A
100
AcDbEntity
  8
1
  6
CONTINUOUS
100
AcDbLine
 10
189.679141
 20
54.911757
 30
0.0
 11
189.833141
 21
54.911757
 31
0.0
  0
LINE
  5
41B
100
AcDbEntity
  8
1
  6
CONTINUOUS
100
AcDbLine
 10
189.686141
 20
54.882757
 30
0.0
 11
189.836141
 21
54.882757
 31
0.0
  0
LINE
  5
41C
100
AcDbEntity
  8
1
  6
CONTINUOUS
100
AcDbLine
 10
189.689141
 20
54.852757
 30
0.0
 11
189.838141
 21
54.852757
 31
0.0
  0
LINE
  5
41D
100
AcDbEntity
  8
1
  6
CONTINUOUS
100
AcDbLine
 10
189.683141
 20
54.822757
 30
0.0
 11
189.836141
 21
54.822757
 31
0.0
  0
LINE
  5
41E
100
AcDbEntity
  8
1
  6
CONTINUOUS
100
AcDbLine
 10
189.671141
 20
54.792757
 30
0.0
 11
189.830141
 21
54.792757
 31
0.0
  0
LINE
  5
41F
100
AcDbEntity
  8
1
  6
CONTINUOUS
100
AcDbLine
 10
189.647141
 20
54.762757
 30
0.0
 11
189.821141
 21
54.762757
 31
0.0
  0
LINE
  5
420
100
AcDbEntity
  8
1
  6
CONTINUOUS
100
AcDbLine
 10
189.599141
 20
54.732757
 30
0.0
 11
189.800141
 21
54.732757
 31
0.0
  0
LINE
  5
421
100
AcDbEntity
  8
1
  6
CONTINUOUS
100
AcDbLine
 10
189.713141
 20
54.345757
 30
0.0
 11
189.874141
 21
54.345757
 31
0.0
  0
LINE
  5
422
100
AcDbEntity
  8
1
  6
CONTINUOUS
100
AcDbLine
 10
102.959141
 20
46.362757
 30
0.0
 11
103.123141
 21
44.717757
 31
0.0
  0
LINE
  5
423
100
AcDbEntity
  8
1
  6
CONTINUOUS
100
AcDbLine
 10
107.356141
 20
44.717757
 30
0.0
 11
107.521141
 21
46.362757
 31
0.0
  0
LINE
  5
424
100
AcDbEntity
  8
1
  6
CONTINUOUS
100
AcDbLine
 10
103.123141
 20
44.717757
 30
0.0
 11
107.356141
 21
44.717757
 31
0.0
  0
LINE
  5
425
100
AcDbEntity
  8
1
  6
CONTINUOUS
100
AcDbLine
 10
182.902141
 20
46.362757
 30
0.0
 11
183.065141
 21
44.717757
 31
0.0
  0
LINE
  5
426
100
AcDbEntity
  8
1
  6
CONTINUOUS
100
AcDbLine
 10
187.298141
 20
44.717757
 30
0.0
 11
187.463141
 21
46.362757
 31
0.0
  0
LINE
  5
427
100
AcDbEntity
  8
1
  6
CONTINUOUS
100
AcDbLine
 10
183.065141
 20
44.717757
 30
0.0
 11
187.298141
 21
44.717757
 31
0.0
  0
LINE
  5
428
100
AcDbEntity
  8
1
  6
CONTINUOUS
100
AcDbLine
 10
62.681141
 20
134.064757
 30
0.0
 11
62.681141
 21
129.833757
 31
0.0
  0
LINE
  5
429
100
AcDbEntity
  8
1
  6
CONTINUOUS
100
AcDbLine
 10
65.033141
 20
129.597757
 30
0.0
 11
62.681141
 21
129.833757
 31
0.0
  0
LINE
  5
42A
100
AcDbEntity
  8
1
  6
CONTINUOUS
100
AcDbLine
 10
62.681141
 20
134.064757
 30
0.0
 11
65.033141
 21
134.300757
 31
0.0
  0
LINE
  5
42B
100
AcDbEntity
  8
1
  6
CONTINUOUS
100
AcDbLine
 10
65.033141
 20
84.923757
 30
0.0
 11
62.681141
 21
85.158757
 31
0.0
  0
LINE
  5
42C
100
AcDbEntity
  8
1
  6
CONTINUOUS
100
AcDbLine
 10
62.681141
 20
89.390757
 30
0.0
 11
65.033141
 21
89.625757
 31
0.0
  0
LINE
  5
42D
100
AcDbEntity
  8
1
  6
CONTINUOUS
100
AcDbLine
 10
62.681141
 20
89.390757
 30
0.0
 11
62.681141
 21
85.158757
 31
0.0
  0
CIRCLE
  5
42E
100
AcDbEntity
  8
2
  6
CONTINUOUS
100
AcDbCircle
 10
105.334141
 20
160.352757
 30
0.0
 40
1.059
  0
CIRCLE
  5
42F
100
AcDbEntity
  8
2
  6
CONTINUOUS
100
AcDbCircle
 10
105.334141
 20
160.352757
 30
0.0
 40
0.824
  0
LINE
  5
430
100
AcDbEntity
  8
2
  6
CONTINUOUS
100
AcDbLine
 10
105.665141
 20
160.683757
 30
0.0
 11
105.001141
 21
160.019757
 31
0.0
  0
LINE
  5
431
100
AcDbEntity
  8
2
  6
CONTINUOUS
100
AcDbLine
 10
105.665141
 20
160.019757
 30
0.0
 11
105.001141
 21
160.683757
 31
0.0
  0
LINE
  5
432
100
AcDbEntity
  8
2
  6
CONTINUOUS
100
AcDbLine
 10
105.334141
 20
161.270757
 30
0.0
 11
105.334141
 21
161.739757
 31
0.0
  0
LINE
  5
433
100
AcDbEntity
  8
2
  6
CONTINUOUS
100
AcDbLine
 10
105.451141
 20
162.116757
 30
0.0
 11
105.217141
 21
162.116757
 31
0.0
  0
LINE
  5
434
100
AcDbEntity
  8
2
  6
CONTINUOUS
100
AcDbLine
 10
105.568141
 20
161.928757
 30
0.0
 11
105.098141
 21
161.928757
 31
0.0
  0
LINE
  5
435
100
AcDbEntity
  8
2
  6
CONTINUOUS
100
AcDbLine
 10
105.686141
 20
161.739757
 30
0.0
 11
104.981141
 21
161.739757
 31
0.0
  0
TEXT
  5
436
100
AcDbEntity
  8
2
100
AcDbText
 10
177.682141
 20
137.357757
 30
0.0
 40
0.469
  1
１．この上には映像出力用モニタ（重量１６ｋｇ以下）以外のも
 41
0.91
  7
KANJI
100
AcDbText
  0
TEXT
  5
437
100
AcDbEntity
  8
2
100
AcDbText
 10
177.682141
 20
136.650757
 30
0.0
 40
0.469
  1
　　のはのせないでください。
 41
0.902
  7
KANJI
100
AcDbText
  0
TEXT
  5
438
100
AcDbEntity
  8
2
100
AcDbText
 10
177.682141
 20
135.945757
 30
0.0
 40
0.469
  1
２．サ－ビスマン以外の方は、カバ－を開けないで下さい。内部
 41
0.91
  7
KANJI
100
AcDbText
  0
TEXT
  5
439
100
AcDbEntity
  8
2
100
AcDbText
 10
177.682141
 20
135.240757
 30
0.0
 40
0.469
  1
　　には、高電圧部分が数多くあり、万一さわると危険です。
 41
0.91
  7
KANJI
100
AcDbText
  0
ARC
  5
43A
100
AcDbEntity
  8
2
  6
CONTINUOUS
100
AcDbCircle
 10
183.737141
 20
139.520757
 30
0.0
 40
0.036
100
AcDbArc
 50
30.579
 51
149.421
  0
CIRCLE
  5
43B
100
AcDbEntity
  8
2
  6
CONTINUOUS
100
AcDbCircle
 10
183.737141
 20
138.473757
 30
0.0
 40
0.06
  0
ARC
  5
43C
100
AcDbEntity
  8
2
  6
CONTINUOUS
100
AcDbCircle
 10
183.737141
 20
139.089757
 30
0.0
 40
0.089
100
AcDbArc
 50
0.0
 51
180.0
  0
LINE
  5
43D
100
AcDbEntity
  8
2
  6
CONTINUOUS
100
AcDbLine
 10
183.649141
 20
139.089757
 30
0.0
 11
183.737141
 21
138.590757
 31
0.0
  0
LINE
  5
43E
100
AcDbEntity
  8
2
  6
CONTINUOUS
100
AcDbLine
 10
183.737141
 20
138.590757
 30
0.0
 11
183.826141
 21
139.089757
 31
0.0
  0
LINE
  5
43F
100
AcDbEntity
  8
2
  6
CONTINUOUS
100
AcDbLine
 10
183.004141
 20
138.350757
 30
0.0
 11
183.706141
 21
139.538757
 31
0.0
  0
ARC
  5
440
100
AcDbEntity
  8
2
  6
CONTINUOUS
100
AcDbCircle
 10
183.034141
 20
138.332757
 30
0.0
 40
0.036
100
AcDbArc
 50
149.421
 51
270.0
  0
LINE
  5
441
100
AcDbEntity
  8
2
  6
CONTINUOUS
100
AcDbLine
 10
183.767141
 20
139.538757
 30
0.0
 11
184.469141
 21
138.350757
 31
0.0
  0
ARC
  5
442
100
AcDbEntity
  8
2
  6
CONTINUOUS
100
AcDbCircle
 10
184.439141
 20
138.332757
 30
0.0
 40
0.036
100
AcDbArc
 50
270.0
 51
30.579
  0
LINE
  5
443
100
AcDbEntity
  8
2
  6
CONTINUOUS
100
AcDbLine
 10
184.439141
 20
138.297757
 30
0.0
 11
183.034141
 21
138.297757
 31
0.0
  0
TEXT
  5
444
100
AcDbEntity
  8
2
100
AcDbText
 10
184.744141
 20
138.284757
 30
0.0
 40
1.269
  1
注意
 41
0.787
  7
KANJI
100
AcDbText
  0
LINE
  5
445
100
AcDbEntity
  8
2
  6
CONTINUOUS
100
AcDbLine
 10
183.677141
 20
138.473757
 30
0.0
 11
183.796141
 21
138.473757
 31
0.0
  0
LINE
  5
446
100
AcDbEntity
  8
2
  6
CONTINUOUS
100
AcDbLine
 10
183.703141
 20
138.426757
 30
0.0
 11
183.770141
 21
138.426757
 31
0.0
  0
LINE
  5
447
100
AcDbEntity
  8
2
  6
CONTINUOUS
100
AcDbLine
 10
183.703141
 20
138.519757
 30
0.0
 11
183.770141
 21
138.519757
 31
0.0
  0
LINE
  5
448
100
AcDbEntity
  8
2
  6
CONTINUOUS
100
AcDbLine
 10
183.685141
 20
138.884757
 30
0.0
 11
183.788141
 21
138.884757
 31
0.0
  0
LINE
  5
449
100
AcDbEntity
  8
2
  6
CONTINUOUS
100
AcDbLine
 10
183.694141
 20
138.837757
 30
0.0
 11
183.779141
 21
138.837757
 31
0.0
  0
LINE
  5
44A
100
AcDbEntity
  8
2
  6
CONTINUOUS
100
AcDbLine
 10
183.701141
 20
138.789757
 30
0.0
 11
183.770141
 21
138.789757
 31
0.0
  0
LINE
  5
44B
100
AcDbEntity
  8
2
  6
CONTINUOUS
100
AcDbLine
 10
183.710141
 20
138.743757
 30
0.0
 11
183.763141
 21
138.743757
 31
0.0
  0
LINE
  5
44C
100
AcDbEntity
  8
2
  6
CONTINUOUS
100
AcDbLine
 10
183.718141
 20
138.696757
 30
0.0
 11
183.755141
 21
138.696757
 31
0.0
  0
LINE
  5
44D
100
AcDbEntity
  8
2
  6
CONTINUOUS
100
AcDbLine
 10
183.727141
 20
138.648757
 30
0.0
 11
183.748141
 21
138.648757
 31
0.0
  0
LINE
  5
44E
100
AcDbEntity
  8
2
  6
CONTINUOUS
100
AcDbLine
 10
183.734141
 20
138.602757
 30
0.0
 11
183.739141
 21
138.602757
 31
0.0
  0
LINE
  5
44F
100
AcDbEntity
  8
2
  6
CONTINUOUS
100
AcDbLine
 10
183.676141
 20
138.930757
 30
0.0
 11
183.797141
 21
138.930757
 31
0.0
  0
LINE
  5
450
100
AcDbEntity
  8
2
  6
CONTINUOUS
100
AcDbLine
 10
183.668141
 20
138.978757
 30
0.0
 11
183.805141
 21
138.978757
 31
0.0
  0
LINE
  5
451
100
AcDbEntity
  8
2
  6
CONTINUOUS
100
AcDbLine
 10
183.659141
 20
139.025757
 30
0.0
 11
183.812141
 21
139.025757
 31
0.0
  0
LINE
  5
452
100
AcDbEntity
  8
2
  6
CONTINUOUS
100
AcDbLine
 10
183.653141
 20
139.073757
 30
0.0
 11
183.821141
 21
139.073757
 31
0.0
  0
LINE
  5
453
100
AcDbEntity
  8
2
  6
CONTINUOUS
100
AcDbLine
 10
183.655141
 20
139.119757
 30
0.0
 11
183.820141
 21
139.119757
 31
0.0
  0
LINE
  5
454
100
AcDbEntity
  8
2
  6
CONTINUOUS
100
AcDbLine
 10
183.692141
 20
139.166757
 30
0.0
 11
183.781141
 21
139.166757
 31
0.0
  0
CIRCLE
  5
455
100
AcDbEntity
  8
2
  6
CONTINUOUS
100
AcDbCircle
 10
111.635141
 20
158.565757
 30
0.0
 40
1.53
  0
CIRCLE
  5
456
100
AcDbEntity
  8
2
  6
CONTINUOUS
100
AcDbCircle
 10
116.338141
 20
158.565757
 30
0.0
 40
1.53
  0
CIRCLE
  5
457
100
AcDbEntity
  8
2
  6
CONTINUOUS
100
AcDbCircle
 10
121.040141
 20
158.565757
 30
0.0
 40
1.53
  0
CIRCLE
  5
458
100
AcDbEntity
  8
2
  6
CONTINUOUS
100
AcDbCircle
 10
125.743141
 20
158.565757
 30
0.0
 40
1.53
  0
CIRCLE
  5
459
100
AcDbEntity
  8
2
  6
CONTINUOUS
100
AcDbCircle
 10
144.553141
 20
158.565757
 30
0.0
 40
1.53
  0
CIRCLE
  5
45A
100
AcDbEntity
  8
2
  6
CONTINUOUS
100
AcDbCircle
 10
139.850141
 20
158.565757
 30
0.0
 40
1.53
  0
CIRCLE
  5
45B
100
AcDbEntity
  8
2
  6
CONTINUOUS
100
AcDbCircle
 10
135.148141
 20
158.565757
 30
0.0
 40
1.53
  0
CIRCLE
  5
45C
100
AcDbEntity
  8
2
  6
CONTINUOUS
100
AcDbCircle
 10
130.445141
 20
158.565757
 30
0.0
 40
1.53
  0
CIRCLE
  5
45D
100
AcDbEntity
  8
2
  6
CONTINUOUS
100
AcDbCircle
 10
178.880141
 20
159.035757
 30
0.0
 40
1.764
  0
CIRCLE
  5
45E
100
AcDbEntity
  8
2
  6
CONTINUOUS
100
AcDbCircle
 10
151.370141
 20
160.446757
 30
0.0
 40
0.272
  0
CIRCLE
  5
45F
100
AcDbEntity
  8
2
  6
CONTINUOUS
100
AcDbCircle
 10
159.835141
 20
160.446757
 30
0.0
 40
0.272
  0
CIRCLE
  5
460
100
AcDbEntity
  8
2
  6
CONTINUOUS
100
AcDbCircle
 10
161.951141
 20
159.035757
 30
0.0
 40
1.764
  0
CIRCLE
  5
461
100
AcDbEntity
  8
2
  6
CONTINUOUS
100
AcDbCircle
 10
157.720141
 20
159.035757
 30
0.0
 40
1.764
  0
CIRCLE
  5
462
100
AcDbEntity
  8
2
  6
CONTINUOUS
100
AcDbCircle
 10
153.487141
 20
159.035757
 30
0.0
 40
1.764
  0
CIRCLE
  5
463
100
AcDbEntity
  8
2
  6
CONTINUOUS
100
AcDbCircle
 10
149.255141
 20
159.035757
 30
0.0
 40
1.764
  0
CIRCLE
  5
464
100
AcDbEntity
  8
2
  6
CONTINUOUS
100
AcDbCircle
 10
168.299141
 20
160.446757
 30
0.0
 40
0.272
  0
CIRCLE
  5
465
100
AcDbEntity
  8
2
  6
CONTINUOUS
100
AcDbCircle
 10
176.764141
 20
160.446757
 30
0.0
 40
0.272
  0
CIRCLE
  5
466
100
AcDbEntity
  8
2
  6
CONTINUOUS
100
AcDbCircle
 10
174.649141
 20
159.035757
 30
0.0
 40
1.764
  0
CIRCLE
  5
467
100
AcDbEntity
  8
2
  6
CONTINUOUS
100
AcDbCircle
 10
170.416141
 20
159.035757
 30
0.0
 40
1.764
  0
CIRCLE
  5
468
100
AcDbEntity
  8
2
  6
CONTINUOUS
100
AcDbCircle
 10
166.184141
 20
159.035757
 30
0.0
 40
1.764
  0
LINE
  5
469
100
AcDbEntity
  8
2
  6
CONTINUOUS
100
AcDbLine
 10
96.352141
 20
162.984757
 30
0.0
 11
194.069141
 21
162.984757
 31
0.0
  0
LINE
  5
46A
100
AcDbEntity
  8
2
  6
CONTINUOUS
100
AcDbLine
 10
65.033141
 20
140.930757
 30
0.0
 11
65.033141
 21
81.396757
 31
0.0
  0
LINE
  5
46B
100
AcDbEntity
  8
3
  6
CONTINUOUS
100
AcDbLine
 10
194.941141
 20
83.747757
 30
0.0
 11
194.717141
 21
83.525757
 31
0.0
  0
LINE
  5
46C
100
AcDbEntity
  8
3
  6
CONTINUOUS
100
AcDbLine
 10
194.941141
 20
83.747757
 30
0.0
 11
194.717141
 21
83.970757
 31
0.0
  0
LINE
  5
46D
100
AcDbEntity
  8
3
  6
CONTINUOUS
100
AcDbLine
 10
194.573141
 20
82.937757
 30
0.0
 11
194.573141
 21
84.558757
 31
0.0
  0
LINE
  5
46E
100
AcDbEntity
  8
3
  6
CONTINUOUS
100
AcDbLine
 10
194.492141
 20
82.937757
 30
0.0
 11
194.492141
 21
84.558757
 31
0.0
  0
LINE
  5
46F
100
AcDbEntity
  8
3
  6
CONTINUOUS
100
AcDbLine
 10
194.492141
 20
82.937757
 30
0.0
 11
194.573141
 21
82.937757
 31
0.0
  0
LINE
  5
470
100
AcDbEntity
  8
3
  6
CONTINUOUS
100
AcDbLine
 10
194.492141
 20
84.558757
 30
0.0
 11
194.573141
 21
84.558757
 31
0.0
  0
ARC
  5
471
100
AcDbEntity
  8
3
  6
CONTINUOUS
100
AcDbCircle
 10
193.859141
 20
83.747757
 30
0.0
 40
1.082
100
AcDbArc
 50
311.41
 51
48.59
  0
LINE
  5
472
100
AcDbEntity
  8
3
  6
CONTINUOUS
100
AcDbLine
 10
95.282141
 20
79.749757
 30
0.0
 11
95.561141
 21
79.470757
 31
0.0
  0
LINE
  5
473
100
AcDbEntity
  8
3
  6
CONTINUOUS
100
AcDbLine
 10
95.282141
 20
79.749757
 30
0.0
 11
95.561141
 21
80.030757
 31
0.0
  0
LINE
  5
474
100
AcDbEntity
  8
3
  6
CONTINUOUS
100
AcDbLine
 10
95.740141
 20
78.737757
 30
0.0
 11
95.740141
 21
80.763757
 31
0.0
  0
LINE
  5
475
100
AcDbEntity
  8
3
  6
CONTINUOUS
100
AcDbLine
 10
95.842141
 20
78.737757
 30
0.0
 11
95.842141
 21
80.763757
 31
0.0
  0
LINE
  5
476
100
AcDbEntity
  8
3
  6
CONTINUOUS
100
AcDbLine
 10
95.842141
 20
78.737757
 30
0.0
 11
95.740141
 21
78.737757
 31
0.0
  0
LINE
  5
477
100
AcDbEntity
  8
3
  6
CONTINUOUS
100
AcDbLine
 10
95.842141
 20
80.763757
 30
0.0
 11
95.740141
 21
80.763757
 31
0.0
  0
ARC
  5
478
100
AcDbEntity
  8
3
  6
CONTINUOUS
100
AcDbCircle
 10
96.634141
 20
79.749757
 30
0.0
 40
1.353
100
AcDbArc
 50
131.41
 51
228.59
  0
LINE
  5
479
100
AcDbEntity
  8
3
  6
CONTINUOUS
100
AcDbLine
 10
95.482141
 20
83.747757
 30
0.0
 11
95.704141
 21
83.525757
 31
0.0
  0
LINE
  5
47A
100
AcDbEntity
  8
3
  6
CONTINUOUS
100
AcDbLine
 10
95.482141
 20
83.747757
 30
0.0
 11
95.704141
 21
83.970757
 31
0.0
  0
LINE
  5
47B
100
AcDbEntity
  8
3
  6
CONTINUOUS
100
AcDbLine
 10
95.848141
 20
82.937757
 30
0.0
 11
95.848141
 21
84.558757
 31
0.0
  0
LINE
  5
47C
100
AcDbEntity
  8
3
  6
CONTINUOUS
100
AcDbLine
 10
95.929141
 20
82.937757
 30
0.0
 11
95.929141
 21
84.558757
 31
0.0
  0
LINE
  5
47D
100
AcDbEntity
  8
3
  6
CONTINUOUS
100
AcDbLine
 10
95.929141
 20
82.937757
 30
0.0
 11
95.848141
 21
82.937757
 31
0.0
  0
LINE
  5
47E
100
AcDbEntity
  8
3
  6
CONTINUOUS
100
AcDbLine
 10
95.929141
 20
84.558757
 30
0.0
 11
95.848141
 21
84.558757
 31
0.0
  0
ARC
  5
47F
100
AcDbEntity
  8
3
  6
CONTINUOUS
100
AcDbCircle
 10
96.563141
 20
83.747757
 30
0.0
 40
1.082
100
AcDbArc
 50
131.41
 51
228.59
  0
LINE
  5
480
100
AcDbEntity
  8
3
  6
CONTINUOUS
100
AcDbLine
 10
95.488141
 20
136.650757
 30
0.0
 11
95.711141
 21
136.427757
 31
0.0
  0
LINE
  5
481
100
AcDbEntity
  8
3
  6
CONTINUOUS
100
AcDbLine
 10
95.488141
 20
136.650757
 30
0.0
 11
95.711141
 21
136.874757
 31
0.0
  0
LINE
  5
482
100
AcDbEntity
  8
3
  6
CONTINUOUS
100
AcDbLine
 10
95.854141
 20
135.839757
 30
0.0
 11
95.854141
 21
137.462757
 31
0.0
  0
LINE
  5
483
100
AcDbEntity
  8
3
  6
CONTINUOUS
100
AcDbLine
 10
95.935141
 20
135.839757
 30
0.0
 11
95.935141
 21
137.462757
 31
0.0
  0
LINE
  5
484
100
AcDbEntity
  8
3
  6
CONTINUOUS
100
AcDbLine
 10
95.935141
 20
135.839757
 30
0.0
 11
95.854141
 21
135.839757
 31
0.0
  0
LINE
  5
485
100
AcDbEntity
  8
3
  6
CONTINUOUS
100
AcDbLine
 10
95.935141
 20
137.462757
 30
0.0
 11
95.854141
 21
137.462757
 31
0.0
  0
ARC
  5
486
100
AcDbEntity
  8
3
  6
CONTINUOUS
100
AcDbCircle
 10
96.569141
 20
136.650757
 30
0.0
 40
1.082
100
AcDbArc
 50
131.41
 51
228.59
  0
LINE
  5
487
100
AcDbEntity
  8
3
  6
CONTINUOUS
100
AcDbLine
 10
194.935141
 20
136.650757
 30
0.0
 11
194.710141
 21
136.427757
 31
0.0
  0
LINE
  5
488
100
AcDbEntity
  8
3
  6
CONTINUOUS
100
AcDbLine
 10
194.935141
 20
136.650757
 30
0.0
 11
194.710141
 21
136.874757
 31
0.0
  0
LINE
  5
489
100
AcDbEntity
  8
3
  6
CONTINUOUS
100
AcDbLine
 10
194.567141
 20
135.839757
 30
0.0
 11
194.567141
 21
137.462757
 31
0.0
  0
LINE
  5
48A
100
AcDbEntity
  8
3
  6
CONTINUOUS
100
AcDbLine
 10
194.488141
 20
135.839757
 30
0.0
 11
194.488141
 21
137.462757
 31
0.0
  0
LINE
  5
48B
100
AcDbEntity
  8
3
  6
CONTINUOUS
100
AcDbLine
 10
194.488141
 20
135.839757
 30
0.0
 11
194.567141
 21
135.839757
 31
0.0
  0
LINE
  5
48C
100
AcDbEntity
  8
3
  6
CONTINUOUS
100
AcDbLine
 10
194.488141
 20
137.462757
 30
0.0
 11
194.567141
 21
137.462757
 31
0.0
  0
ARC
  5
48D
100
AcDbEntity
  8
3
  6
CONTINUOUS
100
AcDbCircle
 10
193.853141
 20
136.650757
 30
0.0
 40
1.082
100
AcDbArc
 50
311.41
 51
48.59
  0
LINE
  5
48E
100
AcDbEntity
  8
3
  6
CONTINUOUS
100
AcDbLine
 10
181.702141
 20
141.801757
 30
0.0
 11
181.927141
 21
141.576757
 31
0.0
  0
LINE
  5
48F
100
AcDbEntity
  8
3
  6
CONTINUOUS
100
AcDbLine
 10
181.702141
 20
141.801757
 30
0.0
 11
181.480141
 21
141.576757
 31
0.0
  0
LINE
  5
490
100
AcDbEntity
  8
3
  6
CONTINUOUS
100
AcDbLine
 10
182.515141
 20
141.434757
 30
0.0
 11
180.892141
 21
141.434757
 31
0.0
  0
LINE
  5
491
100
AcDbEntity
  8
3
  6
CONTINUOUS
100
AcDbLine
 10
182.515141
 20
141.353757
 30
0.0
 11
180.892141
 21
141.353757
 31
0.0
  0
LINE
  5
492
100
AcDbEntity
  8
3
  6
CONTINUOUS
100
AcDbLine
 10
182.515141
 20
141.353757
 30
0.0
 11
182.515141
 21
141.434757
 31
0.0
  0
LINE
  5
493
100
AcDbEntity
  8
3
  6
CONTINUOUS
100
AcDbLine
 10
180.892141
 20
141.353757
 30
0.0
 11
180.892141
 21
141.434757
 31
0.0
  0
ARC
  5
494
100
AcDbEntity
  8
3
  6
CONTINUOUS
100
AcDbCircle
 10
181.702141
 20
140.720757
 30
0.0
 40
1.082
100
AcDbArc
 50
41.41
 51
138.59
  0
LINE
  5
495
100
AcDbEntity
  8
3
  6
CONTINUOUS
100
AcDbLine
 10
108.814141
 20
141.801757
 30
0.0
 11
109.037141
 21
141.576757
 31
0.0
  0
LINE
  5
496
100
AcDbEntity
  8
3
  6
CONTINUOUS
100
AcDbLine
 10
108.814141
 20
141.801757
 30
0.0
 11
108.589141
 21
141.576757
 31
0.0
  0
LINE
  5
497
100
AcDbEntity
  8
3
  6
CONTINUOUS
100
AcDbLine
 10
109.624141
 20
141.434757
 30
0.0
 11
108.002141
 21
141.434757
 31
0.0
  0
LINE
  5
498
100
AcDbEntity
  8
3
  6
CONTINUOUS
100
AcDbLine
 10
109.624141
 20
141.353757
 30
0.0
 11
108.002141
 21
141.353757
 31
0.0
  0
LINE
  5
499
100
AcDbEntity
  8
3
  6
CONTINUOUS
100
AcDbLine
 10
109.624141
 20
141.353757
 30
0.0
 11
109.624141
 21
141.434757
 31
0.0
  0
LINE
  5
49A
100
AcDbEntity
  8
3
  6
CONTINUOUS
100
AcDbLine
 10
108.002141
 20
141.353757
 30
0.0
 11
108.002141
 21
141.434757
 31
0.0
  0
ARC
  5
49B
100
AcDbEntity
  8
3
  6
CONTINUOUS
100
AcDbCircle
 10
108.814141
 20
140.720757
 30
0.0
 40
1.082
100
AcDbArc
 50
41.41
 51
138.59
  0
LINE
  5
49C
100
AcDbEntity
  8
3
  6
CONTINUOUS
100
AcDbLine
 10
95.488141
 20
161.339757
 30
0.0
 11
95.711141
 21
161.115757
 31
0.0
  0
LINE
  5
49D
100
AcDbEntity
  8
3
  6
CONTINUOUS
100
AcDbLine
 10
95.488141
 20
161.339757
 30
0.0
 11
95.711141
 21
161.562757
 31
0.0
  0
LINE
  5
49E
100
AcDbEntity
  8
3
  6
CONTINUOUS
100
AcDbLine
 10
95.854141
 20
160.527757
 30
0.0
 11
95.854141
 21
162.150757
 31
0.0
  0
LINE
  5
49F
100
AcDbEntity
  8
3
  6
CONTINUOUS
100
AcDbLine
 10
95.935141
 20
160.527757
 30
0.0
 11
95.935141
 21
162.150757
 31
0.0
  0
LINE
  5
4A0
100
AcDbEntity
  8
3
  6
CONTINUOUS
100
AcDbLine
 10
95.935141
 20
160.527757
 30
0.0
 11
95.854141
 21
160.527757
 31
0.0
  0
LINE
  5
4A1
100
AcDbEntity
  8
3
  6
CONTINUOUS
100
AcDbLine
 10
95.935141
 20
162.150757
 30
0.0
 11
95.854141
 21
162.150757
 31
0.0
  0
ARC
  5
4A2
100
AcDbEntity
  8
3
  6
CONTINUOUS
100
AcDbCircle
 10
96.569141
 20
161.339757
 30
0.0
 40
1.082
100
AcDbArc
 50
131.41
 51
228.59
  0
LINE
  5
4A3
100
AcDbEntity
  8
3
  6
CONTINUOUS
100
AcDbLine
 10
95.488141
 20
156.167757
 30
0.0
 11
95.711141
 21
155.943757
 31
0.0
  0
LINE
  5
4A4
100
AcDbEntity
  8
3
  6
CONTINUOUS
100
AcDbLine
 10
95.488141
 20
156.167757
 30
0.0
 11
95.711141
 21
156.389757
 31
0.0
  0
LINE
  5
4A5
100
AcDbEntity
  8
3
  6
CONTINUOUS
100
AcDbLine
 10
95.854141
 20
155.355757
 30
0.0
 11
95.854141
 21
156.977757
 31
0.0
  0
LINE
  5
4A6
100
AcDbEntity
  8
3
  6
CONTINUOUS
100
AcDbLine
 10
95.935141
 20
155.355757
 30
0.0
 11
95.935141
 21
156.977757
 31
0.0
  0
LINE
  5
4A7
100
AcDbEntity
  8
3
  6
CONTINUOUS
100
AcDbLine
 10
95.935141
 20
155.355757
 30
0.0
 11
95.854141
 21
155.355757
 31
0.0
  0
LINE
  5
4A8
100
AcDbEntity
  8
3
  6
CONTINUOUS
100
AcDbLine
 10
95.935141
 20
156.977757
 30
0.0
 11
95.854141
 21
156.977757
 31
0.0
  0
ARC
  5
4A9
100
AcDbEntity
  8
3
  6
CONTINUOUS
100
AcDbCircle
 10
96.569141
 20
156.167757
 30
0.0
 40
1.082
100
AcDbArc
 50
131.41
 51
228.59
  0
CIRCLE
  5
4AA
100
AcDbEntity
  8
3
  6
CONTINUOUS
100
AcDbCircle
 10
108.814141
 20
154.686757
 30
0.0
 40
0.648
  0
LINE
  5
4AB
100
AcDbEntity
  8
3
  6
CONTINUOUS
100
AcDbLine
 10
108.565141
 20
154.934757
 30
0.0
 11
109.063141
 21
154.434757
 31
0.0
  0
LINE
  5
4AC
100
AcDbEntity
  8
3
  6
CONTINUOUS
100
AcDbLine
 10
108.565141
 20
154.434757
 30
0.0
 11
109.063141
 21
154.934757
 31
0.0
  0
LINE
  5
4AD
100
AcDbEntity
  8
3
  6
CONTINUOUS
100
AcDbLine
 10
194.935141
 20
161.339757
 30
0.0
 11
194.710141
 21
161.115757
 31
0.0
  0
LINE
  5
4AE
100
AcDbEntity
  8
3
  6
CONTINUOUS
100
AcDbLine
 10
194.935141
 20
161.339757
 30
0.0
 11
194.710141
 21
161.562757
 31
0.0
  0
LINE
  5
4AF
100
AcDbEntity
  8
3
  6
CONTINUOUS
100
AcDbLine
 10
194.567141
 20
160.527757
 30
0.0
 11
194.567141
 21
162.150757
 31
0.0
  0
LINE
  5
4B0
100
AcDbEntity
  8
3
  6
CONTINUOUS
100
AcDbLine
 10
194.488141
 20
160.527757
 30
0.0
 11
194.488141
 21
162.150757
 31
0.0
  0
LINE
  5
4B1
100
AcDbEntity
  8
3
  6
CONTINUOUS
100
AcDbLine
 10
194.488141
 20
160.527757
 30
0.0
 11
194.567141
 21
160.527757
 31
0.0
  0
LINE
  5
4B2
100
AcDbEntity
  8
3
  6
CONTINUOUS
100
AcDbLine
 10
194.488141
 20
162.150757
 30
0.0
 11
194.567141
 21
162.150757
 31
0.0
  0
ARC
  5
4B3
100
AcDbEntity
  8
3
  6
CONTINUOUS
100
AcDbCircle
 10
193.853141
 20
161.339757
 30
0.0
 40
1.082
100
AcDbArc
 50
311.41
 51
48.59
  0
LINE
  5
4B4
100
AcDbEntity
  8
3
  6
CONTINUOUS
100
AcDbLine
 10
194.935141
 20
156.167757
 30
0.0
 11
194.710141
 21
155.943757
 31
0.0
  0
LINE
  5
4B5
100
AcDbEntity
  8
3
  6
CONTINUOUS
100
AcDbLine
 10
194.935141
 20
156.167757
 30
0.0
 11
194.710141
 21
156.389757
 31
0.0
  0
LINE
  5
4B6
100
AcDbEntity
  8
3
  6
CONTINUOUS
100
AcDbLine
 10
194.567141
 20
155.355757
 30
0.0
 11
194.567141
 21
156.977757
 31
0.0
  0
LINE
  5
4B7
100
AcDbEntity
  8
3
  6
CONTINUOUS
100
AcDbLine
 10
194.488141
 20
155.355757
 30
0.0
 11
194.488141
 21
156.977757
 31
0.0
  0
LINE
  5
4B8
100
AcDbEntity
  8
3
  6
CONTINUOUS
100
AcDbLine
 10
194.488141
 20
155.355757
 30
0.0
 11
194.567141
 21
155.355757
 31
0.0
  0
LINE
  5
4B9
100
AcDbEntity
  8
3
  6
CONTINUOUS
100
AcDbLine
 10
194.488141
 20
156.977757
 30
0.0
 11
194.567141
 21
156.977757
 31
0.0
  0
ARC
  5
4BA
100
AcDbEntity
  8
3
  6
CONTINUOUS
100
AcDbCircle
 10
193.853141
 20
156.167757
 30
0.0
 40
1.082
100
AcDbArc
 50
311.41
 51
48.59
  0
CIRCLE
  5
4BB
100
AcDbEntity
  8
3
  6
CONTINUOUS
100
AcDbCircle
 10
181.702141
 20
154.686757
 30
0.0
 40
0.648
  0
LINE
  5
4BC
100
AcDbEntity
  8
3
  6
CONTINUOUS
100
AcDbLine
 10
181.453141
 20
154.934757
 30
0.0
 11
181.952141
 21
154.434757
 31
0.0
  0
LINE
  5
4BD
100
AcDbEntity
  8
3
  6
CONTINUOUS
100
AcDbLine
 10
181.453141
 20
154.434757
 30
0.0
 11
181.952141
 21
154.934757
 31
0.0
  0
LINE
  5
4BE
100
AcDbEntity
  8
3
  6
CONTINUOUS
100
AcDbLine
 10
182.642141
 20
154.614757
 30
0.0
 11
182.642141
 21
155.156757
 31
0.0
  0
LINE
  5
4BF
100
AcDbEntity
  8
3
  6
CONTINUOUS
100
AcDbLine
 10
181.232141
 20
155.627757
 30
0.0
 11
182.173141
 21
155.627757
 31
0.0
  0
LINE
  5
4C0
100
AcDbEntity
  8
3
  6
CONTINUOUS
100
AcDbLine
 10
180.761141
 20
154.614757
 30
0.0
 11
180.761141
 21
155.156757
 31
0.0
  0
LINE
  5
4C1
100
AcDbEntity
  8
3
  6
CONTINUOUS
100
AcDbLine
 10
182.173141
 20
155.627757
 30
0.0
 11
182.642141
 21
155.156757
 31
0.0
  0
LINE
  5
4C2
100
AcDbEntity
  8
3
  6
CONTINUOUS
100
AcDbLine
 10
181.232141
 20
155.627757
 30
0.0
 11
180.761141
 21
155.156757
 31
0.0
  0
LINE
  5
4C3
100
AcDbEntity
  8
3
  6
CONTINUOUS
100
AcDbLine
 10
182.642141
 20
154.614757
 30
0.0
 11
193.411141
 21
154.614757
 31
0.0
  0
LINE
  5
4C4
100
AcDbEntity
  8
3
  6
CONTINUOUS
100
AcDbLine
 10
109.754141
 20
154.614757
 30
0.0
 11
180.761141
 21
154.614757
 31
0.0
  0
LINE
  5
4C5
100
AcDbEntity
  8
3
  6
CONTINUOUS
100
AcDbLine
 10
108.343141
 20
155.627757
 30
0.0
 11
107.873141
 21
155.156757
 31
0.0
  0
LINE
  5
4C6
100
AcDbEntity
  8
3
  6
CONTINUOUS
100
AcDbLine
 10
109.283141
 20
155.627757
 30
0.0
 11
109.754141
 21
155.156757
 31
0.0
  0
LINE
  5
4C7
100
AcDbEntity
  8
3
  6
CONTINUOUS
100
AcDbLine
 10
107.873141
 20
154.614757
 30
0.0
 11
107.873141
 21
155.156757
 31
0.0
  0
LINE
  5
4C8
100
AcDbEntity
  8
3
  6
CONTINUOUS
100
AcDbLine
 10
108.343141
 20
155.627757
 30
0.0
 11
109.283141
 21
155.627757
 31
0.0
  0
LINE
  5
4C9
100
AcDbEntity
  8
3
  6
CONTINUOUS
100
AcDbLine
 10
109.754141
 20
154.614757
 30
0.0
 11
109.754141
 21
155.156757
 31
0.0
  0
LINE
  5
4CA
100
AcDbEntity
  8
3
  6
CONTINUOUS
100
AcDbLine
 10
97.103141
 20
154.614757
 30
0.0
 11
107.873141
 21
154.614757
 31
0.0
  0
LINE
  5
4CB
100
AcDbEntity
  8
3
  6
CONTINUOUS
100
AcDbLine
 10
96.163141
 20
153.438757
 30
0.0
 11
194.258141
 21
153.438757
 31
0.0
  0
ARC
  5
4CC
100
AcDbEntity
  8
3
  6
CONTINUOUS
100
AcDbCircle
 10
194.258141
 20
153.674757
 30
0.0
 40
0.236
100
AcDbArc
 50
270.0
 51
0.0
  0
ARC
  5
4CD
100
AcDbEntity
  8
3
  6
CONTINUOUS
100
AcDbCircle
 10
96.163141
 20
153.674757
 30
0.0
 40
0.236
100
AcDbArc
 50
180.0
 51
270.0
  0
LINE
  5
4CE
100
AcDbEntity
  8
3
  6
CONTINUOUS
100
AcDbLine
 10
193.318141
 20
154.614757
 30
0.0
 11
193.318141
 21
162.750757
 31
0.0
  0
LINE
  5
4CF
100
AcDbEntity
  8
3
  6
CONTINUOUS
100
AcDbLine
 10
194.425141
 20
153.507757
 30
0.0
 11
193.318141
 21
154.614757
 31
0.0
  0
LINE
  5
4D0
100
AcDbEntity
  8
3
  6
CONTINUOUS
100
AcDbLine
 10
194.492141
 20
153.674757
 30
0.0
 11
194.492141
 21
162.984757
 31
0.0
  0
LINE
  5
4D1
100
AcDbEntity
  8
3
  6
CONTINUOUS
100
AcDbLine
 10
193.552141
 20
162.984757
 30
0.0
 11
194.492141
 21
162.984757
 31
0.0
  0
LINE
  5
4D2
100
AcDbEntity
  8
3
  6
CONTINUOUS
100
AcDbLine
 10
193.552141
 20
162.984757
 30
0.0
 11
193.318141
 21
162.750757
 31
0.0
  0
LINE
  5
4D3
100
AcDbEntity
  8
3
  6
CONTINUOUS
100
AcDbLine
 10
95.929141
 20
162.984757
 30
0.0
 11
96.869141
 21
162.984757
 31
0.0
  0
LINE
  5
4D4
100
AcDbEntity
  8
3
  6
CONTINUOUS
100
AcDbLine
 10
95.998141
 20
153.507757
 30
0.0
 11
97.103141
 21
154.614757
 31
0.0
  0
LINE
  5
4D5
100
AcDbEntity
  8
3
  6
CONTINUOUS
100
AcDbLine
 10
97.103141
 20
154.614757
 30
0.0
 11
97.103141
 21
162.750757
 31
0.0
  0
LINE
  5
4D6
100
AcDbEntity
  8
3
  6
CONTINUOUS
100
AcDbLine
 10
95.929141
 20
153.674757
 30
0.0
 11
95.929141
 21
162.984757
 31
0.0
  0
LINE
  5
4D7
100
AcDbEntity
  8
3
  6
CONTINUOUS
100
AcDbLine
 10
96.869141
 20
162.984757
 30
0.0
 11
97.103141
 21
162.750757
 31
0.0
  0
ARC
  5
4D8
100
AcDbEntity
  8
3
  6
CONTINUOUS
100
AcDbCircle
 10
96.163141
 20
141.119757
 30
0.0
 40
0.236
100
AcDbArc
 50
90.0
 51
180.0
  0
LINE
  5
4D9
100
AcDbEntity
  8
3
  6
CONTINUOUS
100
AcDbLine
 10
194.258141
 20
141.353757
 30
0.0
 11
96.163141
 21
141.353757
 31
0.0
  0
LINE
  5
4DA
100
AcDbEntity
  8
3
  6
CONTINUOUS
100
AcDbLine
 10
95.929141
 20
141.119757
 30
0.0
 11
95.929141
 21
81.396757
 31
0.0
  0
LINE
  5
4DB
100
AcDbEntity
  8
3
  6
CONTINUOUS
100
AcDbLine
 10
194.492141
 20
141.119757
 30
0.0
 11
194.492141
 21
81.396757
 31
0.0
  0
ARC
  5
4DC
100
AcDbEntity
  8
3
  6
CONTINUOUS
100
AcDbCircle
 10
194.258141
 20
141.119757
 30
0.0
 40
0.236
100
AcDbArc
 50
0.0
 51
90.0
  0
LINE
  5
4DD
100
AcDbEntity
  8
3
  6
CONTINUOUS
100
AcDbLine
 10
74.344141
 20
141.353757
 30
0.0
 11
65.033141
 21
141.353757
 31
0.0
  0
ARC
  5
4DE
100
AcDbEntity
  8
3
  6
CONTINUOUS
100
AcDbCircle
 10
74.344141
 20
141.119757
 30
0.0
 40
0.236
100
AcDbArc
 50
0.0
 51
90.0
  0
LINE
  5
4DF
100
AcDbEntity
  8
3
  6
CONTINUOUS
100
AcDbLine
 10
74.579141
 20
141.119757
 30
0.0
 11
74.579141
 21
81.396757
 31
0.0
  0
LINE
  5
4E0
100
AcDbEntity
  8
3
  6
CONTINUOUS
100
AcDbLine
 10
74.579141
 20
81.396757
 30
0.0
 11
65.267141
 21
81.396757
 31
0.0
  0
LINE
  5
4E1
100
AcDbEntity
  8
3
  6
CONTINUOUS
100
AcDbLine
 10
65.033141
 20
141.353757
 30
0.0
 11
65.033141
 21
81.630757
 31
0.0
  0
LINE
  5
4E2
100
AcDbEntity
  8
3
  6
CONTINUOUS
100
AcDbLine
 10
65.267141
 20
81.396757
 30
0.0
 11
65.033141
 21
81.630757
 31
0.0
  0
LINE
  5
4E3
100
AcDbEntity
  8
4
  6
CONTINUOUS
100
AcDbLine
 10
64.304141
 20
83.324757
 30
0.0
 11
64.526141
 21
83.100757
 31
0.0
  0
LINE
  5
4E4
100
AcDbEntity
  8
4
  6
CONTINUOUS
100
AcDbLine
 10
64.304141
 20
83.324757
 30
0.0
 11
64.526141
 21
83.547757
 31
0.0
  0
LINE
  5
4E5
100
AcDbEntity
  8
4
  6
CONTINUOUS
100
AcDbLine
 10
64.670141
 20
82.514757
 30
0.0
 11
64.670141
 21
84.135757
 31
0.0
  0
LINE
  5
4E6
100
AcDbEntity
  8
4
  6
CONTINUOUS
100
AcDbLine
 10
64.751141
 20
82.514757
 30
0.0
 11
64.751141
 21
84.135757
 31
0.0
  0
LINE
  5
4E7
100
AcDbEntity
  8
4
  6
CONTINUOUS
100
AcDbLine
 10
64.751141
 20
82.514757
 30
0.0
 11
64.670141
 21
82.514757
 31
0.0
  0
LINE
  5
4E8
100
AcDbEntity
  8
4
  6
CONTINUOUS
100
AcDbLine
 10
64.751141
 20
84.135757
 30
0.0
 11
64.670141
 21
84.135757
 31
0.0
  0
ARC
  5
4E9
100
AcDbEntity
  8
4
  6
CONTINUOUS
100
AcDbCircle
 10
65.386141
 20
83.324757
 30
0.0
 40
1.082
100
AcDbArc
 50
131.41
 51
228.59
  0
LINE
  5
4EA
100
AcDbEntity
  8
4
  6
CONTINUOUS
100
AcDbLine
 10
66.730141
 20
80.051757
 30
0.0
 11
67.333141
 21
79.449757
 31
0.0
  0
LINE
  5
4EB
100
AcDbEntity
  8
4
  6
CONTINUOUS
100
AcDbLine
 10
67.333141
 20
80.051757
 30
0.0
 11
66.730141
 21
79.449757
 31
0.0
  0
CIRCLE
  5
4EC
100
AcDbEntity
  8
4
  6
CONTINUOUS
100
AcDbCircle
 10
67.033141
 20
79.749757
 30
0.0
 40
1.014
  0
LINE
  5
4ED
100
AcDbEntity
  8
4
  6
CONTINUOUS
100
AcDbLine
 10
71.668141
 20
80.051757
 30
0.0
 11
72.271141
 21
79.449757
 31
0.0
  0
LINE
  5
4EE
100
AcDbEntity
  8
4
  6
CONTINUOUS
100
AcDbLine
 10
72.271141
 20
80.051757
 30
0.0
 11
71.668141
 21
79.449757
 31
0.0
  0
CIRCLE
  5
4EF
100
AcDbEntity
  8
4
  6
CONTINUOUS
100
AcDbCircle
 10
71.969141
 20
79.749757
 30
0.0
 40
1.014
  0
LINE
  5
4F0
100
AcDbEntity
  8
4
  6
CONTINUOUS
100
AcDbLine
 10
95.276141
 20
49.065757
 30
0.0
 11
95.555141
 21
48.786757
 31
0.0
  0
LINE
  5
4F1
100
AcDbEntity
  8
4
  6
CONTINUOUS
100
AcDbLine
 10
95.276141
 20
49.065757
 30
0.0
 11
95.555141
 21
49.346757
 31
0.0
  0
LINE
  5
4F2
100
AcDbEntity
  8
4
  6
CONTINUOUS
100
AcDbLine
 10
95.734141
 20
48.053757
 30
0.0
 11
95.734141
 21
50.079757
 31
0.0
  0
LINE
  5
4F3
100
AcDbEntity
  8
4
  6
CONTINUOUS
100
AcDbLine
 10
95.834141
 20
48.053757
 30
0.0
 11
95.834141
 21
50.079757
 31
0.0
  0
LINE
  5
4F4
100
AcDbEntity
  8
4
  6
CONTINUOUS
100
AcDbLine
 10
95.834141
 20
48.053757
 30
0.0
 11
95.734141
 21
48.053757
 31
0.0
  0
LINE
  5
4F5
100
AcDbEntity
  8
4
  6
CONTINUOUS
100
AcDbLine
 10
95.834141
 20
50.079757
 30
0.0
 11
95.734141
 21
50.079757
 31
0.0
  0
ARC
  5
4F6
100
AcDbEntity
  8
4
  6
CONTINUOUS
100
AcDbCircle
 10
96.629141
 20
49.065757
 30
0.0
 40
1.353
100
AcDbArc
 50
131.41
 51
228.59
  0
LINE
  5
4F7
100
AcDbEntity
  8
4
  6
CONTINUOUS
100
AcDbLine
 10
95.276141
 20
54.003757
 30
0.0
 11
95.555141
 21
53.724757
 31
0.0
  0
LINE
  5
4F8
100
AcDbEntity
  8
4
  6
CONTINUOUS
100
AcDbLine
 10
95.276141
 20
54.003757
 30
0.0
 11
95.555141
 21
54.284757
 31
0.0
  0
LINE
  5
4F9
100
AcDbEntity
  8
4
  6
CONTINUOUS
100
AcDbLine
 10
95.734141
 20
52.989757
 30
0.0
 11
95.734141
 21
55.017757
 31
0.0
  0
LINE
  5
4FA
100
AcDbEntity
  8
4
  6
CONTINUOUS
100
AcDbLine
 10
95.834141
 20
52.989757
 30
0.0
 11
95.834141
 21
55.017757
 31
0.0
  0
LINE
  5
4FB
100
AcDbEntity
  8
4
  6
CONTINUOUS
100
AcDbLine
 10
95.834141
 20
52.989757
 30
0.0
 11
95.734141
 21
52.989757
 31
0.0
  0
LINE
  5
4FC
100
AcDbEntity
  8
4
  6
CONTINUOUS
100
AcDbLine
 10
95.834141
 20
55.017757
 30
0.0
 11
95.734141
 21
55.017757
 31
0.0
  0
ARC
  5
4FD
100
AcDbEntity
  8
4
  6
CONTINUOUS
100
AcDbCircle
 10
96.629141
 20
54.003757
 30
0.0
 40
1.353
100
AcDbArc
 50
131.41
 51
228.59
  0
LINE
  5
4FE
100
AcDbEntity
  8
4
  6
CONTINUOUS
100
AcDbLine
 10
195.146141
 20
54.003757
 30
0.0
 11
194.867141
 21
53.724757
 31
0.0
  0
LINE
  5
4FF
100
AcDbEntity
  8
4
  6
CONTINUOUS
100
AcDbLine
 10
195.146141
 20
54.003757
 30
0.0
 11
194.867141
 21
54.284757
 31
0.0
  0
LINE
  5
500
100
AcDbEntity
  8
4
  6
CONTINUOUS
100
AcDbLine
 10
194.687141
 20
52.989757
 30
0.0
 11
194.687141
 21
55.017757
 31
0.0
  0
LINE
  5
501
100
AcDbEntity
  8
4
  6
CONTINUOUS
100
AcDbLine
 10
194.587141
 20
52.989757
 30
0.0
 11
194.587141
 21
55.017757
 31
0.0
  0
LINE
  5
502
100
AcDbEntity
  8
4
  6
CONTINUOUS
100
AcDbLine
 10
194.587141
 20
52.989757
 30
0.0
 11
194.687141
 21
52.989757
 31
0.0
  0
LINE
  5
503
100
AcDbEntity
  8
4
  6
CONTINUOUS
100
AcDbLine
 10
194.587141
 20
55.017757
 30
0.0
 11
194.687141
 21
55.017757
 31
0.0
  0
ARC
  5
504
100
AcDbEntity
  8
4
  6
CONTINUOUS
100
AcDbCircle
 10
193.795141
 20
54.003757
 30
0.0
 40
1.353
100
AcDbArc
 50
311.41
 51
48.59
  0
LINE
  5
505
100
AcDbEntity
  8
4
  6
CONTINUOUS
100
AcDbLine
 10
195.146141
 20
49.065757
 30
0.0
 11
194.867141
 21
48.786757
 31
0.0
  0
LINE
  5
506
100
AcDbEntity
  8
4
  6
CONTINUOUS
100
AcDbLine
 10
195.146141
 20
49.065757
 30
0.0
 11
194.867141
 21
49.346757
 31
0.0
  0
LINE
  5
507
100
AcDbEntity
  8
4
  6
CONTINUOUS
100
AcDbLine
 10
194.687141
 20
48.053757
 30
0.0
 11
194.687141
 21
50.079757
 31
0.0
  0
LINE
  5
508
100
AcDbEntity
  8
4
  6
CONTINUOUS
100
AcDbLine
 10
194.587141
 20
48.053757
 30
0.0
 11
194.587141
 21
50.079757
 31
0.0
  0
LINE
  5
509
100
AcDbEntity
  8
4
  6
CONTINUOUS
100
AcDbLine
 10
194.587141
 20
48.053757
 30
0.0
 11
194.687141
 21
48.053757
 31
0.0
  0
LINE
  5
50A
100
AcDbEntity
  8
4
  6
CONTINUOUS
100
AcDbLine
 10
194.587141
 20
50.079757
 30
0.0
 11
194.687141
 21
50.079757
 31
0.0
  0
ARC
  5
50B
100
AcDbEntity
  8
4
  6
CONTINUOUS
100
AcDbCircle
 10
193.795141
 20
49.065757
 30
0.0
 40
1.353
100
AcDbArc
 50
311.41
 51
48.59
  0
LINE
  5
50C
100
AcDbEntity
  8
4
  6
CONTINUOUS
100
AcDbLine
 10
195.146141
 20
79.749757
 30
0.0
 11
194.867141
 21
79.470757
 31
0.0
  0
LINE
  5
50D
100
AcDbEntity
  8
4
  6
CONTINUOUS
100
AcDbLine
 10
195.146141
 20
79.749757
 30
0.0
 11
194.867141
 21
80.030757
 31
0.0
  0
LINE
  5
50E
100
AcDbEntity
  8
4
  6
CONTINUOUS
100
AcDbLine
 10
194.687141
 20
78.737757
 30
0.0
 11
194.687141
 21
80.763757
 31
0.0
  0
LINE
  5
50F
100
AcDbEntity
  8
4
  6
CONTINUOUS
100
AcDbLine
 10
194.587141
 20
78.737757
 30
0.0
 11
194.587141
 21
80.763757
 31
0.0
  0
LINE
  5
510
100
AcDbEntity
  8
4
  6
CONTINUOUS
100
AcDbLine
 10
194.587141
 20
78.737757
 30
0.0
 11
194.687141
 21
78.737757
 31
0.0
  0
LINE
  5
511
100
AcDbEntity
  8
4
  6
CONTINUOUS
100
AcDbLine
 10
194.587141
 20
80.763757
 30
0.0
 11
194.687141
 21
80.763757
 31
0.0
  0
ARC
  5
512
100
AcDbEntity
  8
4
  6
CONTINUOUS
100
AcDbCircle
 10
193.795141
 20
79.749757
 30
0.0
 40
1.353
100
AcDbArc
 50
311.41
 51
48.59
  0
ARC
  5
513
100
AcDbEntity
  8
4
  6
CONTINUOUS
100
AcDbCircle
 10
64.798141
 20
81.678757
 30
0.0
 40
0.236
100
AcDbArc
 50
270.0
 51
0.0
  0
LINE
  5
514
100
AcDbEntity
  8
4
  6
CONTINUOUS
100
AcDbLine
 10
64.798141
 20
81.443757
 30
0.0
 11
64.562141
 21
81.443757
 31
0.0
  0
LINE
  5
515
100
AcDbEntity
  8
4
  6
CONTINUOUS
100
AcDbLine
 10
74.672141
 20
81.396757
 30
0.0
 11
64.327141
 21
81.396757
 31
0.0
  0
LINE
  5
516
100
AcDbEntity
  8
4
  6
CONTINUOUS
100
AcDbLine
 10
194.587141
 20
56.472757
 30
0.0
 11
194.587141
 21
46.598757
 31
0.0
  0
LINE
  5
517
100
AcDbEntity
  8
4
  6
CONTINUOUS
100
AcDbLine
 10
95.834141
 20
56.472757
 30
0.0
 11
95.834141
 21
46.598757
 31
0.0
  0
LINE
  5
518
100
AcDbEntity
  8
4
  6
CONTINUOUS
100
AcDbLine
 10
96.070141
 20
56.708757
 30
0.0
 11
194.351141
 21
56.708757
 31
0.0
  0
LINE
  5
519
100
AcDbEntity
  8
4
  6
CONTINUOUS
100
AcDbLine
 10
96.070141
 20
46.362757
 30
0.0
 11
194.351141
 21
46.362757
 31
0.0
  0
LINE
  5
51A
100
AcDbEntity
  8
4
  6
CONTINUOUS
100
AcDbLine
 10
95.834141
 20
81.396757
 30
0.0
 11
194.587141
 21
81.396757
 31
0.0
  0
LINE
  5
51B
100
AcDbEntity
  8
4
  6
CONTINUOUS
100
AcDbLine
 10
194.587141
 20
81.396757
 30
0.0
 11
194.587141
 21
75.753757
 31
0.0
  0
LINE
  5
51C
100
AcDbEntity
  8
4
  6
CONTINUOUS
100
AcDbLine
 10
96.070141
 20
75.518757
 30
0.0
 11
194.351141
 21
75.518757
 31
0.0
  0
LINE
  5
51D
100
AcDbEntity
  8
4
  6
CONTINUOUS
100
AcDbLine
 10
95.834141
 20
81.396757
 30
0.0
 11
95.834141
 21
75.753757
 31
0.0
  0
ARC
  5
51E
100
AcDbEntity
  8
4
  6
CONTINUOUS
100
AcDbCircle
 10
96.070141
 20
75.753757
 30
0.0
 40
0.236
100
AcDbArc
 50
180.0
 51
270.0
  0
ARC
  5
51F
100
AcDbEntity
  8
4
  6
CONTINUOUS
100
AcDbCircle
 10
194.351141
 20
75.753757
 30
0.0
 40
0.236
100
AcDbArc
 50
270.0
 51
0.0
  0
ARC
  5
520
100
AcDbEntity
  8
4
  6
CONTINUOUS
100
AcDbCircle
 10
96.070141
 20
56.472757
 30
0.0
 40
0.236
100
AcDbArc
 50
90.0
 51
180.0
  0
ARC
  5
521
100
AcDbEntity
  8
4
  6
CONTINUOUS
100
AcDbCircle
 10
96.070141
 20
46.598757
 30
0.0
 40
0.236
100
AcDbArc
 50
180.0
 51
270.0
  0
ARC
  5
522
100
AcDbEntity
  8
4
  6
CONTINUOUS
100
AcDbCircle
 10
194.351141
 20
56.472757
 30
0.0
 40
0.236
100
AcDbArc
 50
0.0
 51
90.0
  0
ARC
  5
523
100
AcDbEntity
  8
4
  6
CONTINUOUS
100
AcDbCircle
 10
194.351141
 20
46.598757
 30
0.0
 40
0.236
100
AcDbArc
 50
270.0
 51
0.0
  0
LINE
  5
524
100
AcDbEntity
  8
4
  6
CONTINUOUS
100
AcDbLine
 10
72.980141
 20
81.396757
 30
0.0
 11
72.980141
 21
77.144757
 31
0.0
  0
LINE
  5
525
100
AcDbEntity
  8
4
  6
CONTINUOUS
100
AcDbLine
 10
73.075141
 20
81.396757
 30
0.0
 11
73.075141
 21
77.183757
 31
0.0
  0
LINE
  5
526
100
AcDbEntity
  8
4
  6
CONTINUOUS
100
AcDbLine
 10
66.020141
 20
81.396757
 30
0.0
 11
66.020141
 21
77.144757
 31
0.0
  0
LINE
  5
527
100
AcDbEntity
  8
4
  6
CONTINUOUS
100
AcDbLine
 10
65.926141
 20
81.396757
 30
0.0
 11
65.926141
 21
77.183757
 31
0.0
  0
LINE
  5
528
100
AcDbEntity
  8
4
  6
CONTINUOUS
100
AcDbLine
 10
65.033141
 20
84.029757
 30
0.0
 11
64.751141
 21
84.029757
 31
0.0
  0
LINE
  5
529
100
AcDbEntity
  8
4
  6
CONTINUOUS
100
AcDbLine
 10
64.751141
 20
84.500757
 30
0.0
 11
64.751141
 21
81.678757
 31
0.0
  0
LINE
  5
52A
100
AcDbEntity
  8
4
  6
CONTINUOUS
100
AcDbLine
 10
64.751141
 20
81.678757
 30
0.0
 11
64.562141
 21
81.678757
 31
0.0
  0
LINE
  5
52B
100
AcDbEntity
  8
4
  6
CONTINUOUS
100
AcDbLine
 10
64.327141
 20
81.443757
 30
0.0
 11
64.327141
 21
75.753757
 31
0.0
  0
ARC
  5
52C
100
AcDbEntity
  8
4
  6
CONTINUOUS
100
AcDbCircle
 10
64.562141
 20
75.753757
 30
0.0
 40
0.236
100
AcDbArc
 50
180.0
 51
270.0
  0
LINE
  5
52D
100
AcDbEntity
  8
4
  6
CONTINUOUS
100
AcDbLine
 10
74.438141
 20
75.518757
 30
0.0
 11
64.562141
 21
75.518757
 31
0.0
  0
ARC
  5
52E
100
AcDbEntity
  8
4
  6
CONTINUOUS
100
AcDbCircle
 10
74.438141
 20
75.753757
 30
0.0
 40
0.236
100
AcDbArc
 50
270.0
 51
0.0
  0
LINE
  5
52F
100
AcDbEntity
  8
4
  6
CONTINUOUS
100
AcDbLine
 10
64.366141
 20
75.623757
 30
0.0
 11
65.926141
 21
77.183757
 31
0.0
  0
LINE
  5
530
100
AcDbEntity
  8
4
  6
CONTINUOUS
100
AcDbLine
 10
64.433141
 20
75.557757
 30
0.0
 11
66.020141
 21
77.144757
 31
0.0
  0
LINE
  5
531
100
AcDbEntity
  8
4
  6
CONTINUOUS
100
AcDbLine
 10
74.569141
 20
75.557757
 30
0.0
 11
72.980141
 21
77.144757
 31
0.0
  0
LINE
  5
532
100
AcDbEntity
  8
4
  6
CONTINUOUS
100
AcDbLine
 10
74.633141
 20
75.623757
 30
0.0
 11
73.075141
 21
77.183757
 31
0.0
  0
LINE
  5
533
100
AcDbEntity
  8
4
  6
CONTINUOUS
100
AcDbLine
 10
65.033141
 20
84.500757
 30
0.0
 11
65.033141
 21
81.678757
 31
0.0
  0
LINE
  5
534
100
AcDbEntity
  8
4
  6
CONTINUOUS
100
AcDbLine
 10
65.033141
 20
84.500757
 30
0.0
 11
64.751141
 21
84.500757
 31
0.0
  0
LINE
  5
535
100
AcDbEntity
  8
4
  6
CONTINUOUS
100
AcDbLine
 10
74.672141
 20
81.396757
 30
0.0
 11
74.672141
 21
75.753757
 31
0.0
  0
ARC
  5
536
100
AcDbEntity
  8
4
  6
CONTINUOUS
100
AcDbCircle
 10
64.562141
 20
81.443757
 30
0.0
 40
0.236
100
AcDbArc
 50
90.0
 51
180.0
  0
LINE
  5
537
100
AcDbEntity
  8
5
  6
CONTINUOUS
100
AcDbLine
 10
64.610141
 20
75.800757
 30
0.0
 11
64.892141
 21
75.800757
 31
0.0
  0
LINE
  5
538
100
AcDbEntity
  8
8
  6
CONTINUOUS
100
AcDbLine
 10
112.751141
 20
141.353757
 30
0.0
 11
112.751141
 21
142.952757
 31
0.0
  0
LINE
  5
539
100
AcDbEntity
  8
8
  6
CONTINUOUS
100
AcDbLine
 10
112.751141
 20
142.952757
 30
0.0
 11
110.518141
 21
142.952757
 31
0.0
  0
LINE
  5
53A
100
AcDbEntity
  8
8
  6
CONTINUOUS
100
AcDbLine
 10
110.518141
 20
141.353757
 30
0.0
 11
110.518141
 21
142.952757
 31
0.0
  0
LINE
  5
53B
100
AcDbEntity
  8
8
  6
CONTINUOUS
100
AcDbLine
 10
117.454141
 20
141.353757
 30
0.0
 11
117.454141
 21
142.952757
 31
0.0
  0
LINE
  5
53C
100
AcDbEntity
  8
8
  6
CONTINUOUS
100
AcDbLine
 10
117.454141
 20
142.952757
 30
0.0
 11
115.220141
 21
142.952757
 31
0.0
  0
LINE
  5
53D
100
AcDbEntity
  8
8
  6
CONTINUOUS
100
AcDbLine
 10
115.220141
 20
141.353757
 30
0.0
 11
115.220141
 21
142.952757
 31
0.0
  0
LINE
  5
53E
100
AcDbEntity
  8
8
  6
CONTINUOUS
100
AcDbLine
 10
122.156141
 20
141.353757
 30
0.0
 11
122.156141
 21
142.952757
 31
0.0
  0
LINE
  5
53F
100
AcDbEntity
  8
8
  6
CONTINUOUS
100
AcDbLine
 10
122.156141
 20
142.952757
 30
0.0
 11
119.923141
 21
142.952757
 31
0.0
  0
LINE
  5
540
100
AcDbEntity
  8
8
  6
CONTINUOUS
100
AcDbLine
 10
119.923141
 20
141.353757
 30
0.0
 11
119.923141
 21
142.952757
 31
0.0
  0
LINE
  5
541
100
AcDbEntity
  8
8
  6
CONTINUOUS
100
AcDbLine
 10
126.859141
 20
141.353757
 30
0.0
 11
126.859141
 21
142.952757
 31
0.0
  0
LINE
  5
542
100
AcDbEntity
  8
8
  6
CONTINUOUS
100
AcDbLine
 10
126.859141
 20
142.952757
 30
0.0
 11
124.625141
 21
142.952757
 31
0.0
  0
LINE
  5
543
100
AcDbEntity
  8
8
  6
CONTINUOUS
100
AcDbLine
 10
124.625141
 20
141.353757
 30
0.0
 11
124.625141
 21
142.952757
 31
0.0
  0
LINE
  5
544
100
AcDbEntity
  8
8
  6
CONTINUOUS
100
AcDbLine
 10
131.563141
 20
141.353757
 30
0.0
 11
131.563141
 21
142.952757
 31
0.0
  0
LINE
  5
545
100
AcDbEntity
  8
8
  6
CONTINUOUS
100
AcDbLine
 10
131.563141
 20
142.952757
 30
0.0
 11
129.328141
 21
142.952757
 31
0.0
  0
LINE
  5
546
100
AcDbEntity
  8
8
  6
CONTINUOUS
100
AcDbLine
 10
129.328141
 20
141.353757
 30
0.0
 11
129.328141
 21
142.952757
 31
0.0
  0
LINE
  5
547
100
AcDbEntity
  8
8
  6
CONTINUOUS
100
AcDbLine
 10
136.265141
 20
141.353757
 30
0.0
 11
136.265141
 21
142.952757
 31
0.0
  0
LINE
  5
548
100
AcDbEntity
  8
8
  6
CONTINUOUS
100
AcDbLine
 10
136.265141
 20
142.952757
 30
0.0
 11
134.032141
 21
142.952757
 31
0.0
  0
LINE
  5
549
100
AcDbEntity
  8
8
  6
CONTINUOUS
100
AcDbLine
 10
134.032141
 20
141.353757
 30
0.0
 11
134.032141
 21
142.952757
 31
0.0
  0
LINE
  5
54A
100
AcDbEntity
  8
8
  6
CONTINUOUS
100
AcDbLine
 10
140.968141
 20
141.353757
 30
0.0
 11
140.968141
 21
142.952757
 31
0.0
  0
LINE
  5
54B
100
AcDbEntity
  8
8
  6
CONTINUOUS
100
AcDbLine
 10
140.968141
 20
142.952757
 30
0.0
 11
138.734141
 21
142.952757
 31
0.0
  0
LINE
  5
54C
100
AcDbEntity
  8
8
  6
CONTINUOUS
100
AcDbLine
 10
138.734141
 20
141.353757
 30
0.0
 11
138.734141
 21
142.952757
 31
0.0
  0
LINE
  5
54D
100
AcDbEntity
  8
8
  6
CONTINUOUS
100
AcDbLine
 10
150.373141
 20
141.353757
 30
0.0
 11
150.373141
 21
143.892757
 31
0.0
  0
LINE
  5
54E
100
AcDbEntity
  8
8
  6
CONTINUOUS
100
AcDbLine
 10
148.139141
 20
141.353757
 30
0.0
 11
148.139141
 21
143.892757
 31
0.0
  0
LINE
  5
54F
100
AcDbEntity
  8
8
  6
CONTINUOUS
100
AcDbLine
 10
150.373141
 20
143.892757
 30
0.0
 11
148.139141
 21
143.892757
 31
0.0
  0
LINE
  5
550
100
AcDbEntity
  8
8
  6
CONTINUOUS
100
AcDbLine
 10
154.604141
 20
141.353757
 30
0.0
 11
154.604141
 21
143.892757
 31
0.0
  0
LINE
  5
551
100
AcDbEntity
  8
8
  6
CONTINUOUS
100
AcDbLine
 10
152.371141
 20
141.353757
 30
0.0
 11
152.371141
 21
143.892757
 31
0.0
  0
LINE
  5
552
100
AcDbEntity
  8
8
  6
CONTINUOUS
100
AcDbLine
 10
154.604141
 20
143.892757
 30
0.0
 11
152.371141
 21
143.892757
 31
0.0
  0
LINE
  5
553
100
AcDbEntity
  8
8
  6
CONTINUOUS
100
AcDbLine
 10
158.837141
 20
141.353757
 30
0.0
 11
158.837141
 21
143.892757
 31
0.0
  0
LINE
  5
554
100
AcDbEntity
  8
8
  6
CONTINUOUS
100
AcDbLine
 10
156.604141
 20
141.353757
 30
0.0
 11
156.604141
 21
143.892757
 31
0.0
  0
LINE
  5
555
100
AcDbEntity
  8
8
  6
CONTINUOUS
100
AcDbLine
 10
158.837141
 20
143.892757
 30
0.0
 11
156.604141
 21
143.892757
 31
0.0
  0
LINE
  5
556
100
AcDbEntity
  8
8
  6
CONTINUOUS
100
AcDbLine
 10
163.069141
 20
141.353757
 30
0.0
 11
163.069141
 21
143.892757
 31
0.0
  0
LINE
  5
557
100
AcDbEntity
  8
8
  6
CONTINUOUS
100
AcDbLine
 10
160.835141
 20
141.353757
 30
0.0
 11
160.835141
 21
143.892757
 31
0.0
  0
LINE
  5
558
100
AcDbEntity
  8
8
  6
CONTINUOUS
100
AcDbLine
 10
163.069141
 20
143.892757
 30
0.0
 11
160.835141
 21
143.892757
 31
0.0
  0
LINE
  5
559
100
AcDbEntity
  8
8
  6
CONTINUOUS
100
AcDbLine
 10
167.302141
 20
141.353757
 30
0.0
 11
167.302141
 21
143.892757
 31
0.0
  0
LINE
  5
55A
100
AcDbEntity
  8
8
  6
CONTINUOUS
100
AcDbLine
 10
165.068141
 20
141.353757
 30
0.0
 11
165.068141
 21
143.892757
 31
0.0
  0
LINE
  5
55B
100
AcDbEntity
  8
8
  6
CONTINUOUS
100
AcDbLine
 10
167.302141
 20
143.892757
 30
0.0
 11
165.068141
 21
143.892757
 31
0.0
  0
LINE
  5
55C
100
AcDbEntity
  8
8
  6
CONTINUOUS
100
AcDbLine
 10
171.533141
 20
141.353757
 30
0.0
 11
171.533141
 21
143.892757
 31
0.0
  0
LINE
  5
55D
100
AcDbEntity
  8
8
  6
CONTINUOUS
100
AcDbLine
 10
169.300141
 20
141.353757
 30
0.0
 11
169.300141
 21
143.892757
 31
0.0
  0
LINE
  5
55E
100
AcDbEntity
  8
8
  6
CONTINUOUS
100
AcDbLine
 10
171.533141
 20
143.892757
 30
0.0
 11
169.300141
 21
143.892757
 31
0.0
  0
LINE
  5
55F
100
AcDbEntity
  8
8
  6
CONTINUOUS
100
AcDbLine
 10
175.766141
 20
143.892757
 30
0.0
 11
173.533141
 21
143.892757
 31
0.0
  0
LINE
  5
560
100
AcDbEntity
  8
8
  6
CONTINUOUS
100
AcDbLine
 10
173.533141
 20
141.353757
 30
0.0
 11
173.533141
 21
143.892757
 31
0.0
  0
LINE
  5
561
100
AcDbEntity
  8
8
  6
CONTINUOUS
100
AcDbLine
 10
175.766141
 20
141.353757
 30
0.0
 11
175.766141
 21
143.892757
 31
0.0
  0
LINE
  5
562
100
AcDbEntity
  8
8
  6
CONTINUOUS
100
AcDbLine
 10
143.437141
 20
141.353757
 30
0.0
 11
143.437141
 21
142.952757
 31
0.0
  0
LINE
  5
563
100
AcDbEntity
  8
8
  6
CONTINUOUS
100
AcDbLine
 10
145.670141
 20
142.952757
 30
0.0
 11
143.437141
 21
142.952757
 31
0.0
  0
LINE
  5
564
100
AcDbEntity
  8
8
  6
CONTINUOUS
100
AcDbLine
 10
145.670141
 20
141.353757
 30
0.0
 11
145.670141
 21
142.952757
 31
0.0
  0
LINE
  5
565
100
AcDbEntity
  8
8
  6
CONTINUOUS
100
AcDbLine
 10
179.998141
 20
141.353757
 30
0.0
 11
179.998141
 21
143.892757
 31
0.0
  0
LINE
  5
566
100
AcDbEntity
  8
8
  6
CONTINUOUS
100
AcDbLine
 10
177.764141
 20
141.353757
 30
0.0
 11
177.764141
 21
143.892757
 31
0.0
  0
LINE
  5
567
100
AcDbEntity
  8
8
  6
CONTINUOUS
100
AcDbLine
 10
179.998141
 20
143.892757
 30
0.0
 11
177.764141
 21
143.892757
 31
0.0
  0
TEXT
  5
5C6
100
AcDbEntity
  8
1
  6
CONTINUOUS
 62
     7
100
AcDbText
 10
6.531
 20
42.913
 30
0.0
 40
2.304
  1
　
 41
0.573
  7
KANJI
100
AcDbText
  0
LINE
  5
5CF
102
{ACAD_REACTORS
330
5DD
102
}
100
AcDbEntity
  8
0
100
AcDbLine
 10
281.0
 20
4.0
 30
0.0
 11
201.0
 21
4.0
 31
0.0
  0
LINE
  5
5D0
102
{ACAD_REACTORS
330
5DD
102
}
100
AcDbEntity
  8
0
100
AcDbLine
 10
281.0
 20
20.0
 30
0.0
 11
281.0
 21
4.0
 31
0.0
  0
LINE
  5
5D1
102
{ACAD_REACTORS
330
5DD
102
}
100
AcDbEntity
  8
0
100
AcDbLine
 10
281.0
 20
12.0
 30
0.0
 11
201.0
 21
12.0
 31
0.0
  0
LINE
  5
5D2
102
{ACAD_REACTORS
330
5DD
102
}
100
AcDbEntity
  8
0
100
AcDbLine
 10
281.0
 20
20.0
 30
0.0
 11
201.0
 21
20.0
 31
0.0
  0
LINE
  5
5D3
102
{ACAD_REACTORS
330
5DD
102
}
100
AcDbEntity
  8
0
100
AcDbLine
 10
221.0
 20
20.0
 30
0.0
 11
221.0
 21
4.0
 31
0.0
  0
LINE
  5
5D4
102
{ACAD_REACTORS
330
5DD
102
}
100
AcDbEntity
  8
0
100
AcDbLine
 10
201.0
 20
20.0
 30
0.0
 11
201.0
 21
4.0
 31
0.0
  0
TEXT
  5
5D5
100
AcDbEntity
  8
0
100
AcDbText
 10
206.93529
 20
13.671686
 30
0.0
 40
4.0
  1
品名
  7
STANDARD1
100
AcDbText
  0
TEXT
  5
5D6
100
AcDbEntity
  8
0
100
AcDbText
 10
206.93529
 20
5.671686
 30
0.0
 40
4.0
  1
型名
  7
STANDARD1
100
AcDbText
  0
TEXT
  5
5D7
100
AcDbEntity
  8
0
100
AcDbText
 10
222.93529
 20
13.671686
 30
0.0
 40
4.0
  1
VPカットボックス
  7
STANDARD1
100
AcDbText
  0
TEXT
  5
5D8
100
AcDbEntity
  8
0
100
AcDbText
 10
222.93529
 20
5.671686
 30
0.0
 40
4.0
  1
J-4117
  7
STANDARD1
100
AcDbText
  0
ENDSEC
  0
SECTION
  2
OBJECTS
  0
DICTIONARY
  5
C
100
AcDbDictionary
  3
ACAD_GROUP
350
D
  3
ACAD_MLINESTYLE
350
1B
  0
DICTIONARY
  5
D
102
{ACAD_REACTORS
330
C
102
}
100
AcDbDictionary
  3
*A1
350
5A7
  3
*A2
350
5A8
  3
*A3
350
5A9
  3
*A4
350
5AA
  3
*A5
350
5AB
  3
*A6
350
5AC
  3
*A7
350
5DA
  3
*A8
350
5DB
  3
*A9
350
5DC
  3
*A10
350
5DD
  0
DICTIONARY
  5
1B
102
{ACAD_REACTORS
330
C
102
}
100
AcDbDictionary
  3
STANDARD
350
1C
  0
GROUP
  5
5A7
102
{ACAD_REACTORS
330
D
102
}
100
AcDbGroup
300

 70
     3
 71
     1
340
593
340
592
340
595
340
594
  0
GROUP
  5
5A8
102
{ACAD_REACTORS
330
D
102
}
100
AcDbGroup
300

 70
     3
 71
     1
340
58F
340
58E
340
591
340
590
  0
GROUP
  5
5A9
102
{ACAD_REACTORS
330
D
102
}
100
AcDbGroup
300

 70
     3
 71
     1
340
5B4
340
5B3
340
5B6
340
5B5
  0
GROUP
  5
5AA
102
{ACAD_REACTORS
330
D
102
}
100
AcDbGroup
300

 70
     3
 71
     1
340
5AF
340
5B0
340
5B1
340
5B2
  0
GROUP
  5
5AB
102
{ACAD_REACTORS
330
D
102
}
100
AcDbGroup
300

 70
     3
 71
     1
340
5C1
340
5B4
340
5B3
340
5B6
340
5B5
  0
GROUP
  5
5AC
102
{ACAD_REACTORS
330
D
102
}
100
AcDbGroup
300

 70
     3
 71
     1
340
5BC
340
5BA
340
5BB
340
5B9
340
5B8
340
5B7
  0
GROUP
  5
5DA
102
{ACAD_REACTORS
330
D
102
}
100
AcDbGroup
300

 70
     1
 71
     1
  0
GROUP
  5
5DB
102
{ACAD_REACTORS
330
D
102
}
100
AcDbGroup
300

 70
     1
 71
     1
  0
GROUP
  5
5DC
102
{ACAD_REACTORS
330
D
102
}
100
AcDbGroup
300

 70
     1
 71
     1
  0
GROUP
  5
5DD
102
{ACAD_REACTORS
330
D
102
}
100
AcDbGroup
300

 70
     1
 71
     1
340
5D4
340
5D2
340
5D3
340
5D1
340
5D0
340
5CF
  0
MLINESTYLE
  5
1C
102
{ACAD_REACTORS
330
1B
102
}
100
AcDbMlineStyle
  2
STANDARD
 70
     0
  3

 62
   256
 51
90.0
 52
90.0
 71
     2
 49
0.5
 62
   256
  6
BYLAYER
 49
-0.5
 62
   256
  6
BYLAYER
  0
ENDSEC
  0
EOF
