  0
SECTION
  2
HEADER
  9
$ACADVER
  1
AC1014
  9
$ACADMAINTVER
 70
     0
  9
$DWGCODEPAGE
  3
ANSI_932
  9
$INSBASE
 10
0.0
 20
0.0
 30
0.0
  9
$EXTMIN
 10
90.375
 20
40.620205
 30
0.0
  9
$EXTMAX
 10
416.459639
 20
260.407
 30
0.0
  9
$LIMMIN
 10
74.038048
 20
21.559201
  9
$LIMMAX
 10
433.874468
 20
272.057726
  9
$ORTHOMODE
 70
     1
  9
$REGENMODE
 70
     1
  9
$FILLMODE
 70
     1
  9
$QTEXTMODE
 70
     0
  9
$MIRRTEXT
 70
     1
  9
$DRAGMODE
 70
     2
  9
$LTSCALE
 40
1.0
  9
$OSMODE
 70
     0
  9
$ATTMODE
 70
     1
  9
$TEXTSIZE
 40
1.411111
  9
$TRACEWID
 40
0.05
  9
$TEXTSTYLE
  7
STANDARD
  9
$CLAYER
  8
1
  9
$CELTYPE
  6
BYLAYER
  9
$CECOLOR
 62
   256
  9
$CELTSCALE
 40
1.0
  9
$DELOBJ
 70
     1
  9
$DISPSILH
 70
     0
  9
$DIMSCALE
 40
1.0
  9
$DIMASZ
 40
1.0
  9
$DIMEXO
 40
0.0
  9
$DIMDLI
 40
0.5
  9
$DIMRND
 40
0.0
  9
$DIMDLE
 40
0.0
  9
$DIMEXE
 40
0.0
  9
$DIMTP
 40
0.0
  9
$DIMTM
 40
0.0
  9
$DIMTXT
 40
4.586111
  9
$DIMCEN
 40
0.0
  9
$DIMTSZ
 40
0.0
  9
$DIMTOL
 70
     0
  9
$DIMLIM
 70
     0
  9
$DIMTIH
 70
     1
  9
$DIMTOH
 70
     1
  9
$DIMSE1
 70
     0
  9
$DIMSE2
 70
     0
  9
$DIMTAD
 70
     0
  9
$DIMZIN
 70
     0
  9
$DIMBLK
  1

  9
$DIMASO
 70
     0
  9
$DIMSHO
 70
     0
  9
$DIMPOST
  1

  9
$DIMAPOST
  1

  9
$DIMALT
 70
     0
  9
$DIMALTD
 70
     0
  9
$DIMALTF
 40
1.0
  9
$DIMLFAC
 40
0.0
  9
$DIMTOFL
 70
     0
  9
$DIMTVP
 40
0.0
  9
$DIMTIX
 70
     0
  9
$DIMSOXD
 70
     0
  9
$DIMSAH
 70
     0
  9
$DIMBLK1
  1

  9
$DIMBLK2
  1

  9
$DIMSTYLE
  2
STANDARD
  9
$DIMCLRD
 70
     0
  9
$DIMCLRE
 70
     0
  9
$DIMCLRT
 70
     0
  9
$DIMTFAC
 40
1.0
  9
$DIMGAP
 40
0.09
  9
$DIMJUST
 70
     0
  9
$DIMSD1
 70
     0
  9
$DIMSD2
 70
     0
  9
$DIMTOLJ
 70
     1
  9
$DIMTZIN
 70
     0
  9
$DIMALTZ
 70
     0
  9
$DIMALTTZ
 70
     0
  9
$DIMFIT
 70
     3
  9
$DIMUPT
 70
     0
  9
$DIMUNIT
 70
     2
  9
$DIMDEC
 70
     4
  9
$DIMTDEC
 70
     4
  9
$DIMALTU
 70
     2
  9
$DIMALTTD
 70
     2
  9
$DIMTXSTY
  7
STANDARD
  9
$DIMAUNIT
 70
     0
  9
$LUNITS
 70
     2
  9
$LUPREC
 70
     2
  9
$SKETCHINC
 40
1.0
  9
$FILLETRAD
 40
0.0
  9
$AUNITS
 70
     1
  9
$AUPREC
 70
     2
  9
$MENU
  1
ACAD
  9
$ELEVATION
 40
0.0
  9
$PELEVATION
 40
0.0
  9
$THICKNESS
 40
0.0
  9
$LIMCHECK
 70
     1
  9
$BLIPMODE
 70
     1
  9
$CHAMFERA
 40
0.0
  9
$CHAMFERB
 40
0.0
  9
$CHAMFERC
 40
0.0
  9
$CHAMFERD
 40
0.0
  9
$SKPOLY
 70
     0
  9
$TDCREATE
 40
2452851.499262500
  9
$TDUPDATE
 40
2452860.715061226
  9
$TDINDWG
 40
0.0054525463
  9
$TDUSRTIMER
 40
0.0054525463
  9
$USRTIMER
 70
     1
  9
$ANGBASE
 50
0.0
  9
$ANGDIR
 70
     0
  9
$PDMODE
 70
     0
  9
$PDSIZE
 40
0.4
  9
$PLINEWID
 40
0.0
  9
$COORDS
 70
     2
  9
$SPLFRAME
 70
     0
  9
$SPLINETYPE
 70
     6
  9
$SPLINESEGS
 70
     8
  9
$ATTDIA
 70
     0
  9
$ATTREQ
 70
     1
  9
$HANDLING
 70
     1
  9
$HANDSEED
  5
F87
  9
$SURFTAB1
 70
     6
  9
$SURFTAB2
 70
     6
  9
$SURFTYPE
 70
     6
  9
$SURFU
 70
     6
  9
$SURFV
 70
     6
  9
$UCSNAME
  2

  9
$UCSORG
 10
0.0
 20
0.0
 30
0.0
  9
$UCSXDIR
 10
1.0
 20
0.0
 30
0.0
  9
$UCSYDIR
 10
0.0
 20
1.0
 30
0.0
  9
$PUCSNAME
  2

  9
$PUCSORG
 10
0.0
 20
0.0
 30
0.0
  9
$PUCSXDIR
 10
1.0
 20
0.0
 30
0.0
  9
$PUCSYDIR
 10
0.0
 20
1.0
 30
0.0
  9
$USERI1
 70
     0
  9
$USERI2
 70
     0
  9
$USERI3
 70
     0
  9
$USERI4
 70
     0
  9
$USERI5
 70
     0
  9
$USERR1
 40
0.0
  9
$USERR2
 40
0.0
  9
$USERR3
 40
0.0
  9
$USERR4
 40
0.0
  9
$USERR5
 40
0.0
  9
$WORLDVIEW
 70
     1
  9
$SHADEDGE
 70
     3
  9
$SHADEDIF
 70
    70
  9
$TILEMODE
 70
     1
  9
$MAXACTVP
 70
    48
  9
$PINSBASE
 10
0.0
 20
0.0
 30
0.0
  9
$PLIMCHECK
 70
     0
  9
$PEXTMIN
 10
1.000000E+20
 20
1.000000E+20
 30
1.000000E+20
  9
$PEXTMAX
 10
-1.000000E+20
 20
-1.000000E+20
 30
-1.000000E+20
  9
$PLIMMIN
 10
0.0
 20
0.0
  9
$PLIMMAX
 10
12.0
 20
9.0
  9
$UNITMODE
 70
     0
  9
$VISRETAIN
 70
     1
  9
$PLINEGEN
 70
     0
  9
$PSLTSCALE
 70
     1
  9
$TREEDEPTH
 70
  3020
  9
$PICKSTYLE
 70
     1
  9
$CMLSTYLE
  2
STANDARD
  9
$CMLJUST
 70
     0
  9
$CMLSCALE
 40
1.0
  9
$PROXYGRAPHICS
 70
     1
  9
$MEASUREMENT
 70
     0
  0
ENDSEC
  0
SECTION
  2
CLASSES
  0
CLASS
  1
LWPOLYLINE
  2
AcDbPolyline
  3
"AutoCAD"
 90
        0
280
     0
281
     1
  0
ENDSEC
  0
SECTION
  2
TABLES
  0
TABLE
  2
VPORT
  5
8
100
AcDbSymbolTable
 70
     2
  0
VPORT
  5
F86
100
AcDbSymbolTableRecord
100
AcDbViewportTableRecord
  2
*ACTIVE
 70
     0
 10
0.0
 20
0.0
 11
1.0
 21
1.0
 12
239.658122
 22
146.570347
 13
0.0
 23
0.0
 14
1.0
 24
1.0
 15
0.0
 25
0.0
 16
0.0
 26
0.0
 36
1.0
 17
0.0
 27
0.0
 37
0.0
 40
256.21332
 41
1.722533
 42
50.0
 43
0.0
 44
0.0
 50
0.0
 51
0.0
 71
     0
 72
   100
 73
     1
 74
     1
 75
     0
 76
     0
 77
     0
 78
     0
  0
ENDTAB
  0
TABLE
  2
LTYPE
  5
5
100
AcDbSymbolTable
 70
     2
  0
LTYPE
  5
12
100
AcDbSymbolTableRecord
100
AcDbLinetypeTableRecord
  2
BYBLOCK
 70
     0
  3

 72
    65
 73
     0
 40
0.0
  0
LTYPE
  5
13
100
AcDbSymbolTableRecord
100
AcDbLinetypeTableRecord
  2
BYLAYER
 70
     0
  3

 72
    65
 73
     0
 40
0.0
  0
LTYPE
  5
14
100
AcDbSymbolTableRecord
100
AcDbLinetypeTableRecord
  2
CONTINUOUS
 70
     0
  3
SolidLine
 72
    65
 73
     0
 40
0.0
  0
LTYPE
  5
22
100
AcDbSymbolTableRecord
100
AcDbLinetypeTableRecord
  2
DASHDOT
 70
     0
  3
-･-･-･-･-･-･-･-･-･-
 72
    65
 73
     4
 40
20.0
 49
15.0
 74
     0
 49
-2.0
 74
     0
 49
1.0
 74
     0
 49
-2.0
 74
     0
  0
ENDTAB
  0
TABLE
  2
LAYER
  5
2
100
AcDbSymbolTable
 70
     3
  0
LAYER
  5
E
100
AcDbSymbolTableRecord
100
AcDbLayerTableRecord
  2
0
 70
     0
 62
     7
  6
CONTINUOUS
  0
LAYER
  5
1F
100
AcDbSymbolTableRecord
100
AcDbLayerTableRecord
  2
1
 70
     0
 62
     7
  6
CONTINUOUS
  0
LAYER
  5
F6E
100
AcDbSymbolTableRecord
100
AcDbLayerTableRecord
  2
文字
 70
     0
 62
     7
  6
CONTINUOUS
  0
ENDTAB
  0
TABLE
  2
STYLE
  5
3
100
AcDbSymbolTable
 70
     2
  0
STYLE
  5
F
100
AcDbSymbolTableRecord
100
AcDbTextStyleTableRecord
  2
STANDARD
 70
     0
 40
0.0
 41
1.0
 50
0.0
 71
     0
 42
3.0
  3
TXT.shx
  4
bigfont.shx
  0
STYLE
  5
41
100
AcDbSymbolTableRecord
100
AcDbTextStyleTableRecord
  2
KANJI
 70
     0
 40
0.0
 41
1.0
 50
0.0
 71
     0
 42
3.0
  3
TXT
  4
BIGFONT
  0
ENDTAB
  0
TABLE
  2
VIEW
  5
6
100
AcDbSymbolTable
 70
     0
  0
ENDTAB
  0
TABLE
  2
UCS
  5
7
100
AcDbSymbolTable
 70
     0
  0
ENDTAB
  0
TABLE
  2
APPID
  5
9
100
AcDbSymbolTable
 70
     1
  0
APPID
  5
10
100
AcDbSymbolTableRecord
100
AcDbRegAppTableRecord
  2
ACAD
 70
     0
  0
ENDTAB
  0
TABLE
  2
DIMSTYLE
  5
A
100
AcDbSymbolTable
 70
     1
  0
DIMSTYLE
105
F68
100
AcDbSymbolTableRecord
100
AcDbDimStyleTableRecord
  2
STANDARD
 70
     0
  3

  4

  5

  6

  7

 40
1.0
 41
0.18
 42
0.0625
 43
0.38
 44
0.18
 45
0.0
 46
0.0
 47
0.0
 48
0.0
140
0.18
141
0.09
142
0.0
143
25.4
144
1.0
145
0.0
146
1.0
147
0.09
 71
     0
 72
     0
 73
     1
 74
     1
 75
     0
 76
     0
 77
     0
 78
     0
170
     0
171
     2
172
     0
173
     0
174
     0
175
     0
176
     0
177
     0
178
     0
270
     2
271
     4
272
     4
273
     2
274
     2
340
F
275
     0
280
     0
281
     0
282
     0
283
     1
284
     0
285
     0
286
     0
287
     3
288
     0
  0
ENDTAB
  0
TABLE
  2
BLOCK_RECORD
  5
1
100
AcDbSymbolTable
 70
     0
  0
BLOCK_RECORD
  5
18
100
AcDbSymbolTableRecord
100
AcDbBlockTableRecord
  2
*MODEL_SPACE
  0
BLOCK_RECORD
  5
15
100
AcDbSymbolTableRecord
100
AcDbBlockTableRecord
  2
*PAPER_SPACE
  0
ENDTAB
  0
ENDSEC
  0
SECTION
  2
BLOCKS
  0
BLOCK
  5
19
100
AcDbEntity
  8
0
100
AcDbBlockBegin
  2
*MODEL_SPACE
 70
     0
 10
0.0
 20
0.0
 30
0.0
  3
*MODEL_SPACE
  1

  0
ENDBLK
  5
1A
100
AcDbEntity
  8
0
100
AcDbBlockEnd
  0
BLOCK
  5
16
100
AcDbEntity
 67
     1
  8
0
100
AcDbBlockBegin
  2
*PAPER_SPACE
 70
     0
 10
0.0
 20
0.0
 30
0.0
  3
*PAPER_SPACE
  1

  0
ENDBLK
  5
17
100
AcDbEntity
 67
     1
  8
0
100
AcDbBlockEnd
  0
ENDSEC
  0
SECTION
  2
ENTITIES
  0
TEXT
  5
43
100
AcDbEntity
  8
1
100
AcDbText
 10
172.805
 20
69.218
 30
0.0
 40
2.8
  1
以下
 50
90.0
  7
KANJI
100
AcDbText
  0
TEXT
  5
44
100
AcDbEntity
  8
1
100
AcDbText
 10
172.805
 20
64.738
 30
0.0
 40
2.8
  1
44
 50
90.0
  7
KANJI
100
AcDbText
  0
LINE
  5
45
100
AcDbEntity
  8
1
  6
CONTINUOUS
100
AcDbLine
 10
181.17
 20
79.471
 30
0.0
 11
172.505
 21
79.471
 31
0.0
  0
LINE
  5
46
100
AcDbEntity
  8
1
  6
CONTINUOUS
100
AcDbLine
 10
181.17
 20
57.471
 30
0.0
 11
172.505
 21
57.471
 31
0.0
  0
LINE
  5
47
100
AcDbEntity
  8
1
  6
CONTINUOUS
100
AcDbLine
 10
173.505
 20
79.471
 30
0.0
 11
173.505
 21
68.471
 31
0.0
  0
LINE
  5
48
100
AcDbEntity
  8
1
  6
CONTINUOUS
100
AcDbLine
 10
173.505
 20
57.471
 30
0.0
 11
173.505
 21
68.471
 31
0.0
  0
LINE
  5
49
100
AcDbEntity
  8
1
  6
CONTINUOUS
100
AcDbLine
 10
174.13
 20
77.471
 30
0.0
 11
173.505
 21
79.471
 31
0.0
  0
LINE
  5
4A
100
AcDbEntity
  8
1
  6
CONTINUOUS
100
AcDbLine
 10
173.505
 20
79.471
 30
0.0
 11
172.88
 21
77.471
 31
0.0
  0
LINE
  5
4B
100
AcDbEntity
  8
1
  6
CONTINUOUS
100
AcDbLine
 10
172.88
 20
59.471
 30
0.0
 11
173.505
 21
57.471
 31
0.0
  0
LINE
  5
4C
100
AcDbEntity
  8
1
  6
CONTINUOUS
100
AcDbLine
 10
173.505
 20
57.471
 30
0.0
 11
174.13
 21
59.471
 31
0.0
  0
TEXT
  5
4D
100
AcDbEntity
  8
1
100
AcDbText
 10
164.805
 20
66.978
 30
0.0
 40
2.8
  1
54
 50
90.0
  7
KANJI
100
AcDbText
  0
LINE
  5
4E
100
AcDbEntity
  8
1
  6
CONTINUOUS
100
AcDbLine
 10
181.17
 20
79.471
 30
0.0
 11
164.505
 21
79.471
 31
0.0
  0
LINE
  5
4F
100
AcDbEntity
  8
1
  6
CONTINUOUS
100
AcDbLine
 10
191.695
 20
52.471
 30
0.0
 11
164.505
 21
52.471
 31
0.0
  0
LINE
  5
50
100
AcDbEntity
  8
1
  6
CONTINUOUS
100
AcDbLine
 10
165.505
 20
79.471
 30
0.0
 11
165.505
 21
65.971
 31
0.0
  0
LINE
  5
51
100
AcDbEntity
  8
1
  6
CONTINUOUS
100
AcDbLine
 10
165.505
 20
52.471
 30
0.0
 11
165.505
 21
65.971
 31
0.0
  0
LINE
  5
52
100
AcDbEntity
  8
1
  6
CONTINUOUS
100
AcDbLine
 10
166.13
 20
77.471
 30
0.0
 11
165.505
 21
79.471
 31
0.0
  0
LINE
  5
53
100
AcDbEntity
  8
1
  6
CONTINUOUS
100
AcDbLine
 10
165.505
 20
79.471
 30
0.0
 11
164.88
 21
77.471
 31
0.0
  0
LINE
  5
54
100
AcDbEntity
  8
1
  6
CONTINUOUS
100
AcDbLine
 10
164.88
 20
54.471
 30
0.0
 11
165.505
 21
52.471
 31
0.0
  0
LINE
  5
55
100
AcDbEntity
  8
1
  6
CONTINUOUS
100
AcDbLine
 10
165.505
 20
52.471
 30
0.0
 11
166.13
 21
54.471
 31
0.0
  0
TEXT
  5
56
100
AcDbEntity
  8
1
100
AcDbText
 10
226.667
 20
47.643
 30
0.0
 40
2.8
  1
140
  7
KANJI
100
AcDbText
  0
LINE
  5
57
100
AcDbEntity
  8
1
  6
CONTINUOUS
100
AcDbLine
 10
196.695
 20
49.971
 30
0.0
 11
196.695
 21
45.943
 31
0.0
  0
LINE
  5
58
100
AcDbEntity
  8
1
  6
CONTINUOUS
100
AcDbLine
 10
266.695
 20
49.971
 30
0.0
 11
266.695
 21
45.943
 31
0.0
  0
LINE
  5
59
100
AcDbEntity
  8
1
  6
CONTINUOUS
100
AcDbLine
 10
196.695
 20
46.943
 30
0.0
 11
231.695
 21
46.943
 31
0.0
  0
LINE
  5
5A
100
AcDbEntity
  8
1
  6
CONTINUOUS
100
AcDbLine
 10
266.695
 20
46.943
 30
0.0
 11
231.695
 21
46.943
 31
0.0
  0
LINE
  5
5B
100
AcDbEntity
  8
1
  6
CONTINUOUS
100
AcDbLine
 10
198.695
 20
47.568
 30
0.0
 11
196.695
 21
46.943
 31
0.0
  0
LINE
  5
5C
100
AcDbEntity
  8
1
  6
CONTINUOUS
100
AcDbLine
 10
196.695
 20
46.943
 30
0.0
 11
198.695
 21
46.318
 31
0.0
  0
LINE
  5
5D
100
AcDbEntity
  8
1
  6
CONTINUOUS
100
AcDbLine
 10
264.695
 20
46.318
 30
0.0
 11
266.695
 21
46.943
 31
0.0
  0
LINE
  5
5E
100
AcDbEntity
  8
1
  6
CONTINUOUS
100
AcDbLine
 10
266.695
 20
46.943
 30
0.0
 11
264.695
 21
47.568
 31
0.0
  0
TEXT
  5
5F
100
AcDbEntity
  8
1
100
AcDbText
 10
226.507
 20
90.358
 30
0.0
 40
2.8
  1
200
  7
KANJI
100
AcDbText
  0
LINE
  5
60
100
AcDbEntity
  8
1
  6
CONTINUOUS
100
AcDbLine
 10
281.67
 20
105.376
 30
0.0
 11
281.67
 21
88.658
 31
0.0
  0
LINE
  5
61
100
AcDbEntity
  8
1
  6
CONTINUOUS
100
AcDbLine
 10
181.67
 20
105.376
 30
0.0
 11
181.67
 21
88.658
 31
0.0
  0
LINE
  5
62
100
AcDbEntity
  8
1
  6
CONTINUOUS
100
AcDbLine
 10
281.67
 20
89.658
 30
0.0
 11
231.67
 21
89.658
 31
0.0
  0
LINE
  5
63
100
AcDbEntity
  8
1
  6
CONTINUOUS
100
AcDbLine
 10
181.67
 20
89.658
 30
0.0
 11
231.67
 21
89.658
 31
0.0
  0
LINE
  5
64
100
AcDbEntity
  8
1
  6
CONTINUOUS
100
AcDbLine
 10
279.67
 20
89.033
 30
0.0
 11
281.67
 21
89.658
 31
0.0
  0
LINE
  5
65
100
AcDbEntity
  8
1
  6
CONTINUOUS
100
AcDbLine
 10
281.67
 20
89.658
 30
0.0
 11
279.67
 21
90.283
 31
0.0
  0
LINE
  5
66
100
AcDbEntity
  8
1
  6
CONTINUOUS
100
AcDbLine
 10
183.67
 20
90.283
 30
0.0
 11
181.67
 21
89.658
 31
0.0
  0
LINE
  5
67
100
AcDbEntity
  8
1
  6
CONTINUOUS
100
AcDbLine
 10
181.67
 20
89.658
 30
0.0
 11
183.67
 21
89.033
 31
0.0
  0
TEXT
  5
68
100
AcDbEntity
  8
1
100
AcDbText
 10
165.167
 20
157.298
 30
0.0
 40
2.8
  1
220
 50
90.0
  7
KANJI
100
AcDbText
  0
LINE
  5
69
100
AcDbEntity
  8
1
  6
CONTINUOUS
100
AcDbLine
 10
181.17
 20
215.876
 30
0.0
 11
164.867
 21
215.876
 31
0.0
  0
LINE
  5
6A
100
AcDbEntity
  8
1
  6
CONTINUOUS
100
AcDbLine
 10
181.17
 20
105.876
 30
0.0
 11
164.867
 21
105.876
 31
0.0
  0
LINE
  5
6B
100
AcDbEntity
  8
1
  6
CONTINUOUS
100
AcDbLine
 10
165.867
 20
215.876
 30
0.0
 11
165.867
 21
160.876
 31
0.0
  0
LINE
  5
6C
100
AcDbEntity
  8
1
  6
CONTINUOUS
100
AcDbLine
 10
165.867
 20
105.876
 30
0.0
 11
165.867
 21
160.876
 31
0.0
  0
LINE
  5
6D
100
AcDbEntity
  8
1
  6
CONTINUOUS
100
AcDbLine
 10
166.492
 20
213.876
 30
0.0
 11
165.867
 21
215.876
 31
0.0
  0
LINE
  5
6E
100
AcDbEntity
  8
1
  6
CONTINUOUS
100
AcDbLine
 10
165.867
 20
215.876
 30
0.0
 11
165.242
 21
213.876
 31
0.0
  0
LINE
  5
6F
100
AcDbEntity
  8
1
  6
CONTINUOUS
100
AcDbLine
 10
165.242
 20
107.876
 30
0.0
 11
165.867
 21
105.876
 31
0.0
  0
LINE
  5
70
100
AcDbEntity
  8
1
  6
CONTINUOUS
100
AcDbLine
 10
165.867
 20
105.876
 30
0.0
 11
166.492
 21
107.876
 31
0.0
  0
TEXT
  5
71
100
AcDbEntity
  8
1
100
AcDbText
 10
93.175
 20
158.407
 30
0.0
 40
2.8
  1
160
 50
90.0
  7
KANJI
100
AcDbText
  0
LINE
  5
72
100
AcDbEntity
  8
1
  6
CONTINUOUS
100
AcDbLine
 10
102.127
 20
201.126
 30
0.0
 11
92.875
 21
201.126
 31
0.0
  0
LINE
  5
73
100
AcDbEntity
  8
1
  6
CONTINUOUS
100
AcDbLine
 10
102.127
 20
121.126
 30
0.0
 11
92.875
 21
121.126
 31
0.0
  0
LINE
  5
74
100
AcDbEntity
  8
1
  6
CONTINUOUS
100
AcDbLine
 10
93.875
 20
201.126
 30
0.0
 11
93.875
 21
161.126
 31
0.0
  0
LINE
  5
75
100
AcDbEntity
  8
1
  6
CONTINUOUS
100
AcDbLine
 10
93.875
 20
121.126
 30
0.0
 11
93.875
 21
161.126
 31
0.0
  0
LINE
  5
76
100
AcDbEntity
  8
1
  6
CONTINUOUS
100
AcDbLine
 10
94.5
 20
199.126
 30
0.0
 11
93.875
 21
201.126
 31
0.0
  0
LINE
  5
77
100
AcDbEntity
  8
1
  6
CONTINUOUS
100
AcDbLine
 10
93.875
 20
201.126
 30
0.0
 11
93.25
 21
199.126
 31
0.0
  0
LINE
  5
78
100
AcDbEntity
  8
1
  6
CONTINUOUS
100
AcDbLine
 10
93.25
 20
123.126
 30
0.0
 11
93.875
 21
121.126
 31
0.0
  0
LINE
  5
79
100
AcDbEntity
  8
1
  6
CONTINUOUS
100
AcDbLine
 10
93.875
 20
121.126
 30
0.0
 11
94.5
 21
123.126
 31
0.0
  0
TEXT
  5
7A
100
AcDbEntity
  8
1
100
AcDbText
 10
93.175
 20
109.287
 30
0.0
 40
2.8
  1
30.5
 50
90.0
  7
KANJI
100
AcDbText
  0
LINE
  5
7B
100
AcDbEntity
  8
1
  6
CONTINUOUS
100
AcDbLine
 10
102.127
 20
121.126
 30
0.0
 11
92.875
 21
121.126
 31
0.0
  0
LINE
  5
7C
100
AcDbEntity
  8
1
  6
CONTINUOUS
100
AcDbLine
 10
109.127
 20
105.876
 30
0.0
 11
92.875
 21
105.876
 31
0.0
  0
LINE
  5
7D
100
AcDbEntity
  8
1
  6
CONTINUOUS
100
AcDbLine
 10
93.875
 20
121.126
 30
0.0
 11
93.875
 21
113.501
 31
0.0
  0
LINE
  5
7E
100
AcDbEntity
  8
1
  6
CONTINUOUS
100
AcDbLine
 10
93.875
 20
105.876
 30
0.0
 11
93.875
 21
113.501
 31
0.0
  0
LINE
  5
7F
100
AcDbEntity
  8
1
  6
CONTINUOUS
100
AcDbLine
 10
94.5
 20
119.126
 30
0.0
 11
93.875
 21
121.126
 31
0.0
  0
LINE
  5
80
100
AcDbEntity
  8
1
  6
CONTINUOUS
100
AcDbLine
 10
93.875
 20
121.126
 30
0.0
 11
93.25
 21
119.126
 31
0.0
  0
LINE
  5
81
100
AcDbEntity
  8
1
  6
CONTINUOUS
100
AcDbLine
 10
93.25
 20
107.876
 30
0.0
 11
93.875
 21
105.876
 31
0.0
  0
LINE
  5
82
100
AcDbEntity
  8
1
  6
CONTINUOUS
100
AcDbLine
 10
93.875
 20
105.876
 30
0.0
 11
94.5
 21
107.876
 31
0.0
  0
TEXT
  5
83
100
AcDbEntity
  8
1
100
AcDbText
 10
100.175
 20
207.767
 30
0.0
 40
2.8
  1
φ
 50
90.0
  7
KANJI
100
AcDbText
  0
TEXT
  5
84
100
AcDbEntity
  8
1
100
AcDbText
 10
100.175
 20
211.501
 30
0.0
 40
2.8
  1
20
 50
90.0
  7
KANJI
100
AcDbText
  0
LINE
  5
85
100
AcDbEntity
  8
1
  6
CONTINUOUS
100
AcDbLine
 10
109.127
 20
196.126
 30
0.0
 11
99.875
 21
196.126
 31
0.0
  0
LINE
  5
86
100
AcDbEntity
  8
1
  6
CONTINUOUS
100
AcDbLine
 10
109.127
 20
206.126
 30
0.0
 11
99.875
 21
206.126
 31
0.0
  0
LINE
  5
87
100
AcDbEntity
  8
1
  6
CONTINUOUS
100
AcDbLine
 10
100.875
 20
196.126
 30
0.0
 11
100.875
 21
191.126
 31
0.0
  0
LINE
  5
88
100
AcDbEntity
  8
1
  6
CONTINUOUS
100
AcDbLine
 10
100.875
 20
191.126
 30
0.0
 11
100.875
 21
201.126
 31
0.0
  0
LINE
  5
89
100
AcDbEntity
  8
1
  6
CONTINUOUS
100
AcDbLine
 10
100.875
 20
206.126
 30
0.0
 11
100.875
 21
215.981
 31
0.0
  0
LINE
  5
8A
100
AcDbEntity
  8
1
  6
CONTINUOUS
100
AcDbLine
 10
100.875
 20
215.981
 30
0.0
 11
100.875
 21
201.126
 31
0.0
  0
LINE
  5
8B
100
AcDbEntity
  8
1
  6
CONTINUOUS
100
AcDbLine
 10
101.5
 20
194.126
 30
0.0
 11
100.875
 21
196.126
 31
0.0
  0
LINE
  5
8C
100
AcDbEntity
  8
1
  6
CONTINUOUS
100
AcDbLine
 10
100.875
 20
196.126
 30
0.0
 11
100.25
 21
194.126
 31
0.0
  0
LINE
  5
8D
100
AcDbEntity
  8
1
  6
CONTINUOUS
100
AcDbLine
 10
100.25
 20
208.126
 30
0.0
 11
100.875
 21
206.126
 31
0.0
  0
LINE
  5
8E
100
AcDbEntity
  8
1
  6
CONTINUOUS
100
AcDbLine
 10
100.875
 20
206.126
 30
0.0
 11
101.5
 21
208.126
 31
0.0
  0
LINE
  5
569
100
AcDbEntity
  8
1
  6
CONTINUOUS
100
AcDbLine
 10
180.548
 20
63.221
 30
0.0
 11
180.551
 21
63.034
 31
0.0
  0
LINE
  5
56A
100
AcDbEntity
  8
1
  6
CONTINUOUS
100
AcDbLine
 10
180.551
 20
63.034
 30
0.0
 11
180.562
 21
62.846
 31
0.0
  0
LINE
  5
56B
100
AcDbEntity
  8
1
  6
CONTINUOUS
100
AcDbLine
 10
180.548
 20
73.721
 30
0.0
 11
180.551
 21
73.534
 31
0.0
  0
LINE
  5
56C
100
AcDbEntity
  8
1
  6
CONTINUOUS
100
AcDbLine
 10
180.551
 20
73.534
 30
0.0
 11
180.562
 21
73.346
 31
0.0
  0
LINE
  5
56D
100
AcDbEntity
  8
1
  6
CONTINUOUS
100
AcDbLine
 10
180.838
 20
61.219
 30
0.0
 11
180.838
 21
65.223
 31
0.0
  0
LINE
  5
56E
100
AcDbEntity
  8
1
  6
CONTINUOUS
100
AcDbLine
 10
180.838
 20
71.719
 30
0.0
 11
180.838
 21
75.723
 31
0.0
  0
LINE
  5
56F
100
AcDbEntity
  8
1
  6
CONTINUOUS
100
AcDbLine
 10
181.67
 20
79.471
 30
0.0
 11
181.67
 21
57.471
 31
0.0
  0
LINE
  5
570
100
AcDbEntity
  8
1
  6
CONTINUOUS
100
AcDbLine
 10
180.562
 20
74.096
 30
0.0
 11
180.551
 21
73.908
 31
0.0
  0
LINE
  5
571
100
AcDbEntity
  8
1
  6
CONTINUOUS
100
AcDbLine
 10
180.551
 20
73.908
 30
0.0
 11
180.548
 21
73.721
 31
0.0
  0
LINE
  5
572
100
AcDbEntity
  8
1
  6
CONTINUOUS
100
AcDbLine
 10
180.562
 20
63.596
 30
0.0
 11
180.551
 21
63.408
 31
0.0
  0
LINE
  5
573
100
AcDbEntity
  8
1
  6
CONTINUOUS
100
AcDbLine
 10
180.551
 20
63.408
 30
0.0
 11
180.548
 21
63.221
 31
0.0
  0
LINE
  5
574
100
AcDbEntity
  8
1
  6
CONTINUOUS
100
AcDbLine
 10
180.461
 20
74.246
 30
0.0
 11
180.456
 21
74.17
 31
0.0
  0
LINE
  5
575
100
AcDbEntity
  8
1
  6
CONTINUOUS
100
AcDbLine
 10
180.456
 20
74.17
 30
0.0
 11
180.456
 21
74.116
 31
0.0
  0
LINE
  5
576
100
AcDbEntity
  8
1
  6
CONTINUOUS
100
AcDbLine
 10
180.456
 20
74.116
 30
0.0
 11
180.461
 21
74.096
 31
0.0
  0
LINE
  5
577
100
AcDbEntity
  8
1
  6
CONTINUOUS
100
AcDbLine
 10
180.461
 20
63.746
 30
0.0
 11
180.456
 21
63.67
 31
0.0
  0
LINE
  5
578
100
AcDbEntity
  8
1
  6
CONTINUOUS
100
AcDbLine
 10
180.456
 20
63.67
 30
0.0
 11
180.456
 21
63.616
 31
0.0
  0
LINE
  5
579
100
AcDbEntity
  8
1
  6
CONTINUOUS
100
AcDbLine
 10
180.456
 20
63.616
 30
0.0
 11
180.461
 21
63.596
 31
0.0
  0
LINE
  5
57A
100
AcDbEntity
  8
1
  6
CONTINUOUS
100
AcDbLine
 10
180.562
 20
74.846
 30
0.0
 11
180.501
 21
74.537
 31
0.0
  0
LINE
  5
57B
100
AcDbEntity
  8
1
  6
CONTINUOUS
100
AcDbLine
 10
180.501
 20
74.537
 30
0.0
 11
180.461
 21
74.246
 31
0.0
  0
LINE
  5
57C
100
AcDbEntity
  8
1
  6
CONTINUOUS
100
AcDbLine
 10
180.562
 20
64.346
 30
0.0
 11
180.501
 21
64.037
 31
0.0
  0
LINE
  5
57D
100
AcDbEntity
  8
1
  6
CONTINUOUS
100
AcDbLine
 10
180.501
 20
64.037
 30
0.0
 11
180.461
 21
63.746
 31
0.0
  0
LINE
  5
57E
100
AcDbEntity
  8
1
  6
CONTINUOUS
100
AcDbLine
 10
180.461
 20
73.346
 30
0.0
 11
180.456
 21
73.326
 31
0.0
  0
LINE
  5
57F
100
AcDbEntity
  8
1
  6
CONTINUOUS
100
AcDbLine
 10
180.456
 20
73.326
 30
0.0
 11
180.456
 21
73.272
 31
0.0
  0
LINE
  5
580
100
AcDbEntity
  8
1
  6
CONTINUOUS
100
AcDbLine
 10
180.456
 20
73.272
 30
0.0
 11
180.461
 21
73.196
 31
0.0
  0
LINE
  5
581
100
AcDbEntity
  8
1
  6
CONTINUOUS
100
AcDbLine
 10
180.461
 20
62.696
 30
0.0
 11
180.487
 21
62.497
 31
0.0
  0
LINE
  5
582
100
AcDbEntity
  8
1
  6
CONTINUOUS
100
AcDbLine
 10
180.487
 20
62.497
 30
0.0
 11
180.52
 21
62.299
 31
0.0
  0
LINE
  5
583
100
AcDbEntity
  8
1
  6
CONTINUOUS
100
AcDbLine
 10
180.52
 20
62.299
 30
0.0
 11
180.562
 21
62.096
 31
0.0
  0
LINE
  5
584
100
AcDbEntity
  8
1
  6
CONTINUOUS
100
AcDbLine
 10
180.461
 20
73.196
 30
0.0
 11
180.487
 21
72.997
 31
0.0
  0
LINE
  5
585
100
AcDbEntity
  8
1
  6
CONTINUOUS
100
AcDbLine
 10
180.487
 20
72.997
 30
0.0
 11
180.52
 21
72.799
 31
0.0
  0
LINE
  5
586
100
AcDbEntity
  8
1
  6
CONTINUOUS
100
AcDbLine
 10
180.52
 20
72.799
 30
0.0
 11
180.562
 21
72.596
 31
0.0
  0
LINE
  5
587
100
AcDbEntity
  8
1
  6
CONTINUOUS
100
AcDbLine
 10
185.67
 20
73.471
 30
0.0
 11
185.67
 21
74.721
 31
0.0
  0
LINE
  5
588
100
AcDbEntity
  8
1
  6
CONTINUOUS
100
AcDbLine
 10
185.795
 20
74.561
 30
0.0
 11
185.795
 21
73.471
 31
0.0
  0
LINE
  5
589
100
AcDbEntity
  8
1
  6
CONTINUOUS
100
AcDbLine
 10
180.461
 20
62.846
 30
0.0
 11
180.456
 21
62.826
 31
0.0
  0
LINE
  5
58A
100
AcDbEntity
  8
1
  6
CONTINUOUS
100
AcDbLine
 10
180.456
 20
62.826
 30
0.0
 11
180.456
 21
62.772
 31
0.0
  0
LINE
  5
58B
100
AcDbEntity
  8
1
  6
CONTINUOUS
100
AcDbLine
 10
180.456
 20
62.772
 30
0.0
 11
180.461
 21
62.696
 31
0.0
  0
LINE
  5
58C
100
AcDbEntity
  8
1
  6
CONTINUOUS
100
AcDbLine
 10
186.378
 20
73.657
 30
0.0
 11
186.378
 21
74.721
 31
0.0
  0
LINE
  5
58D
100
AcDbEntity
  8
1
  6
CONTINUOUS
100
AcDbLine
 10
186.408
 20
77.112
 30
0.0
 11
186.408
 21
76.784
 31
0.0
  0
LINE
  5
58E
100
AcDbEntity
  8
1
  6
CONTINUOUS
100
AcDbLine
 10
186.408
 20
76.291
 30
0.0
 11
186.408
 21
75.526
 31
0.0
  0
LINE
  5
58F
100
AcDbEntity
  8
1
  6
CONTINUOUS
100
AcDbLine
 10
186.503
 20
74.721
 30
0.0
 11
186.503
 21
73.471
 31
0.0
  0
LINE
  5
590
100
AcDbEntity
  8
1
  6
CONTINUOUS
100
AcDbLine
 10
187.67
 20
73.923
 30
0.0
 11
187.67
 21
74.056
 31
0.0
  0
LINE
  5
591
100
AcDbEntity
  8
1
  6
CONTINUOUS
100
AcDbLine
 10
187.961
 20
74.056
 30
0.0
 11
187.961
 21
73.923
 31
0.0
  0
LINE
  5
592
100
AcDbEntity
  8
1
  6
CONTINUOUS
100
AcDbLine
 10
188.128
 20
73.843
 30
0.0
 11
188.128
 21
74.003
 31
0.0
  0
LINE
  5
593
100
AcDbEntity
  8
1
  6
CONTINUOUS
100
AcDbLine
 10
188.628
 20
74.508
 30
0.0
 11
188.628
 21
74.003
 31
0.0
  0
LINE
  5
594
100
AcDbEntity
  8
1
  6
CONTINUOUS
100
AcDbLine
 10
188.628
 20
73.471
 30
0.0
 11
188.628
 21
73.843
 31
0.0
  0
LINE
  5
595
100
AcDbEntity
  8
1
  6
CONTINUOUS
100
AcDbLine
 10
188.753
 20
74.721
 30
0.0
 11
188.753
 21
74.003
 31
0.0
  0
LINE
  5
596
100
AcDbEntity
  8
1
  6
CONTINUOUS
100
AcDbLine
 10
188.753
 20
73.843
 30
0.0
 11
188.753
 21
73.471
 31
0.0
  0
LINE
  5
597
100
AcDbEntity
  8
1
  6
CONTINUOUS
100
AcDbLine
 10
188.961
 20
74.003
 30
0.0
 11
188.961
 21
73.843
 31
0.0
  0
LINE
  5
598
100
AcDbEntity
  8
1
  6
CONTINUOUS
100
AcDbLine
 10
189.115
 20
77.112
 30
0.0
 11
189.115
 21
75.526
 31
0.0
  0
LINE
  5
599
100
AcDbEntity
  8
1
  6
CONTINUOUS
100
AcDbLine
 10
189.128
 20
73.843
 30
0.0
 11
189.128
 21
74.003
 31
0.0
  0
LINE
  5
59A
100
AcDbEntity
  8
1
  6
CONTINUOUS
100
AcDbLine
 10
189.628
 20
74.508
 30
0.0
 11
189.628
 21
74.003
 31
0.0
  0
LINE
  5
59B
100
AcDbEntity
  8
1
  6
CONTINUOUS
100
AcDbLine
 10
189.628
 20
73.471
 30
0.0
 11
189.628
 21
73.843
 31
0.0
  0
LINE
  5
59C
100
AcDbEntity
  8
1
  6
CONTINUOUS
100
AcDbLine
 10
189.753
 20
74.721
 30
0.0
 11
189.753
 21
74.003
 31
0.0
  0
LINE
  5
59D
100
AcDbEntity
  8
1
  6
CONTINUOUS
100
AcDbLine
 10
189.753
 20
73.843
 30
0.0
 11
189.753
 21
73.471
 31
0.0
  0
LINE
  5
59E
100
AcDbEntity
  8
1
  6
CONTINUOUS
100
AcDbLine
 10
190.253
 20
74.349
 30
0.0
 11
190.232
 21
74.189
 31
0.0
  0
LINE
  5
59F
100
AcDbEntity
  8
1
  6
CONTINUOUS
100
AcDbLine
 10
190.149
 20
74.349
 30
0.0
 11
190.128
 21
74.216
 31
0.0
  0
LINE
  5
5A0
100
AcDbEntity
  8
1
  6
CONTINUOUS
100
AcDbLine
 10
190.17
 20
74.429
 30
0.0
 11
190.149
 21
74.349
 31
0.0
  0
LINE
  5
5A1
100
AcDbEntity
  8
1
  6
CONTINUOUS
100
AcDbLine
 10
187.503
 20
74.721
 30
0.0
 11
187.17
 21
73.471
 31
0.0
  0
LINE
  5
5A2
100
AcDbEntity
  8
1
  6
CONTINUOUS
100
AcDbLine
 10
187.086
 20
73.631
 30
0.0
 11
187.378
 21
74.721
 31
0.0
  0
LINE
  5
5A3
100
AcDbEntity
  8
1
  6
CONTINUOUS
100
AcDbLine
 10
188.475
 20
76.619
 30
0.0
 11
188.328
 21
76.182
 31
0.0
  0
LINE
  5
5A4
100
AcDbEntity
  8
1
  6
CONTINUOUS
100
AcDbLine
 10
188.328
 20
76.182
 30
0.0
 11
188.18
 21
75.909
 31
0.0
  0
LINE
  5
5A5
100
AcDbEntity
  8
1
  6
CONTINUOUS
100
AcDbLine
 10
192.195
 20
52.471
 30
0.0
 11
191.695
 21
57.471
 31
0.0
  0
LINE
  5
5A6
100
AcDbEntity
  8
1
  6
CONTINUOUS
100
AcDbLine
 10
189.961
 20
74.003
 30
0.0
 11
189.961
 21
73.843
 31
0.0
  0
LINE
  5
5A7
100
AcDbEntity
  8
1
  6
CONTINUOUS
100
AcDbLine
 10
190.128
 20
74.216
 30
0.0
 11
190.128
 21
73.976
 31
0.0
  0
LINE
  5
5A8
100
AcDbEntity
  8
1
  6
CONTINUOUS
100
AcDbLine
 10
190.232
 20
74.189
 30
0.0
 11
190.232
 21
74.003
 31
0.0
  0
LINE
  5
5A9
100
AcDbEntity
  8
1
  6
CONTINUOUS
100
AcDbLine
 10
190.295
 20
72.846
 30
0.0
 11
190.295
 21
62.096
 31
0.0
  0
LINE
  5
5AA
100
AcDbEntity
  8
1
  6
CONTINUOUS
100
AcDbLine
 10
190.445
 20
72.721
 30
0.0
 11
190.445
 21
62.221
 31
0.0
  0
LINE
  5
5AB
100
AcDbEntity
  8
1
  6
CONTINUOUS
100
AcDbLine
 10
190.592
 20
76.291
 30
0.0
 11
190.592
 21
76.948
 31
0.0
  0
LINE
  5
5AC
100
AcDbEntity
  8
1
  6
CONTINUOUS
100
AcDbLine
 10
190.774
 20
74.003
 30
0.0
 11
190.774
 21
74.189
 31
0.0
  0
LINE
  5
5AD
100
AcDbEntity
  8
1
  6
CONTINUOUS
100
AcDbLine
 10
190.845
 20
72.321
 30
0.0
 11
190.845
 21
62.621
 31
0.0
  0
LINE
  5
5AE
100
AcDbEntity
  8
1
  6
CONTINUOUS
100
AcDbLine
 10
190.878
 20
73.976
 30
0.0
 11
190.878
 21
74.216
 31
0.0
  0
LINE
  5
5AF
100
AcDbEntity
  8
1
  6
CONTINUOUS
100
AcDbLine
 10
191.045
 20
74.216
 30
0.0
 11
191.045
 21
73.976
 31
0.0
  0
LINE
  5
5B0
100
AcDbEntity
  8
1
  6
CONTINUOUS
100
AcDbLine
 10
191.149
 20
74.189
 30
0.0
 11
191.149
 21
74.003
 31
0.0
  0
LINE
  5
5B1
100
AcDbEntity
  8
1
  6
CONTINUOUS
100
AcDbLine
 10
191.17
 20
59.971
 30
0.0
 11
191.17
 21
61.221
 31
0.0
  0
LINE
  5
5B2
100
AcDbEntity
  8
1
  6
CONTINUOUS
100
AcDbLine
 10
191.326
 20
61.088
 30
0.0
 11
191.326
 21
60.689
 31
0.0
  0
LINE
  5
5B3
100
AcDbEntity
  8
1
  6
CONTINUOUS
100
AcDbLine
 10
191.326
 20
60.53
 30
0.0
 11
191.326
 21
59.971
 31
0.0
  0
LINE
  5
5B4
100
AcDbEntity
  8
1
  6
CONTINUOUS
100
AcDbLine
 10
191.645
 20
63.721
 30
0.0
 11
191.645
 21
71.221
 31
0.0
  0
LINE
  5
5B5
100
AcDbEntity
  8
1
  6
CONTINUOUS
100
AcDbLine
 10
191.691
 20
74.003
 30
0.0
 11
191.691
 21
74.189
 31
0.0
  0
LINE
  5
5B6
100
AcDbEntity
  8
1
  6
CONTINUOUS
100
AcDbLine
 10
191.773
 20
76.948
 30
0.0
 11
191.773
 21
76.455
 31
0.0
  0
LINE
  5
5B7
100
AcDbEntity
  8
1
  6
CONTINUOUS
100
AcDbLine
 10
191.795
 20
73.976
 30
0.0
 11
191.795
 21
74.216
 31
0.0
  0
LINE
  5
5B8
100
AcDbEntity
  8
1
  6
CONTINUOUS
100
AcDbLine
 10
191.977
 20
60.849
 30
0.0
 11
191.977
 21
60.929
 31
0.0
  0
LINE
  5
5B9
100
AcDbEntity
  8
1
  6
CONTINUOUS
100
AcDbLine
 10
192.133
 20
60.929
 30
0.0
 11
192.133
 21
60.822
 31
0.0
  0
LINE
  5
5BA
100
AcDbEntity
  8
1
  6
CONTINUOUS
100
AcDbLine
 10
192.342
 20
60.397
 30
0.0
 11
192.342
 21
60.796
 31
0.0
  0
LINE
  5
5BB
100
AcDbEntity
  8
1
  6
CONTINUOUS
100
AcDbLine
 10
192.498
 20
60.397
 30
0.0
 11
192.498
 21
60.796
 31
0.0
  0
LINE
  5
5BC
100
AcDbEntity
  8
1
  6
CONTINUOUS
100
AcDbLine
 10
192.695
 20
69.921
 30
0.0
 11
192.695
 21
68.871
 31
0.0
  0
LINE
  5
5BD
100
AcDbEntity
  8
1
  6
CONTINUOUS
100
AcDbLine
 10
193.227
 20
60.796
 30
0.0
 11
193.227
 21
60.397
 31
0.0
  0
LINE
  5
5BE
100
AcDbEntity
  8
1
  6
CONTINUOUS
100
AcDbLine
 10
190.753
 20
73.843
 30
0.0
 11
190.774
 21
74.003
 31
0.0
  0
LINE
  5
5BF
100
AcDbEntity
  8
1
  6
CONTINUOUS
100
AcDbLine
 10
191.17
 20
74.349
 30
0.0
 11
191.149
 21
74.189
 31
0.0
  0
LINE
  5
5C0
100
AcDbEntity
  8
1
  6
CONTINUOUS
100
AcDbLine
 10
191.67
 20
73.843
 30
0.0
 11
191.691
 21
74.003
 31
0.0
  0
LINE
  5
5C1
100
AcDbEntity
  8
1
  6
CONTINUOUS
100
AcDbLine
 10
190.857
 20
73.843
 30
0.0
 11
190.878
 21
73.976
 31
0.0
  0
LINE
  5
5C2
100
AcDbEntity
  8
1
  6
CONTINUOUS
100
AcDbLine
 10
191.066
 20
74.349
 30
0.0
 11
191.045
 21
74.216
 31
0.0
  0
LINE
  5
5C3
100
AcDbEntity
  8
1
  6
CONTINUOUS
100
AcDbLine
 10
191.774
 20
73.843
 30
0.0
 11
191.795
 21
73.976
 31
0.0
  0
LINE
  5
5C4
100
AcDbEntity
  8
1
  6
CONTINUOUS
100
AcDbLine
 10
191.773
 20
76.455
 30
0.0
 11
191.724
 21
76.182
 31
0.0
  0
LINE
  5
5C5
100
AcDbEntity
  8
1
  6
CONTINUOUS
100
AcDbLine
 10
190.836
 20
73.764
 30
0.0
 11
190.857
 21
73.843
 31
0.0
  0
LINE
  5
5C6
100
AcDbEntity
  8
1
  6
CONTINUOUS
100
AcDbLine
 10
191.086
 20
74.429
 30
0.0
 11
191.066
 21
74.349
 31
0.0
  0
LINE
  5
5C7
100
AcDbEntity
  8
1
  6
CONTINUOUS
100
AcDbLine
 10
191.753
 20
73.764
 30
0.0
 11
191.774
 21
73.843
 31
0.0
  0
LINE
  5
5C8
100
AcDbEntity
  8
1
  6
CONTINUOUS
100
AcDbLine
 10
190.211
 20
74.535
 30
0.0
 11
190.17
 21
74.429
 31
0.0
  0
LINE
  5
5C9
100
AcDbEntity
  8
1
  6
CONTINUOUS
100
AcDbLine
 10
191.128
 20
74.535
 30
0.0
 11
191.086
 21
74.429
 31
0.0
  0
LINE
  5
5CA
100
AcDbEntity
  8
1
  6
CONTINUOUS
100
AcDbLine
 10
190.795
 20
73.657
 30
0.0
 11
190.836
 21
73.764
 31
0.0
  0
LINE
  5
5CB
100
AcDbEntity
  8
1
  6
CONTINUOUS
100
AcDbLine
 10
191.711
 20
73.657
 30
0.0
 11
191.753
 21
73.764
 31
0.0
  0
LINE
  5
5CC
100
AcDbEntity
  8
1
  6
CONTINUOUS
100
AcDbLine
 10
191.724
 20
76.182
 30
0.0
 11
191.625
 21
75.963
 31
0.0
  0
LINE
  5
5CD
100
AcDbEntity
  8
1
  6
CONTINUOUS
100
AcDbLine
 10
193.938
 20
76.674
 30
0.0
 11
194.086
 21
77.002
 31
0.0
  0
LINE
  5
5CE
100
AcDbEntity
  8
1
  6
CONTINUOUS
100
AcDbLine
 10
190.336
 20
74.508
 30
0.0
 11
190.253
 21
74.349
 31
0.0
  0
LINE
  5
5CF
100
AcDbEntity
  8
1
  6
CONTINUOUS
100
AcDbLine
 10
190.67
 20
73.684
 30
0.0
 11
190.753
 21
73.843
 31
0.0
  0
LINE
  5
5D0
100
AcDbEntity
  8
1
  6
CONTINUOUS
100
AcDbLine
 10
191.253
 20
74.508
 30
0.0
 11
191.17
 21
74.349
 31
0.0
  0
LINE
  5
5D1
100
AcDbEntity
  8
1
  6
CONTINUOUS
100
AcDbLine
 10
191.586
 20
73.684
 30
0.0
 11
191.67
 21
73.843
 31
0.0
  0
LINE
  5
5D2
100
AcDbEntity
  8
1
  6
CONTINUOUS
100
AcDbLine
 10
188.128
 20
74.003
 30
0.0
 11
188.628
 21
74.721
 31
0.0
  0
LINE
  5
5D3
100
AcDbEntity
  8
1
  6
CONTINUOUS
100
AcDbLine
 10
189.128
 20
74.003
 30
0.0
 11
189.628
 21
74.721
 31
0.0
  0
LINE
  5
5D4
100
AcDbEntity
  8
1
  6
CONTINUOUS
100
AcDbLine
 10
188.274
 20
74.003
 30
0.0
 11
188.628
 21
74.508
 31
0.0
  0
LINE
  5
5D5
100
AcDbEntity
  8
1
  6
CONTINUOUS
100
AcDbLine
 10
189.274
 20
74.003
 30
0.0
 11
189.628
 21
74.508
 31
0.0
  0
LINE
  5
5D6
100
AcDbEntity
  8
1
  6
CONTINUOUS
100
AcDbLine
 10
186.949
 20
76.784
 30
0.0
 11
186.703
 21
76.51
 31
0.0
  0
LINE
  5
5D7
100
AcDbEntity
  8
1
  6
CONTINUOUS
100
AcDbLine
 10
188.18
 20
75.909
 30
0.0
 11
187.983
 21
75.69
 31
0.0
  0
LINE
  5
5D8
100
AcDbEntity
  8
1
  6
CONTINUOUS
100
AcDbLine
 10
191.977
 20
60.929
 30
0.0
 11
191.951
 21
61.008
 31
0.0
  0
LINE
  5
5D9
100
AcDbEntity
  8
1
  6
CONTINUOUS
100
AcDbLine
 10
192.107
 20
61.008
 30
0.0
 11
192.133
 21
60.929
 31
0.0
  0
LINE
  5
5DA
100
AcDbEntity
  8
1
  6
CONTINUOUS
100
AcDbLine
 10
186.795
 20
74.721
 30
0.0
 11
187.086
 21
73.631
 31
0.0
  0
LINE
  5
5DB
100
AcDbEntity
  8
1
  6
CONTINUOUS
100
AcDbLine
 10
187.003
 20
73.471
 30
0.0
 11
186.67
 21
74.721
 31
0.0
  0
LINE
  5
5DC
100
AcDbEntity
  8
1
  6
CONTINUOUS
100
AcDbLine
 10
192.524
 20
60.29
 30
0.0
 11
192.498
 21
60.397
 31
0.0
  0
LINE
  5
5DD
100
AcDbEntity
  8
1
  6
CONTINUOUS
100
AcDbLine
 10
193.201
 20
60.902
 30
0.0
 11
193.227
 21
60.796
 31
0.0
  0
LINE
  5
5DE
100
AcDbEntity
  8
1
  6
CONTINUOUS
100
AcDbLine
 10
192.368
 20
60.264
 30
0.0
 11
192.342
 21
60.397
 31
0.0
  0
LINE
  5
5DF
100
AcDbEntity
  8
1
  6
CONTINUOUS
100
AcDbLine
 10
193.357
 20
60.929
 30
0.0
 11
193.383
 21
60.796
 31
0.0
  0
LINE
  5
5E0
100
AcDbEntity
  8
1
  6
CONTINUOUS
100
AcDbLine
 10
190.128
 20
73.976
 30
0.0
 11
190.149
 21
73.843
 31
0.0
  0
LINE
  5
5E1
100
AcDbEntity
  8
1
  6
CONTINUOUS
100
AcDbLine
 10
190.878
 20
74.216
 30
0.0
 11
190.857
 21
74.349
 31
0.0
  0
LINE
  5
5E2
100
AcDbEntity
  8
1
  6
CONTINUOUS
100
AcDbLine
 10
191.045
 20
73.976
 30
0.0
 11
191.066
 21
73.843
 31
0.0
  0
LINE
  5
5E3
100
AcDbEntity
  8
1
  6
CONTINUOUS
100
AcDbLine
 10
190.232
 20
74.003
 30
0.0
 11
190.253
 21
73.843
 31
0.0
  0
LINE
  5
5E4
100
AcDbEntity
  8
1
  6
CONTINUOUS
100
AcDbLine
 10
190.774
 20
74.189
 30
0.0
 11
190.753
 21
74.349
 31
0.0
  0
LINE
  5
5E5
100
AcDbEntity
  8
1
  6
CONTINUOUS
100
AcDbLine
 10
191.149
 20
74.003
 30
0.0
 11
191.17
 21
73.843
 31
0.0
  0
LINE
  5
5E6
100
AcDbEntity
  8
1
  6
CONTINUOUS
100
AcDbLine
 10
191.691
 20
74.189
 30
0.0
 11
191.67
 21
74.349
 31
0.0
  0
LINE
  5
5E7
100
AcDbEntity
  8
1
  6
CONTINUOUS
100
AcDbLine
 10
193.383
 20
60.796
 30
0.0
 11
193.383
 21
60.397
 31
0.0
  0
LINE
  5
5E8
100
AcDbEntity
  8
1
  6
CONTINUOUS
100
AcDbLine
 10
195.05
 20
59.971
 30
0.0
 11
195.05
 21
61.221
 31
0.0
  0
LINE
  5
5E9
100
AcDbEntity
  8
1
  6
CONTINUOUS
100
AcDbLine
 10
195.206
 20
61.061
 30
0.0
 11
195.206
 21
60.716
 31
0.0
  0
LINE
  5
5EA
100
AcDbEntity
  8
1
  6
CONTINUOUS
100
AcDbLine
 10
195.206
 20
60.556
 30
0.0
 11
195.206
 21
60.131
 31
0.0
  0
LINE
  5
5EB
100
AcDbEntity
  8
1
  6
CONTINUOUS
100
AcDbLine
 10
195.695
 20
68.871
 30
0.0
 11
195.695
 21
69.921
 31
0.0
  0
LINE
  5
5EC
100
AcDbEntity
  8
1
  6
CONTINUOUS
100
AcDbLine
 10
195.883
 20
60.716
 30
0.0
 11
195.883
 21
60.556
 31
0.0
  0
LINE
  5
5ED
100
AcDbEntity
  8
1
  6
CONTINUOUS
100
AcDbLine
 10
195.987
 20
61.221
 30
0.0
 11
195.987
 21
61.061
 31
0.0
  0
LINE
  5
5EE
100
AcDbEntity
  8
1
  6
CONTINUOUS
100
AcDbLine
 10
195.987
 20
60.131
 30
0.0
 11
195.987
 21
59.971
 31
0.0
  0
LINE
  5
5EF
100
AcDbEntity
  8
1
  6
CONTINUOUS
100
AcDbLine
 10
196.196
 20
61.221
 30
0.0
 11
196.196
 21
59.971
 31
0.0
  0
LINE
  5
5F0
100
AcDbEntity
  8
1
  6
CONTINUOUS
100
AcDbLine
 10
196.352
 20
61.088
 30
0.0
 11
196.352
 21
60.689
 31
0.0
  0
LINE
  5
5F1
100
AcDbEntity
  8
1
  6
CONTINUOUS
100
AcDbLine
 10
196.352
 20
59.971
 30
0.0
 11
196.352
 21
60.53
 31
0.0
  0
LINE
  5
5F2
100
AcDbEntity
  8
1
  6
DASHDOT
100
AcDbLine
 10
196.695
 20
59.471
 30
0.0
 11
196.695
 21
50.471
 31
0.0
  0
LINE
  5
5F3
100
AcDbEntity
  8
1
  6
CONTINUOUS
100
AcDbLine
 10
196.745
 20
63.721
 30
0.0
 11
196.745
 21
71.221
 31
0.0
  0
LINE
  5
5F4
100
AcDbEntity
  8
1
  6
CONTINUOUS
100
AcDbLine
 10
194.972
 20
77.002
 30
0.0
 11
194.923
 21
76.619
 31
0.0
  0
LINE
  5
5F5
100
AcDbEntity
  8
1
  6
CONTINUOUS
100
AcDbLine
 10
194.529
 20
60.264
 30
0.0
 11
194.685
 21
61.221
 31
0.0
  0
LINE
  5
5F6
100
AcDbEntity
  8
1
  6
CONTINUOUS
100
AcDbLine
 10
194.842
 20
61.221
 30
0.0
 11
194.633
 21
59.971
 31
0.0
  0
LINE
  5
5F7
100
AcDbEntity
  8
1
  6
CONTINUOUS
100
AcDbLine
 10
197.088
 20
76.346
 30
0.0
 11
197.039
 21
76.073
 31
0.0
  0
LINE
  5
5F8
100
AcDbEntity
  8
1
  6
CONTINUOUS
100
AcDbLine
 10
192.342
 20
60.796
 30
0.0
 11
192.368
 21
60.929
 31
0.0
  0
LINE
  5
5F9
100
AcDbEntity
  8
1
  6
CONTINUOUS
100
AcDbLine
 10
193.383
 20
60.397
 30
0.0
 11
193.357
 21
60.264
 31
0.0
  0
LINE
  5
5FA
100
AcDbEntity
  8
1
  6
CONTINUOUS
100
AcDbLine
 10
194.217
 20
60.982
 30
0.0
 11
194.008
 21
59.971
 31
0.0
  0
LINE
  5
5FB
100
AcDbEntity
  8
1
  6
CONTINUOUS
100
AcDbLine
 10
193.904
 20
60.264
 30
0.0
 11
194.112
 21
61.221
 31
0.0
  0
LINE
  5
5FC
100
AcDbEntity
  8
1
  6
CONTINUOUS
100
AcDbLine
 10
196.547
 20
76.893
 30
0.0
 11
196.498
 21
76.674
 31
0.0
  0
LINE
  5
5FD
100
AcDbEntity
  8
1
  6
CONTINUOUS
100
AcDbLine
 10
192.498
 20
60.796
 30
0.0
 11
192.524
 21
60.902
 31
0.0
  0
LINE
  5
5FE
100
AcDbEntity
  8
1
  6
CONTINUOUS
100
AcDbLine
 10
193.227
 20
60.397
 30
0.0
 11
193.201
 21
60.29
 31
0.0
  0
LINE
  5
5FF
100
AcDbEntity
  8
1
  6
CONTINUOUS
100
AcDbLine
 10
194.923
 20
76.619
 30
0.0
 11
194.824
 21
76.291
 31
0.0
  0
LINE
  5
600
100
AcDbEntity
  8
1
  6
CONTINUOUS
100
AcDbLine
 10
191.951
 20
60.769
 30
0.0
 11
191.977
 21
60.849
 31
0.0
  0
LINE
  5
601
100
AcDbEntity
  8
1
  6
CONTINUOUS
100
AcDbLine
 10
192.133
 20
60.822
 30
0.0
 11
192.107
 21
60.742
 31
0.0
  0
LINE
  5
602
100
AcDbEntity
  8
1
  6
CONTINUOUS
100
AcDbLine
 10
196.498
 20
76.674
 30
0.0
 11
196.399
 21
76.401
 31
0.0
  0
LINE
  5
603
100
AcDbEntity
  8
1
  6
CONTINUOUS
100
AcDbLine
 10
197.039
 20
76.073
 30
0.0
 11
196.941
 21
75.799
 31
0.0
  0
LINE
  5
604
100
AcDbEntity
  8
1
  6
CONTINUOUS
100
AcDbLine
 10
194.824
 20
76.291
 30
0.0
 11
194.677
 21
76.018
 31
0.0
  0
LINE
  5
605
100
AcDbEntity
  8
1
  6
CONTINUOUS
100
AcDbLine
 10
196.941
 20
75.799
 30
0.0
 11
196.793
 21
75.526
 31
0.0
  0
LINE
  5
606
100
AcDbEntity
  8
1
  6
CONTINUOUS
100
AcDbLine
 10
196.399
 20
76.401
 30
0.0
 11
196.301
 21
76.237
 31
0.0
  0
LINE
  5
607
100
AcDbEntity
  8
1
  6
CONTINUOUS
100
AcDbLine
 10
190.274
 20
74.615
 30
0.0
 11
190.211
 21
74.535
 31
0.0
  0
LINE
  5
608
100
AcDbEntity
  8
1
  6
CONTINUOUS
100
AcDbLine
 10
191.191
 20
74.615
 30
0.0
 11
191.128
 21
74.535
 31
0.0
  0
LINE
  5
609
100
AcDbEntity
  8
1
  6
CONTINUOUS
100
AcDbLine
 10
190.732
 20
73.577
 30
0.0
 11
190.795
 21
73.657
 31
0.0
  0
LINE
  5
60A
100
AcDbEntity
  8
1
  6
CONTINUOUS
100
AcDbLine
 10
191.649
 20
73.577
 30
0.0
 11
191.711
 21
73.657
 31
0.0
  0
LINE
  5
60B
100
AcDbEntity
  8
1
  6
CONTINUOUS
100
AcDbLine
 10
191.625
 20
75.963
 30
0.0
 11
191.478
 21
75.799
 31
0.0
  0
LINE
  5
60C
100
AcDbEntity
  8
1
  6
CONTINUOUS
100
AcDbLine
 10
193.692
 20
76.401
 30
0.0
 11
193.938
 21
76.674
 31
0.0
  0
LINE
  5
60D
100
AcDbEntity
  8
1
  6
CONTINUOUS
100
AcDbLine
 10
186.703
 20
76.51
 30
0.0
 11
186.408
 21
76.291
 31
0.0
  0
LINE
  5
60E
100
AcDbEntity
  8
1
  6
CONTINUOUS
100
AcDbLine
 10
192.576
 20
60.21
 30
0.0
 11
192.524
 21
60.29
 31
0.0
  0
LINE
  5
60F
100
AcDbEntity
  8
1
  6
CONTINUOUS
100
AcDbLine
 10
193.149
 20
60.982
 30
0.0
 11
193.201
 21
60.902
 31
0.0
  0
LINE
  5
610
100
AcDbEntity
  8
1
  6
CONTINUOUS
100
AcDbLine
 10
192.42
 20
60.157
 30
0.0
 11
192.368
 21
60.264
 31
0.0
  0
LINE
  5
611
100
AcDbEntity
  8
1
  6
CONTINUOUS
100
AcDbLine
 10
185.857
 20
74.721
 30
0.0
 11
186.378
 21
73.657
 31
0.0
  0
LINE
  5
612
100
AcDbEntity
  8
1
  6
CONTINUOUS
100
AcDbLine
 10
193.305
 20
61.035
 30
0.0
 11
193.357
 21
60.929
 31
0.0
  0
LINE
  5
613
100
AcDbEntity
  8
1
  6
CONTINUOUS
100
AcDbLine
 10
186.316
 20
73.471
 30
0.0
 11
185.795
 21
74.561
 31
0.0
  0
LINE
  5
614
100
AcDbEntity
  8
1
  6
CONTINUOUS
100
AcDbLine
 10
187.885
 20
76.619
 30
0.0
 11
188.032
 21
76.291
 31
0.0
  0
LINE
  5
615
100
AcDbEntity
  8
1
  6
CONTINUOUS
100
AcDbLine
 10
190.17
 20
73.764
 30
0.0
 11
190.211
 21
73.657
 31
0.0
  0
LINE
  5
616
100
AcDbEntity
  8
1
  6
CONTINUOUS
100
AcDbLine
 10
191.086
 20
73.764
 30
0.0
 11
191.128
 21
73.657
 31
0.0
  0
LINE
  5
617
100
AcDbEntity
  8
1
  6
CONTINUOUS
100
AcDbLine
 10
190.836
 20
74.429
 30
0.0
 11
190.795
 21
74.535
 31
0.0
  0
LINE
  5
618
100
AcDbEntity
  8
1
  6
CONTINUOUS
100
AcDbLine
 10
190.149
 20
73.843
 30
0.0
 11
190.17
 21
73.764
 31
0.0
  0
LINE
  5
619
100
AcDbEntity
  8
1
  6
CONTINUOUS
100
AcDbLine
 10
190.857
 20
74.349
 30
0.0
 11
190.836
 21
74.429
 31
0.0
  0
LINE
  5
61A
100
AcDbEntity
  8
1
  6
CONTINUOUS
100
AcDbLine
 10
191.066
 20
73.843
 30
0.0
 11
191.086
 21
73.764
 31
0.0
  0
LINE
  5
61B
100
AcDbEntity
  8
1
  6
CONTINUOUS
100
AcDbLine
 10
191.774
 20
74.349
 30
0.0
 11
191.753
 21
74.429
 31
0.0
  0
LINE
  5
61C
100
AcDbEntity
  8
1
  6
CONTINUOUS
100
AcDbLine
 10
194.321
 20
61.221
 30
0.0
 11
194.529
 21
60.264
 31
0.0
  0
LINE
  5
61D
100
AcDbEntity
  8
1
  6
CONTINUOUS
100
AcDbLine
 10
194.425
 20
59.971
 30
0.0
 11
194.217
 21
60.982
 31
0.0
  0
LINE
  5
61E
100
AcDbEntity
  8
1
  6
CONTINUOUS
100
AcDbLine
 10
193.8
 20
59.971
 30
0.0
 11
193.592
 21
61.221
 31
0.0
  0
LINE
  5
61F
100
AcDbEntity
  8
1
  6
CONTINUOUS
100
AcDbLine
 10
193.748
 20
61.221
 30
0.0
 11
193.904
 21
60.264
 31
0.0
  0
LINE
  5
620
100
AcDbEntity
  8
1
  6
CONTINUOUS
100
AcDbLine
 10
191.795
 20
74.216
 30
0.0
 11
191.774
 21
74.349
 31
0.0
  0
LINE
  5
621
100
AcDbEntity
  8
1
  6
CONTINUOUS
100
AcDbLine
 10
197.003
 20
60.849
 30
0.0
 11
197.003
 21
60.929
 31
0.0
  0
LINE
  5
622
100
AcDbEntity
  8
1
  6
CONTINUOUS
100
AcDbLine
 10
197.088
 20
77.057
 30
0.0
 11
197.088
 21
76.346
 31
0.0
  0
LINE
  5
623
100
AcDbEntity
  8
1
  6
CONTINUOUS
100
AcDbLine
 10
197.159
 20
60.822
 30
0.0
 11
197.159
 21
60.929
 31
0.0
  0
LINE
  5
624
100
AcDbEntity
  8
1
  6
CONTINUOUS
100
AcDbLine
 10
197.433
 20
77.057
 30
0.0
 11
197.433
 21
75.526
 31
0.0
  0
LINE
  5
625
100
AcDbEntity
  8
1
  6
CONTINUOUS
100
AcDbLine
 10
197.545
 20
62.621
 30
0.0
 11
197.545
 21
72.321
 31
0.0
  0
LINE
  5
626
100
AcDbEntity
  8
1
  6
CONTINUOUS
100
AcDbLine
 10
197.945
 20
62.221
 30
0.0
 11
197.945
 21
72.721
 31
0.0
  0
LINE
  5
627
100
AcDbEntity
  8
1
  6
CONTINUOUS
100
AcDbLine
 10
198.045
 20
62.096
 30
0.0
 11
198.045
 21
72.846
 31
0.0
  0
LINE
  5
628
100
AcDbEntity
  8
1
  6
CONTINUOUS
100
AcDbLine
 10
199.156
 20
76.893
 30
0.0
 11
199.156
 21
76.346
 31
0.0
  0
LINE
  5
629
100
AcDbEntity
  8
1
  6
CONTINUOUS
100
AcDbLine
 10
200.042
 20
77.057
 30
0.0
 11
200.042
 21
75.69
 31
0.0
  0
LINE
  5
62A
100
AcDbEntity
  8
1
  6
CONTINUOUS
100
AcDbLine
 10
199.156
 20
76.346
 30
0.0
 11
199.106
 21
76.073
 31
0.0
  0
LINE
  5
62B
100
AcDbEntity
  8
1
  6
CONTINUOUS
100
AcDbLine
 10
196.977
 20
60.769
 30
0.0
 11
197.003
 21
60.849
 31
0.0
  0
LINE
  5
62C
100
AcDbEntity
  8
1
  6
CONTINUOUS
100
AcDbLine
 10
198.122
 20
76.127
 30
0.0
 11
198.171
 21
76.237
 31
0.0
  0
LINE
  5
62D
100
AcDbEntity
  8
1
  6
CONTINUOUS
100
AcDbLine
 10
192.368
 20
60.929
 30
0.0
 11
192.42
 21
61.035
 31
0.0
  0
LINE
  5
62E
100
AcDbEntity
  8
1
  6
CONTINUOUS
100
AcDbLine
 10
193.357
 20
60.264
 30
0.0
 11
193.305
 21
60.157
 31
0.0
  0
LINE
  5
62F
100
AcDbEntity
  8
1
  6
CONTINUOUS
100
AcDbLine
 10
198.024
 20
75.963
 30
0.0
 11
198.122
 21
76.127
 31
0.0
  0
LINE
  5
630
100
AcDbEntity
  8
1
  6
CONTINUOUS
100
AcDbLine
 10
199.106
 20
76.073
 30
0.0
 11
198.959
 21
75.854
 31
0.0
  0
LINE
  5
631
100
AcDbEntity
  8
1
  6
CONTINUOUS
100
AcDbLine
 10
196.301
 20
76.237
 30
0.0
 11
196.153
 21
76.073
 31
0.0
  0
LINE
  5
632
100
AcDbEntity
  8
1
  6
CONTINUOUS
100
AcDbLine
 10
197.876
 20
75.799
 30
0.0
 11
198.024
 21
75.963
 31
0.0
  0
LINE
  5
633
100
AcDbEntity
  8
1
  6
CONTINUOUS
100
AcDbLine
 10
194.677
 20
76.018
 30
0.0
 11
194.431
 21
75.799
 31
0.0
  0
LINE
  5
634
100
AcDbEntity
  8
1
  6
CONTINUOUS
100
AcDbLine
 10
190.399
 20
74.561
 30
0.0
 11
190.336
 21
74.508
 31
0.0
  0
LINE
  5
635
100
AcDbEntity
  8
1
  6
CONTINUOUS
100
AcDbLine
 10
191.316
 20
74.561
 30
0.0
 11
191.253
 21
74.508
 31
0.0
  0
LINE
  5
636
100
AcDbEntity
  8
1
  6
CONTINUOUS
100
AcDbLine
 10
190.607
 20
73.631
 30
0.0
 11
190.67
 21
73.684
 31
0.0
  0
LINE
  5
637
100
AcDbEntity
  8
1
  6
CONTINUOUS
100
AcDbLine
 10
191.524
 20
73.631
 30
0.0
 11
191.586
 21
73.684
 31
0.0
  0
LINE
  5
638
100
AcDbEntity
  8
1
  6
CONTINUOUS
100
AcDbLine
 10
190.378
 20
74.694
 30
0.0
 11
190.274
 21
74.615
 31
0.0
  0
LINE
  5
639
100
AcDbEntity
  8
1
  6
CONTINUOUS
100
AcDbLine
 10
191.295
 20
74.694
 30
0.0
 11
191.191
 21
74.615
 31
0.0
  0
LINE
  5
63A
100
AcDbEntity
  8
1
  6
CONTINUOUS
100
AcDbLine
 10
192.524
 20
60.051
 30
0.0
 11
192.42
 21
60.157
 31
0.0
  0
LINE
  5
63B
100
AcDbEntity
  8
1
  6
CONTINUOUS
100
AcDbLine
 10
191.951
 20
61.008
 30
0.0
 11
191.899
 21
61.061
 31
0.0
  0
LINE
  5
63C
100
AcDbEntity
  8
1
  6
CONTINUOUS
100
AcDbLine
 10
192.029
 20
61.115
 30
0.0
 11
192.107
 21
61.008
 31
0.0
  0
LINE
  5
63D
100
AcDbEntity
  8
1
  6
CONTINUOUS
100
AcDbLine
 10
187.442
 20
76.619
 30
0.0
 11
187.638
 21
76.291
 31
0.0
  0
LINE
  5
63E
100
AcDbEntity
  8
1
  6
CONTINUOUS
100
AcDbLine
 10
190.253
 20
73.843
 30
0.0
 11
190.336
 21
73.684
 31
0.0
  0
LINE
  5
63F
100
AcDbEntity
  8
1
  6
CONTINUOUS
100
AcDbLine
 10
190.753
 20
74.349
 30
0.0
 11
190.67
 21
74.508
 31
0.0
  0
LINE
  5
640
100
AcDbEntity
  8
1
  6
CONTINUOUS
100
AcDbLine
 10
191.17
 20
73.843
 30
0.0
 11
191.253
 21
73.684
 31
0.0
  0
LINE
  5
641
100
AcDbEntity
  8
1
  6
CONTINUOUS
100
AcDbLine
 10
191.67
 20
74.349
 30
0.0
 11
191.586
 21
74.508
 31
0.0
  0
LINE
  5
642
100
AcDbEntity
  8
1
  6
CONTINUOUS
100
AcDbLine
 10
191.753
 20
74.429
 30
0.0
 11
191.711
 21
74.535
 31
0.0
  0
LINE
  5
643
100
AcDbEntity
  8
1
  6
CONTINUOUS
100
AcDbLine
 10
197.185
 20
59.971
 30
0.0
 11
196.951
 21
60.583
 31
0.0
  0
LINE
  5
644
100
AcDbEntity
  8
1
  6
CONTINUOUS
100
AcDbLine
 10
196.795
 20
60.53
 30
0.0
 11
197.003
 21
59.971
 31
0.0
  0
LINE
  5
645
100
AcDbEntity
  8
1
  6
CONTINUOUS
100
AcDbLine
 10
197.003
 20
60.929
 30
0.0
 11
196.977
 21
61.008
 31
0.0
  0
LINE
  5
646
100
AcDbEntity
  8
1
  6
CONTINUOUS
100
AcDbLine
 10
197.159
 20
60.929
 30
0.0
 11
197.133
 21
61.008
 31
0.0
  0
LINE
  5
647
100
AcDbEntity
  8
1
  6
CONTINUOUS
100
AcDbLine
 10
201.195
 20
52.471
 30
0.0
 11
201.695
 21
57.471
 31
0.0
  0
LINE
  5
648
100
AcDbEntity
  8
1
  6
CONTINUOUS
100
AcDbLine
 10
202.552
 20
76.51
 30
0.0
 11
202.453
 21
75.58
 31
0.0
  0
LINE
  5
649
100
AcDbEntity
  8
1
  6
CONTINUOUS
100
AcDbLine
 10
197.133
 20
60.742
 30
0.0
 11
197.159
 21
60.822
 31
0.0
  0
LINE
  5
64A
100
AcDbEntity
  8
1
  6
CONTINUOUS
100
AcDbLine
 10
192.524
 20
60.902
 30
0.0
 11
192.576
 21
60.982
 31
0.0
  0
LINE
  5
64B
100
AcDbEntity
  8
1
  6
CONTINUOUS
100
AcDbLine
 10
193.201
 20
60.29
 30
0.0
 11
193.149
 21
60.21
 31
0.0
  0
LINE
  5
64C
100
AcDbEntity
  8
1
  6
CONTINUOUS
100
AcDbLine
 10
192.107
 20
60.742
 30
0.0
 11
192.029
 21
60.636
 31
0.0
  0
LINE
  5
64D
100
AcDbEntity
  8
1
  6
CONTINUOUS
100
AcDbLine
 10
198.959
 20
75.854
 30
0.0
 11
198.811
 21
75.69
 31
0.0
  0
LINE
  5
64E
100
AcDbEntity
  8
1
  6
CONTINUOUS
100
AcDbLine
 10
197.545
 20
72.321
 30
0.0
 11
197.945
 21
72.721
 31
0.0
  0
LINE
  5
64F
100
AcDbEntity
  8
1
  6
CONTINUOUS
100
AcDbLine
 10
197.679
 20
75.635
 30
0.0
 11
197.876
 21
75.799
 31
0.0
  0
LINE
  5
650
100
AcDbEntity
  8
1
  6
CONTINUOUS
100
AcDbLine
 10
190.628
 20
73.498
 30
0.0
 11
190.732
 21
73.577
 31
0.0
  0
LINE
  5
651
100
AcDbEntity
  8
1
  6
CONTINUOUS
100
AcDbLine
 10
191.545
 20
73.498
 30
0.0
 11
191.649
 21
73.577
 31
0.0
  0
LINE
  5
652
100
AcDbEntity
  8
1
  6
CONTINUOUS
100
AcDbLine
 10
196.153
 20
76.073
 30
0.0
 11
195.858
 21
75.854
 31
0.0
  0
LINE
  5
653
100
AcDbEntity
  8
1
  6
CONTINUOUS
100
AcDbLine
 10
191.478
 20
75.799
 30
0.0
 11
191.231
 21
75.635
 31
0.0
  0
LINE
  5
654
100
AcDbEntity
  8
1
  6
CONTINUOUS
100
AcDbLine
 10
194.431
 20
75.799
 30
0.0
 11
194.185
 21
75.635
 31
0.0
  0
LINE
  5
655
100
AcDbEntity
  8
1
  6
CONTINUOUS
100
AcDbLine
 10
187.983
 20
75.69
 30
0.0
 11
187.786
 21
75.58
 31
0.0
  0
LINE
  5
656
100
AcDbEntity
  8
1
  6
CONTINUOUS
100
AcDbLine
 10
186.408
 20
76.291
 30
0.0
 11
186.162
 21
76.182
 31
0.0
  0
LINE
  5
657
100
AcDbEntity
  8
1
  6
CONTINUOUS
100
AcDbLine
 10
191.925
 20
61.194
 30
0.0
 11
192.029
 21
61.115
 31
0.0
  0
LINE
  5
658
100
AcDbEntity
  8
1
  6
CONTINUOUS
100
AcDbLine
 10
193.201
 20
61.141
 30
0.0
 11
193.305
 21
61.035
 31
0.0
  0
LINE
  5
659
100
AcDbEntity
  8
1
  6
CONTINUOUS
100
AcDbLine
 10
196.977
 20
61.008
 30
0.0
 11
196.925
 21
61.061
 31
0.0
  0
LINE
  5
65A
100
AcDbEntity
  8
1
  6
CONTINUOUS
100
AcDbLine
 10
190.211
 20
73.657
 30
0.0
 11
190.274
 21
73.577
 31
0.0
  0
LINE
  5
65B
100
AcDbEntity
  8
1
  6
CONTINUOUS
100
AcDbLine
 10
197.133
 20
61.008
 30
0.0
 11
197.055
 21
61.115
 31
0.0
  0
LINE
  5
65C
100
AcDbEntity
  8
1
  6
CONTINUOUS
100
AcDbLine
 10
204.767
 20
76.291
 30
0.0
 11
204.767
 21
76.948
 31
0.0
  0
LINE
  5
65D
100
AcDbEntity
  8
1
  6
CONTINUOUS
100
AcDbLine
 10
205.948
 20
76.948
 30
0.0
 11
205.948
 21
76.455
 31
0.0
  0
LINE
  5
65E
100
AcDbEntity
  8
1
  6
CONTINUOUS
100
AcDbLine
 10
205.948
 20
76.455
 30
0.0
 11
205.899
 21
76.182
 31
0.0
  0
LINE
  5
65F
100
AcDbEntity
  8
1
  6
CONTINUOUS
100
AcDbLine
 10
205.899
 20
76.182
 30
0.0
 11
205.8
 21
75.963
 31
0.0
  0
LINE
  5
660
100
AcDbEntity
  8
1
  6
CONTINUOUS
100
AcDbLine
 10
197.055
 20
60.636
 30
0.0
 11
197.133
 21
60.742
 31
0.0
  0
LINE
  5
661
100
AcDbEntity
  8
1
  6
CONTINUOUS
100
AcDbLine
 10
205.8
 20
75.963
 30
0.0
 11
205.653
 21
75.799
 31
0.0
  0
LINE
  5
662
100
AcDbEntity
  8
1
  6
CONTINUOUS
100
AcDbLine
 10
191.899
 20
60.716
 30
0.0
 11
191.951
 21
60.769
 31
0.0
  0
LINE
  5
663
100
AcDbEntity
  8
1
  6
CONTINUOUS
100
AcDbLine
 10
192.42
 20
61.035
 30
0.0
 11
192.524
 21
61.141
 31
0.0
  0
LINE
  5
664
100
AcDbEntity
  8
1
  6
CONTINUOUS
100
AcDbLine
 10
190.845
 20
62.621
 30
0.0
 11
190.445
 21
62.221
 31
0.0
  0
LINE
  5
665
100
AcDbEntity
  8
1
  6
CONTINUOUS
100
AcDbLine
 10
198.811
 20
75.69
 30
0.0
 11
198.516
 21
75.526
 31
0.0
  0
LINE
  5
666
100
AcDbEntity
  8
1
  6
CONTINUOUS
100
AcDbLine
 10
200.829
 20
76.619
 30
0.0
 11
201.124
 21
76.784
 31
0.0
  0
LINE
  5
667
100
AcDbEntity
  8
1
  6
CONTINUOUS
100
AcDbLine
 10
186.162
 20
76.182
 30
0.0
 11
185.719
 21
76.018
 31
0.0
  0
LINE
  5
668
100
AcDbEntity
  8
1
  6
CONTINUOUS
100
AcDbLine
 10
187.786
 20
75.58
 30
0.0
 11
187.638
 21
75.526
 31
0.0
  0
LINE
  5
669
100
AcDbEntity
  8
1
  6
CONTINUOUS
100
AcDbLine
 10
192.654
 20
60.157
 30
0.0
 11
192.576
 21
60.21
 31
0.0
  0
LINE
  5
66A
100
AcDbEntity
  8
1
  6
CONTINUOUS
100
AcDbLine
 10
193.071
 20
61.035
 30
0.0
 11
193.149
 21
60.982
 31
0.0
  0
LINE
  5
66B
100
AcDbEntity
  8
1
  6
CONTINUOUS
100
AcDbLine
 10
197.055
 20
61.115
 30
0.0
 11
196.951
 21
61.194
 31
0.0
  0
LINE
  5
66C
100
AcDbEntity
  8
1
  6
CONTINUOUS
100
AcDbLine
 10
197.545
 20
62.621
 30
0.0
 11
197.945
 21
62.221
 31
0.0
  0
LINE
  5
66D
100
AcDbEntity
  8
1
  6
CONTINUOUS
100
AcDbLine
 10
190.845
 20
72.321
 30
0.0
 11
190.445
 21
72.721
 31
0.0
  0
LINE
  5
66E
100
AcDbEntity
  8
1
  6
CONTINUOUS
100
AcDbLine
 10
191.128
 20
73.657
 30
0.0
 11
191.191
 21
73.577
 31
0.0
  0
LINE
  5
66F
100
AcDbEntity
  8
1
  6
CONTINUOUS
100
AcDbLine
 10
190.795
 20
74.535
 30
0.0
 11
190.732
 21
74.615
 31
0.0
  0
LINE
  5
670
100
AcDbEntity
  8
1
  6
CONTINUOUS
100
AcDbLine
 10
191.711
 20
74.535
 30
0.0
 11
191.649
 21
74.615
 31
0.0
  0
LINE
  5
671
100
AcDbEntity
  8
1
  6
CONTINUOUS
100
AcDbLine
 10
193.305
 20
60.157
 30
0.0
 11
193.201
 21
60.051
 31
0.0
  0
LINE
  5
672
100
AcDbEntity
  8
1
  6
CONTINUOUS
100
AcDbLine
 10
196.925
 20
60.716
 30
0.0
 11
196.977
 21
60.769
 31
0.0
  0
LINE
  5
673
100
AcDbEntity
  8
1
  6
CONTINUOUS
100
AcDbLine
 10
205.653
 20
75.799
 30
0.0
 11
205.406
 21
75.635
 31
0.0
  0
LINE
  5
674
100
AcDbEntity
  8
1
  6
CONTINUOUS
100
AcDbLine
 10
197.433
 20
75.526
 30
0.0
 11
197.679
 21
75.635
 31
0.0
  0
LINE
  5
675
100
AcDbEntity
  8
1
  6
CONTINUOUS
100
AcDbLine
 10
194.185
 20
75.635
 30
0.0
 11
193.889
 21
75.526
 31
0.0
  0
LINE
  5
676
100
AcDbEntity
  8
1
  6
CONTINUOUS
100
AcDbLine
 10
199.156
 20
76.893
 30
0.0
 11
199.599
 21
77.057
 31
0.0
  0
LINE
  5
677
100
AcDbEntity
  8
1
  6
CONTINUOUS
100
AcDbLine
 10
191.231
 20
75.635
 30
0.0
 11
190.887
 21
75.526
 31
0.0
  0
LINE
  5
678
100
AcDbEntity
  8
1
  6
CONTINUOUS
100
AcDbLine
 10
192.628
 20
59.998
 30
0.0
 11
192.524
 21
60.051
 31
0.0
  0
LINE
  5
679
100
AcDbEntity
  8
1
  6
CONTINUOUS
100
AcDbLine
 10
193.097
 20
61.194
 30
0.0
 11
193.201
 21
61.141
 31
0.0
  0
LINE
  5
67A
100
AcDbEntity
  8
1
  6
CONTINUOUS
100
AcDbLine
 10
190.336
 20
73.684
 30
0.0
 11
190.399
 21
73.631
 31
0.0
  0
LINE
  5
67B
100
AcDbEntity
  8
1
  6
CONTINUOUS
100
AcDbLine
 10
192.029
 20
60.636
 30
0.0
 11
191.925
 21
60.556
 31
0.0
  0
LINE
  5
67C
100
AcDbEntity
  8
1
  6
CONTINUOUS
100
AcDbLine
 10
192.576
 20
60.982
 30
0.0
 11
192.654
 21
61.035
 31
0.0
  0
LINE
  5
67D
100
AcDbEntity
  8
1
  6
CONTINUOUS
100
AcDbLine
 10
200.485
 20
76.51
 30
0.0
 11
200.829
 21
76.619
 31
0.0
  0
LINE
  5
67E
100
AcDbEntity
  8
1
  6
CONTINUOUS
100
AcDbLine
 10
191.899
 20
61.061
 30
0.0
 11
191.821
 21
61.088
 31
0.0
  0
LINE
  5
67F
100
AcDbEntity
  8
1
  6
CONTINUOUS
100
AcDbLine
 10
190.274
 20
73.577
 30
0.0
 11
190.378
 21
73.498
 31
0.0
  0
LINE
  5
680
100
AcDbEntity
  8
1
  6
CONTINUOUS
100
AcDbLine
 10
191.191
 20
73.577
 30
0.0
 11
191.295
 21
73.498
 31
0.0
  0
LINE
  5
681
100
AcDbEntity
  8
1
  6
CONTINUOUS
100
AcDbLine
 10
190.732
 20
74.615
 30
0.0
 11
190.628
 21
74.694
 31
0.0
  0
LINE
  5
682
100
AcDbEntity
  8
1
  6
CONTINUOUS
100
AcDbLine
 10
191.649
 20
74.615
 30
0.0
 11
191.545
 21
74.694
 31
0.0
  0
LINE
  5
683
100
AcDbEntity
  8
1
  6
CONTINUOUS
100
AcDbLine
 10
191.253
 20
73.684
 30
0.0
 11
191.316
 21
73.631
 31
0.0
  0
LINE
  5
684
100
AcDbEntity
  8
1
  6
CONTINUOUS
100
AcDbLine
 10
190.67
 20
74.508
 30
0.0
 11
190.607
 21
74.561
 31
0.0
  0
LINE
  5
685
100
AcDbEntity
  8
1
  6
CONTINUOUS
100
AcDbLine
 10
191.586
 20
74.508
 30
0.0
 11
191.524
 21
74.561
 31
0.0
  0
LINE
  5
686
100
AcDbEntity
  8
1
  6
CONTINUOUS
100
AcDbLine
 10
195.415
 20
76.346
 30
0.0
 11
196.153
 21
75.526
 31
0.0
  0
LINE
  5
687
100
AcDbEntity
  8
1
  6
CONTINUOUS
100
AcDbLine
 10
201.075
 20
77.057
 30
0.0
 11
201.223
 21
76.838
 31
0.0
  0
LINE
  5
688
100
AcDbEntity
  8
1
  6
CONTINUOUS
100
AcDbLine
 10
201.174
 20
77.112
 30
0.0
 11
201.321
 21
76.893
 31
0.0
  0
LINE
  5
689
100
AcDbEntity
  8
1
  6
CONTINUOUS
100
AcDbLine
 10
193.149
 20
60.21
 30
0.0
 11
193.071
 21
60.157
 31
0.0
  0
LINE
  5
68A
100
AcDbEntity
  8
1
  6
CONTINUOUS
100
AcDbLine
 10
205.406
 20
75.635
 30
0.0
 11
205.062
 21
75.526
 31
0.0
  0
LINE
  5
68B
100
AcDbEntity
  8
1
  6
CONTINUOUS
100
AcDbLine
 10
192.758
 20
59.971
 30
0.0
 11
192.628
 21
59.998
 31
0.0
  0
LINE
  5
68C
100
AcDbEntity
  8
1
  6
CONTINUOUS
100
AcDbLine
 10
192.758
 20
60.131
 30
0.0
 11
192.654
 21
60.157
 31
0.0
  0
LINE
  5
68D
100
AcDbEntity
  8
1
  6
CONTINUOUS
100
AcDbLine
 10
192.967
 20
61.061
 30
0.0
 11
193.071
 21
61.035
 31
0.0
  0
LINE
  5
68E
100
AcDbEntity
  8
1
  6
CONTINUOUS
100
AcDbLine
 10
196.925
 20
61.061
 30
0.0
 11
196.847
 21
61.088
 31
0.0
  0
LINE
  5
68F
100
AcDbEntity
  8
1
  6
CONTINUOUS
100
AcDbLine
 10
186.605
 20
76.237
 30
0.0
 11
187.146
 21
75.909
 31
0.0
  0
LINE
  5
690
100
AcDbEntity
  8
1
  6
CONTINUOUS
100
AcDbLine
 10
200.042
 20
75.69
 30
0.0
 11
200.091
 21
75.635
 31
0.0
  0
LINE
  5
691
100
AcDbEntity
  8
1
  6
CONTINUOUS
100
AcDbLine
 10
219.17
 20
57.421
 30
0.0
 11
219.17
 21
57.471
 31
0.0
  0
LINE
  5
692
100
AcDbEntity
  8
1
  6
CONTINUOUS
100
AcDbLine
 10
219.67
 20
57.421
 30
0.0
 11
219.67
 21
57.471
 31
0.0
  0
LINE
  5
693
100
AcDbEntity
  8
1
  6
CONTINUOUS
100
AcDbLine
 10
192.524
 20
61.141
 30
0.0
 11
192.628
 21
61.194
 31
0.0
  0
LINE
  5
694
100
AcDbEntity
  8
1
  6
CONTINUOUS
100
AcDbLine
 10
193.201
 20
60.051
 30
0.0
 11
193.097
 21
59.998
 31
0.0
  0
LINE
  5
695
100
AcDbEntity
  8
1
  6
CONTINUOUS
100
AcDbLine
 10
196.951
 20
60.583
 30
0.0
 11
197.055
 21
60.636
 31
0.0
  0
LINE
  5
696
100
AcDbEntity
  8
1
  6
CONTINUOUS
100
AcDbLine
 10
192.195
 20
52.471
 30
0.0
 11
201.194
 21
52.471
 31
0.0
  0
LINE
  5
697
100
AcDbEntity
  8
1
  6
CONTINUOUS
100
AcDbLine
 10
262.195
 20
52.471
 30
0.0
 11
271.194
 21
52.471
 31
0.0
  0
LINE
  5
698
100
AcDbEntity
  8
1
  6
CONTINUOUS
100
AcDbLine
 10
191.795
 20
61.221
 30
0.0
 11
191.925
 21
61.194
 31
0.0
  0
LINE
  5
699
100
AcDbEntity
  8
1
  6
CONTINUOUS
100
AcDbLine
 10
192.967
 20
61.221
 30
0.0
 11
193.097
 21
61.194
 31
0.0
  0
LINE
  5
69A
100
AcDbEntity
  8
1
  6
CONTINUOUS
100
AcDbLine
 10
196.951
 20
61.194
 30
0.0
 11
196.821
 21
61.221
 31
0.0
  0
LINE
  5
69B
100
AcDbEntity
  8
1
  6
CONTINUOUS
100
AcDbLine
 10
191.821
 20
60.689
 30
0.0
 11
191.899
 21
60.716
 31
0.0
  0
LINE
  5
69C
100
AcDbEntity
  8
1
  6
CONTINUOUS
100
AcDbLine
 10
282.501
 20
61.219
 30
0.0
 11
281.67
 21
61.146
 31
0.0
  0
LINE
  5
69D
100
AcDbEntity
  8
1
  6
CONTINUOUS
100
AcDbLine
 10
244.17
 20
57.421
 30
0.0
 11
219.17
 21
57.421
 31
0.0
  0
LINE
  5
69E
100
AcDbEntity
  8
1
  6
CONTINUOUS
100
AcDbLine
 10
181.67
 20
57.471
 30
0.0
 11
281.67
 21
57.471
 31
0.0
  0
LINE
  5
69F
100
AcDbEntity
  8
1
  6
CONTINUOUS
100
AcDbLine
 10
180.838
 20
61.219
 30
0.0
 11
181.67
 21
61.146
 31
0.0
  0
LINE
  5
6A0
100
AcDbEntity
  8
1
  6
CONTINUOUS
100
AcDbLine
 10
189.115
 20
76.565
 30
0.0
 11
190.247
 21
76.018
 31
0.0
  0
LINE
  5
6A1
100
AcDbEntity
  8
1
  6
CONTINUOUS
100
AcDbLine
 10
196.847
 20
60.689
 30
0.0
 11
196.925
 21
60.716
 31
0.0
  0
LINE
  5
6A2
100
AcDbEntity
  8
1
  6
CONTINUOUS
100
AcDbLine
 10
195.987
 20
59.971
 30
0.0
 11
195.05
 21
59.971
 31
0.0
  0
LINE
  5
6A3
100
AcDbEntity
  8
1
  6
CONTINUOUS
100
AcDbLine
 10
194.633
 20
59.971
 30
0.0
 11
194.425
 21
59.971
 31
0.0
  0
LINE
  5
6A4
100
AcDbEntity
  8
1
  6
CONTINUOUS
100
AcDbLine
 10
194.008
 20
59.971
 30
0.0
 11
193.8
 21
59.971
 31
0.0
  0
LINE
  5
6A5
100
AcDbEntity
  8
1
  6
CONTINUOUS
100
AcDbLine
 10
192.967
 20
59.971
 30
0.0
 11
192.758
 21
59.971
 31
0.0
  0
LINE
  5
6A6
100
AcDbEntity
  8
1
  6
CONTINUOUS
100
AcDbLine
 10
191.326
 20
59.971
 30
0.0
 11
191.17
 21
59.971
 31
0.0
  0
LINE
  5
6A7
100
AcDbEntity
  8
1
  6
CONTINUOUS
100
AcDbLine
 10
196.196
 20
59.971
 30
0.0
 11
196.352
 21
59.971
 31
0.0
  0
LINE
  5
6A8
100
AcDbEntity
  8
1
  6
CONTINUOUS
100
AcDbLine
 10
197.003
 20
59.971
 30
0.0
 11
197.185
 21
59.971
 31
0.0
  0
LINE
  5
6A9
100
AcDbEntity
  8
1
  6
CONTINUOUS
100
AcDbLine
 10
192.967
 20
60.131
 30
0.0
 11
192.758
 21
60.131
 31
0.0
  0
LINE
  5
6AA
100
AcDbEntity
  8
1
  6
CONTINUOUS
100
AcDbLine
 10
195.206
 20
60.131
 30
0.0
 11
195.987
 21
60.131
 31
0.0
  0
LINE
  5
6AB
100
AcDbEntity
  8
1
  6
CONTINUOUS
100
AcDbLine
 10
191.795
 20
60.53
 30
0.0
 11
191.326
 21
60.53
 31
0.0
  0
LINE
  5
6AC
100
AcDbEntity
  8
1
  6
CONTINUOUS
100
AcDbLine
 10
196.352
 20
60.53
 30
0.0
 11
196.795
 21
60.53
 31
0.0
  0
LINE
  5
6AD
100
AcDbEntity
  8
1
  6
CONTINUOUS
100
AcDbLine
 10
195.883
 20
60.556
 30
0.0
 11
195.206
 21
60.556
 31
0.0
  0
LINE
  5
6AE
100
AcDbEntity
  8
1
  6
CONTINUOUS
100
AcDbLine
 10
191.326
 20
60.689
 30
0.0
 11
191.821
 21
60.689
 31
0.0
  0
LINE
  5
6AF
100
AcDbEntity
  8
1
  6
CONTINUOUS
100
AcDbLine
 10
196.352
 20
60.689
 30
0.0
 11
196.847
 21
60.689
 31
0.0
  0
LINE
  5
6B0
100
AcDbEntity
  8
1
  6
CONTINUOUS
100
AcDbLine
 10
195.206
 20
60.716
 30
0.0
 11
195.883
 21
60.716
 31
0.0
  0
LINE
  5
6B1
100
AcDbEntity
  8
1
  6
CONTINUOUS
100
AcDbLine
 10
195.987
 20
61.061
 30
0.0
 11
195.206
 21
61.061
 31
0.0
  0
LINE
  5
6B2
100
AcDbEntity
  8
1
  6
CONTINUOUS
100
AcDbLine
 10
192.758
 20
61.061
 30
0.0
 11
192.967
 21
61.061
 31
0.0
  0
LINE
  5
6B3
100
AcDbEntity
  8
1
  6
CONTINUOUS
100
AcDbLine
 10
196.847
 20
61.088
 30
0.0
 11
196.352
 21
61.088
 31
0.0
  0
LINE
  5
6B4
100
AcDbEntity
  8
1
  6
CONTINUOUS
100
AcDbLine
 10
191.821
 20
61.088
 30
0.0
 11
191.326
 21
61.088
 31
0.0
  0
LINE
  5
6B5
100
AcDbEntity
  8
1
  6
CONTINUOUS
100
AcDbLine
 10
196.821
 20
61.221
 30
0.0
 11
196.196
 21
61.221
 31
0.0
  0
LINE
  5
6B6
100
AcDbEntity
  8
1
  6
CONTINUOUS
100
AcDbLine
 10
191.17
 20
61.221
 30
0.0
 11
191.795
 21
61.221
 31
0.0
  0
LINE
  5
6B7
100
AcDbEntity
  8
1
  6
CONTINUOUS
100
AcDbLine
 10
192.758
 20
61.221
 30
0.0
 11
192.967
 21
61.221
 31
0.0
  0
LINE
  5
6B8
100
AcDbEntity
  8
1
  6
CONTINUOUS
100
AcDbLine
 10
193.592
 20
61.221
 30
0.0
 11
193.748
 21
61.221
 31
0.0
  0
LINE
  5
6B9
100
AcDbEntity
  8
1
  6
CONTINUOUS
100
AcDbLine
 10
194.112
 20
61.221
 30
0.0
 11
194.321
 21
61.221
 31
0.0
  0
LINE
  5
6BA
100
AcDbEntity
  8
1
  6
CONTINUOUS
100
AcDbLine
 10
194.685
 20
61.221
 30
0.0
 11
194.842
 21
61.221
 31
0.0
  0
LINE
  5
6BB
100
AcDbEntity
  8
1
  6
CONTINUOUS
100
AcDbLine
 10
195.05
 20
61.221
 30
0.0
 11
195.987
 21
61.221
 31
0.0
  0
LINE
  5
6BC
100
AcDbEntity
  8
1
  6
CONTINUOUS
100
AcDbLine
 10
282.791
 20
62.096
 30
0.0
 11
282.777
 21
62.096
 31
0.0
  0
LINE
  5
6BD
100
AcDbEntity
  8
1
  6
CONTINUOUS
100
AcDbLine
 10
180.562
 20
62.096
 30
0.0
 11
180.548
 21
62.096
 31
0.0
  0
LINE
  5
6BE
100
AcDbEntity
  8
1
  6
CONTINUOUS
100
AcDbLine
 10
190.295
 20
62.096
 30
0.0
 11
198.045
 21
62.096
 31
0.0
  0
LINE
  5
6BF
100
AcDbEntity
  8
1
  6
CONTINUOUS
100
AcDbLine
 10
190.445
 20
62.221
 30
0.0
 11
197.945
 21
62.221
 31
0.0
  0
LINE
  5
6C0
100
AcDbEntity
  8
1
  6
CONTINUOUS
100
AcDbLine
 10
190.845
 20
62.621
 30
0.0
 11
197.545
 21
62.621
 31
0.0
  0
LINE
  5
6C1
100
AcDbEntity
  8
1
  6
CONTINUOUS
100
AcDbLine
 10
282.878
 20
62.846
 30
0.0
 11
282.777
 21
62.846
 31
0.0
  0
LINE
  5
6C2
100
AcDbEntity
  8
1
  6
CONTINUOUS
100
AcDbLine
 10
180.562
 20
62.846
 30
0.0
 11
180.461
 21
62.846
 31
0.0
  0
LINE
  5
6C3
100
AcDbEntity
  8
1
  6
CONTINUOUS
100
AcDbLine
 10
274.753
 20
75.269
 30
0.0
 11
274.586
 21
75.226
 31
0.0
  0
LINE
  5
6C4
100
AcDbEntity
  8
1
  6
CONTINUOUS
100
AcDbLine
 10
270.378
 20
75.269
 30
0.0
 11
270.211
 21
75.226
 31
0.0
  0
LINE
  5
6C5
100
AcDbEntity
  8
1
  6
CONTINUOUS
100
AcDbLine
 10
268.586
 20
75.269
 30
0.0
 11
268.42
 21
75.226
 31
0.0
  0
LINE
  5
6C6
100
AcDbEntity
  8
1
  6
CONTINUOUS
100
AcDbLine
 10
274.336
 20
76.971
 30
0.0
 11
274.17
 21
76.929
 31
0.0
  0
LINE
  5
6C7
100
AcDbEntity
  8
1
  6
CONTINUOUS
100
AcDbLine
 10
274.586
 20
74.971
 30
0.0
 11
274.795
 21
75.014
 31
0.0
  0
LINE
  5
6C8
100
AcDbEntity
  8
1
  6
CONTINUOUS
100
AcDbLine
 10
180.461
 20
63.596
 30
0.0
 11
180.562
 21
63.596
 31
0.0
  0
LINE
  5
6C9
100
AcDbEntity
  8
1
  6
CONTINUOUS
100
AcDbLine
 10
282.777
 20
63.596
 30
0.0
 11
282.878
 21
63.596
 31
0.0
  0
LINE
  5
6CA
100
AcDbEntity
  8
1
  6
CONTINUOUS
100
AcDbLine
 10
196.745
 20
63.721
 30
0.0
 11
191.645
 21
63.721
 31
0.0
  0
LINE
  5
6CB
100
AcDbEntity
  8
1
  6
CONTINUOUS
100
AcDbLine
 10
196.745
 20
63.768
 30
0.0
 11
191.645
 21
63.768
 31
0.0
  0
LINE
  5
6CC
100
AcDbEntity
  8
1
  6
CONTINUOUS
100
AcDbLine
 10
180.548
 20
64.346
 30
0.0
 11
180.562
 21
64.346
 31
0.0
  0
LINE
  5
6CD
100
AcDbEntity
  8
1
  6
CONTINUOUS
100
AcDbLine
 10
282.777
 20
64.346
 30
0.0
 11
282.791
 21
64.346
 31
0.0
  0
LINE
  5
6CE
100
AcDbEntity
  8
1
  6
CONTINUOUS
100
AcDbLine
 10
190.378
 20
73.498
 30
0.0
 11
190.503
 21
73.471
 31
0.0
  0
LINE
  5
6CF
100
AcDbEntity
  8
1
  6
CONTINUOUS
100
AcDbLine
 10
191.295
 20
73.498
 30
0.0
 11
191.42
 21
73.471
 31
0.0
  0
LINE
  5
6D0
100
AcDbEntity
  8
1
  6
CONTINUOUS
100
AcDbLine
 10
190.628
 20
74.694
 30
0.0
 11
190.503
 21
74.721
 31
0.0
  0
LINE
  5
6D1
100
AcDbEntity
  8
1
  6
CONTINUOUS
100
AcDbLine
 10
191.545
 20
74.694
 30
0.0
 11
191.42
 21
74.721
 31
0.0
  0
LINE
  5
6D2
100
AcDbEntity
  8
1
  6
CONTINUOUS
100
AcDbLine
 10
190.399
 20
73.631
 30
0.0
 11
190.503
 21
73.604
 31
0.0
  0
LINE
  5
6D3
100
AcDbEntity
  8
1
  6
CONTINUOUS
100
AcDbLine
 10
191.316
 20
73.631
 30
0.0
 11
191.42
 21
73.604
 31
0.0
  0
LINE
  5
6D4
100
AcDbEntity
  8
1
  6
CONTINUOUS
100
AcDbLine
 10
190.607
 20
74.561
 30
0.0
 11
190.503
 21
74.588
 31
0.0
  0
LINE
  5
6D5
100
AcDbEntity
  8
1
  6
CONTINUOUS
100
AcDbLine
 10
191.524
 20
74.561
 30
0.0
 11
191.42
 21
74.588
 31
0.0
  0
LINE
  5
6D6
100
AcDbEntity
  8
1
  6
CONTINUOUS
100
AcDbLine
 10
268.045
 20
76.673
 30
0.0
 11
268.17
 21
76.716
 31
0.0
  0
LINE
  5
6D7
100
AcDbEntity
  8
1
  6
CONTINUOUS
100
AcDbLine
 10
272.253
 20
76.12
 30
0.0
 11
272.378
 21
76.163
 31
0.0
  0
LINE
  5
6D8
100
AcDbEntity
  8
1
  6
CONTINUOUS
100
AcDbLine
 10
274.211
 20
76.673
 30
0.0
 11
274.336
 21
76.716
 31
0.0
  0
LINE
  5
6D9
100
AcDbEntity
  8
1
  6
CONTINUOUS
100
AcDbLine
 10
268.17
 20
76.971
 30
0.0
 11
268.003
 21
76.929
 31
0.0
  0
LINE
  5
6DA
100
AcDbEntity
  8
1
  6
CONTINUOUS
100
AcDbLine
 10
193.071
 20
60.157
 30
0.0
 11
192.967
 21
60.131
 31
0.0
  0
LINE
  5
6DB
100
AcDbEntity
  8
1
  6
CONTINUOUS
100
AcDbLine
 10
272.42
 20
75.014
 30
0.0
 11
272.211
 21
74.971
 31
0.0
  0
LINE
  5
6DC
100
AcDbEntity
  8
1
  6
CONTINUOUS
100
AcDbLine
 10
270.211
 20
74.971
 30
0.0
 11
270.42
 21
75.014
 31
0.0
  0
LINE
  5
6DD
100
AcDbEntity
  8
1
  6
CONTINUOUS
100
AcDbLine
 10
268.42
 20
74.971
 30
0.0
 11
268.628
 21
75.014
 31
0.0
  0
LINE
  5
6DE
100
AcDbEntity
  8
1
  6
CONTINUOUS
100
AcDbLine
 10
193.097
 20
59.998
 30
0.0
 11
192.967
 21
59.971
 31
0.0
  0
LINE
  5
6DF
100
AcDbEntity
  8
1
  6
CONTINUOUS
100
AcDbLine
 10
191.925
 20
60.556
 30
0.0
 11
191.795
 21
60.53
 31
0.0
  0
LINE
  5
6E0
100
AcDbEntity
  8
1
  6
CONTINUOUS
100
AcDbLine
 10
192.628
 20
61.194
 30
0.0
 11
192.758
 21
61.221
 31
0.0
  0
LINE
  5
6E1
100
AcDbEntity
  8
1
  6
CONTINUOUS
100
AcDbLine
 10
282.501
 20
71.719
 30
0.0
 11
281.67
 21
71.646
 31
0.0
  0
LINE
  5
6E2
100
AcDbEntity
  8
1
  6
CONTINUOUS
100
AcDbLine
 10
180.838
 20
65.223
 30
0.0
 11
181.67
 21
65.296
 31
0.0
  0
LINE
  5
6E3
100
AcDbEntity
  8
1
  6
CONTINUOUS
100
AcDbLine
 10
192.695
 20
68.871
 30
0.0
 11
195.695
 21
68.871
 31
0.0
  0
LINE
  5
6E4
100
AcDbEntity
  8
1
  6
CONTINUOUS
100
AcDbLine
 10
195.695
 20
69.921
 30
0.0
 11
192.695
 21
69.921
 31
0.0
  0
LINE
  5
6E5
100
AcDbEntity
  8
1
  6
CONTINUOUS
100
AcDbLine
 10
180.838
 20
71.719
 30
0.0
 11
181.67
 21
71.646
 31
0.0
  0
LINE
  5
6E6
100
AcDbEntity
  8
1
  6
CONTINUOUS
100
AcDbLine
 10
282.501
 20
65.223
 30
0.0
 11
281.67
 21
65.296
 31
0.0
  0
LINE
  5
6E7
100
AcDbEntity
  8
1
  6
CONTINUOUS
100
AcDbLine
 10
268.003
 20
76.929
 30
0.0
 11
267.836
 21
76.843
 31
0.0
  0
LINE
  5
6E8
100
AcDbEntity
  8
1
  6
CONTINUOUS
100
AcDbLine
 10
272.378
 20
75.269
 30
0.0
 11
272.253
 21
75.226
 31
0.0
  0
LINE
  5
6E9
100
AcDbEntity
  8
1
  6
CONTINUOUS
100
AcDbLine
 10
192.654
 20
61.035
 30
0.0
 11
192.758
 21
61.061
 31
0.0
  0
LINE
  5
6EA
100
AcDbEntity
  8
1
  6
CONTINUOUS
100
AcDbLine
 10
196.745
 20
70.268
 30
0.0
 11
191.645
 21
70.268
 31
0.0
  0
LINE
  5
6EB
100
AcDbEntity
  8
1
  6
CONTINUOUS
100
AcDbLine
 10
196.745
 20
71.221
 30
0.0
 11
191.645
 21
71.221
 31
0.0
  0
LINE
  5
6EC
100
AcDbEntity
  8
1
  6
CONTINUOUS
100
AcDbLine
 10
197.545
 20
72.321
 30
0.0
 11
190.845
 21
72.321
 31
0.0
  0
LINE
  5
6ED
100
AcDbEntity
  8
1
  6
CONTINUOUS
100
AcDbLine
 10
282.791
 20
72.596
 30
0.0
 11
282.777
 21
72.596
 31
0.0
  0
LINE
  5
6EE
100
AcDbEntity
  8
1
  6
CONTINUOUS
100
AcDbLine
 10
180.562
 20
72.596
 30
0.0
 11
180.548
 21
72.596
 31
0.0
  0
LINE
  5
6EF
100
AcDbEntity
  8
1
  6
CONTINUOUS
100
AcDbLine
 10
197.945
 20
72.721
 30
0.0
 11
190.445
 21
72.721
 31
0.0
  0
LINE
  5
6F0
100
AcDbEntity
  8
1
  6
CONTINUOUS
100
AcDbLine
 10
198.045
 20
72.846
 30
0.0
 11
190.295
 21
72.846
 31
0.0
  0
LINE
  5
6F1
100
AcDbEntity
  8
1
  6
CONTINUOUS
100
AcDbLine
 10
282.878
 20
73.346
 30
0.0
 11
282.777
 21
73.346
 31
0.0
  0
LINE
  5
6F2
100
AcDbEntity
  8
1
  6
CONTINUOUS
100
AcDbLine
 10
180.562
 20
73.346
 30
0.0
 11
180.461
 21
73.346
 31
0.0
  0
LINE
  5
6F3
100
AcDbEntity
  8
1
  6
CONTINUOUS
100
AcDbLine
 10
189.753
 20
73.471
 30
0.0
 11
189.628
 21
73.471
 31
0.0
  0
LINE
  5
6F4
100
AcDbEntity
  8
1
  6
CONTINUOUS
100
AcDbLine
 10
188.753
 20
73.471
 30
0.0
 11
188.628
 21
73.471
 31
0.0
  0
LINE
  5
6F5
100
AcDbEntity
  8
1
  6
CONTINUOUS
100
AcDbLine
 10
187.17
 20
73.471
 30
0.0
 11
187.003
 21
73.471
 31
0.0
  0
LINE
  5
6F6
100
AcDbEntity
  8
1
  6
CONTINUOUS
100
AcDbLine
 10
186.503
 20
73.471
 30
0.0
 11
186.316
 21
73.471
 31
0.0
  0
LINE
  5
6F7
100
AcDbEntity
  8
1
  6
CONTINUOUS
100
AcDbLine
 10
185.795
 20
73.471
 30
0.0
 11
185.67
 21
73.471
 31
0.0
  0
LINE
  5
6F8
100
AcDbEntity
  8
1
  6
CONTINUOUS
100
AcDbLine
 10
268.628
 20
75.014
 30
0.0
 11
268.795
 21
75.099
 31
0.0
  0
LINE
  5
6F9
100
AcDbEntity
  8
1
  6
CONTINUOUS
100
AcDbLine
 10
274.17
 20
76.929
 30
0.0
 11
274.003
 21
76.843
 31
0.0
  0
LINE
  5
6FA
100
AcDbEntity
  8
1
  6
CONTINUOUS
100
AcDbLine
 10
270.42
 20
75.014
 30
0.0
 11
270.586
 21
75.099
 31
0.0
  0
LINE
  5
6FB
100
AcDbEntity
  8
1
  6
CONTINUOUS
100
AcDbLine
 10
272.586
 20
76.035
 30
0.0
 11
272.503
 21
75.992
 31
0.0
  0
LINE
  5
6FC
100
AcDbEntity
  8
1
  6
CONTINUOUS
100
AcDbLine
 10
189.961
 20
73.843
 30
0.0
 11
189.753
 21
73.843
 31
0.0
  0
LINE
  5
6FD
100
AcDbEntity
  8
1
  6
CONTINUOUS
100
AcDbLine
 10
189.628
 20
73.843
 30
0.0
 11
189.128
 21
73.843
 31
0.0
  0
LINE
  5
6FE
100
AcDbEntity
  8
1
  6
CONTINUOUS
100
AcDbLine
 10
188.961
 20
73.843
 30
0.0
 11
188.753
 21
73.843
 31
0.0
  0
LINE
  5
6FF
100
AcDbEntity
  8
1
  6
CONTINUOUS
100
AcDbLine
 10
188.628
 20
73.843
 30
0.0
 11
188.128
 21
73.843
 31
0.0
  0
LINE
  5
700
100
AcDbEntity
  8
1
  6
CONTINUOUS
100
AcDbLine
 10
187.961
 20
73.923
 30
0.0
 11
187.67
 21
73.923
 31
0.0
  0
LINE
  5
701
100
AcDbEntity
  8
1
  6
CONTINUOUS
100
AcDbLine
 10
189.628
 20
74.003
 30
0.0
 11
189.274
 21
74.003
 31
0.0
  0
LINE
  5
702
100
AcDbEntity
  8
1
  6
CONTINUOUS
100
AcDbLine
 10
188.628
 20
74.003
 30
0.0
 11
188.274
 21
74.003
 31
0.0
  0
LINE
  5
703
100
AcDbEntity
  8
1
  6
CONTINUOUS
100
AcDbLine
 10
188.753
 20
74.003
 30
0.0
 11
188.961
 21
74.003
 31
0.0
  0
LINE
  5
704
100
AcDbEntity
  8
1
  6
CONTINUOUS
100
AcDbLine
 10
189.753
 20
74.003
 30
0.0
 11
189.961
 21
74.003
 31
0.0
  0
LINE
  5
705
100
AcDbEntity
  8
1
  6
CONTINUOUS
100
AcDbLine
 10
187.67
 20
74.056
 30
0.0
 11
187.961
 21
74.056
 31
0.0
  0
LINE
  5
706
100
AcDbEntity
  8
1
  6
CONTINUOUS
100
AcDbLine
 10
180.461
 20
74.096
 30
0.0
 11
180.562
 21
74.096
 31
0.0
  0
LINE
  5
707
100
AcDbEntity
  8
1
  6
CONTINUOUS
100
AcDbLine
 10
282.777
 20
74.096
 30
0.0
 11
282.878
 21
74.096
 31
0.0
  0
LINE
  5
708
100
AcDbEntity
  8
1
  6
CONTINUOUS
100
AcDbLine
 10
185.67
 20
74.721
 30
0.0
 11
185.857
 21
74.721
 31
0.0
  0
LINE
  5
709
100
AcDbEntity
  8
1
  6
CONTINUOUS
100
AcDbLine
 10
186.378
 20
74.721
 30
0.0
 11
186.503
 21
74.721
 31
0.0
  0
LINE
  5
70A
100
AcDbEntity
  8
1
  6
CONTINUOUS
100
AcDbLine
 10
186.67
 20
74.721
 30
0.0
 11
186.795
 21
74.721
 31
0.0
  0
LINE
  5
70B
100
AcDbEntity
  8
1
  6
CONTINUOUS
100
AcDbLine
 10
187.378
 20
74.721
 30
0.0
 11
187.503
 21
74.721
 31
0.0
  0
LINE
  5
70C
100
AcDbEntity
  8
1
  6
CONTINUOUS
100
AcDbLine
 10
188.628
 20
74.721
 30
0.0
 11
188.753
 21
74.721
 31
0.0
  0
LINE
  5
70D
100
AcDbEntity
  8
1
  6
CONTINUOUS
100
AcDbLine
 10
189.628
 20
74.721
 30
0.0
 11
189.753
 21
74.721
 31
0.0
  0
LINE
  5
70E
100
AcDbEntity
  8
1
  6
CONTINUOUS
100
AcDbLine
 10
180.548
 20
74.846
 30
0.0
 11
180.562
 21
74.846
 31
0.0
  0
LINE
  5
70F
100
AcDbEntity
  8
1
  6
CONTINUOUS
100
AcDbLine
 10
282.777
 20
74.846
 30
0.0
 11
282.791
 21
74.846
 31
0.0
  0
LINE
  5
710
100
AcDbEntity
  8
1
  6
CONTINUOUS
100
AcDbLine
 10
277.795
 20
74.971
 30
0.0
 11
277.545
 21
74.971
 31
0.0
  0
LINE
  5
711
100
AcDbEntity
  8
1
  6
CONTINUOUS
100
AcDbLine
 10
277.211
 20
74.971
 30
0.0
 11
276.961
 21
74.971
 31
0.0
  0
LINE
  5
712
100
AcDbEntity
  8
1
  6
CONTINUOUS
100
AcDbLine
 10
275.795
 20
74.971
 30
0.0
 11
275.545
 21
74.971
 31
0.0
  0
LINE
  5
713
100
AcDbEntity
  8
1
  6
CONTINUOUS
100
AcDbLine
 10
273.336
 20
74.971
 30
0.0
 11
273.086
 21
74.971
 31
0.0
  0
LINE
  5
714
100
AcDbEntity
  8
1
  6
CONTINUOUS
100
AcDbLine
 10
272.211
 20
74.971
 30
0.0
 11
271.211
 21
74.971
 31
0.0
  0
LINE
  5
715
100
AcDbEntity
  8
1
  6
CONTINUOUS
100
AcDbLine
 10
266.503
 20
74.971
 30
0.0
 11
266.253
 21
74.971
 31
0.0
  0
LINE
  5
716
100
AcDbEntity
  8
1
  6
CONTINUOUS
100
AcDbLine
 10
265.253
 20
74.971
 30
0.0
 11
265.003
 21
74.971
 31
0.0
  0
LINE
  5
717
100
AcDbEntity
  8
1
  6
CONTINUOUS
100
AcDbLine
 10
264.67
 20
74.971
 30
0.0
 11
264.42
 21
74.971
 31
0.0
  0
LINE
  5
718
100
AcDbEntity
  8
1
  6
CONTINUOUS
100
AcDbLine
 10
263.836
 20
74.971
 30
0.0
 11
263.503
 21
74.971
 31
0.0
  0
LINE
  5
719
100
AcDbEntity
  8
1
  6
CONTINUOUS
100
AcDbLine
 10
262.92
 20
74.971
 30
0.0
 11
262.67
 21
74.971
 31
0.0
  0
LINE
  5
71A
100
AcDbEntity
  8
1
  6
CONTINUOUS
100
AcDbLine
 10
268.086
 20
74.971
 30
0.0
 11
268.42
 21
74.971
 31
0.0
  0
LINE
  5
71B
100
AcDbEntity
  8
1
  6
CONTINUOUS
100
AcDbLine
 10
270.045
 20
74.971
 30
0.0
 11
270.211
 21
74.971
 31
0.0
  0
LINE
  5
71C
100
AcDbEntity
  8
1
  6
CONTINUOUS
100
AcDbLine
 10
274.253
 20
74.971
 30
0.0
 11
274.586
 21
74.971
 31
0.0
  0
LINE
  5
71D
100
AcDbEntity
  8
1
  6
CONTINUOUS
100
AcDbLine
 10
274.586
 20
75.226
 30
0.0
 11
274.253
 21
75.226
 31
0.0
  0
LINE
  5
71E
100
AcDbEntity
  8
1
  6
CONTINUOUS
100
AcDbLine
 10
272.253
 20
75.226
 30
0.0
 11
271.461
 21
75.226
 31
0.0
  0
LINE
  5
71F
100
AcDbEntity
  8
1
  6
CONTINUOUS
100
AcDbLine
 10
270.211
 20
75.226
 30
0.0
 11
270.045
 21
75.226
 31
0.0
  0
LINE
  5
720
100
AcDbEntity
  8
1
  6
CONTINUOUS
100
AcDbLine
 10
268.42
 20
75.226
 30
0.0
 11
268.086
 21
75.226
 31
0.0
  0
LINE
  5
721
100
AcDbEntity
  8
1
  6
CONTINUOUS
100
AcDbLine
 10
273.92
 20
75.524
 30
0.0
 11
273.67
 21
75.524
 31
0.0
  0
LINE
  5
722
100
AcDbEntity
  8
1
  6
CONTINUOUS
100
AcDbLine
 10
267.753
 20
75.524
 30
0.0
 11
267.503
 21
75.524
 31
0.0
  0
LINE
  5
723
100
AcDbEntity
  8
1
  6
CONTINUOUS
100
AcDbLine
 10
201.567
 20
75.58
 30
0.0
 11
202.798
 21
75.58
 31
0.0
  0
LINE
  5
724
100
AcDbEntity
  8
1
  6
CONTINUOUS
100
AcDbLine
 10
200.091
 20
75.635
 30
0.0
 11
201.223
 21
75.635
 31
0.0
  0
LINE
  5
725
100
AcDbEntity
  8
1
  6
CONTINUOUS
100
AcDbLine
 10
268.17
 20
75.865
 30
0.0
 11
268.42
 21
75.865
 31
0.0
  0
LINE
  5
726
100
AcDbEntity
  8
1
  6
CONTINUOUS
100
AcDbLine
 10
271.461
 20
75.865
 30
0.0
 11
272.253
 21
75.865
 31
0.0
  0
LINE
  5
727
100
AcDbEntity
  8
1
  6
CONTINUOUS
100
AcDbLine
 10
274.336
 20
75.865
 30
0.0
 11
274.586
 21
75.865
 31
0.0
  0
LINE
  5
728
100
AcDbEntity
  8
1
  6
CONTINUOUS
100
AcDbLine
 10
276.961
 20
75.907
 30
0.0
 11
275.795
 21
75.907
 31
0.0
  0
LINE
  5
729
100
AcDbEntity
  8
1
  6
CONTINUOUS
100
AcDbLine
 10
274.586
 20
76.12
 30
0.0
 11
274.336
 21
76.12
 31
0.0
  0
LINE
  5
72A
100
AcDbEntity
  8
1
  6
CONTINUOUS
100
AcDbLine
 10
268.42
 20
76.12
 30
0.0
 11
268.17
 21
76.12
 31
0.0
  0
LINE
  5
72B
100
AcDbEntity
  8
1
  6
CONTINUOUS
100
AcDbLine
 10
271.461
 20
76.12
 30
0.0
 11
272.253
 21
76.12
 31
0.0
  0
LINE
  5
72C
100
AcDbEntity
  8
1
  6
CONTINUOUS
100
AcDbLine
 10
275.795
 20
76.163
 30
0.0
 11
276.961
 21
76.163
 31
0.0
  0
LINE
  5
72D
100
AcDbEntity
  8
1
  6
CONTINUOUS
100
AcDbLine
 10
198.368
 20
76.346
 30
0.0
 11
199.746
 21
76.346
 31
0.0
  0
LINE
  5
72E
100
AcDbEntity
  8
1
  6
CONTINUOUS
100
AcDbLine
 10
192.068
 20
76.401
 30
0.0
 11
193.397
 21
76.401
 31
0.0
  0
LINE
  5
72F
100
AcDbEntity
  8
1
  6
CONTINUOUS
100
AcDbLine
 10
203.093
 20
76.401
 30
0.0
 11
204.422
 21
76.401
 31
0.0
  0
LINE
  5
730
100
AcDbEntity
  8
1
  6
CONTINUOUS
100
AcDbLine
 10
268.67
 20
76.503
 30
0.0
 11
268.92
 21
76.503
 31
0.0
  0
LINE
  5
731
100
AcDbEntity
  8
1
  6
CONTINUOUS
100
AcDbLine
 10
274.836
 20
76.503
 30
0.0
 11
275.086
 21
76.503
 31
0.0
  0
LINE
  5
732
100
AcDbEntity
  8
1
  6
CONTINUOUS
100
AcDbLine
 10
201.764
 20
76.51
 30
0.0
 11
202.552
 21
76.51
 31
0.0
  0
LINE
  5
733
100
AcDbEntity
  8
1
  6
CONTINUOUS
100
AcDbLine
 10
272.253
 20
76.716
 30
0.0
 11
271.461
 21
76.716
 31
0.0
  0
LINE
  5
734
100
AcDbEntity
  8
1
  6
CONTINUOUS
100
AcDbLine
 10
268.17
 20
76.716
 30
0.0
 11
268.42
 21
76.716
 31
0.0
  0
LINE
  5
735
100
AcDbEntity
  8
1
  6
CONTINUOUS
100
AcDbLine
 10
274.336
 20
76.716
 30
0.0
 11
274.586
 21
76.716
 31
0.0
  0
LINE
  5
736
100
AcDbEntity
  8
1
  6
CONTINUOUS
100
AcDbLine
 10
267.17
 20
76.758
 30
0.0
 11
266.503
 21
76.758
 31
0.0
  0
LINE
  5
737
100
AcDbEntity
  8
1
  6
CONTINUOUS
100
AcDbLine
 10
266.253
 20
76.758
 30
0.0
 11
265.586
 21
76.758
 31
0.0
  0
LINE
  5
738
100
AcDbEntity
  8
1
  6
CONTINUOUS
100
AcDbLine
 10
185.867
 20
76.784
 30
0.0
 11
186.949
 21
76.784
 31
0.0
  0
LINE
  5
739
100
AcDbEntity
  8
1
  6
CONTINUOUS
100
AcDbLine
 10
195.218
 20
76.893
 30
0.0
 11
196.547
 21
76.893
 31
0.0
  0
LINE
  5
73A
100
AcDbEntity
  8
1
  6
CONTINUOUS
100
AcDbLine
 10
190.592
 20
76.948
 30
0.0
 11
191.773
 21
76.948
 31
0.0
  0
LINE
  5
73B
100
AcDbEntity
  8
1
  6
CONTINUOUS
100
AcDbLine
 10
204.767
 20
76.948
 30
0.0
 11
205.948
 21
76.948
 31
0.0
  0
LINE
  5
73C
100
AcDbEntity
  8
1
  6
CONTINUOUS
100
AcDbLine
 10
274.545
 20
76.971
 30
0.0
 11
274.336
 21
76.971
 31
0.0
  0
LINE
  5
73D
100
AcDbEntity
  8
1
  6
CONTINUOUS
100
AcDbLine
 10
270.878
 20
76.971
 30
0.0
 11
270.628
 21
76.971
 31
0.0
  0
LINE
  5
73E
100
AcDbEntity
  8
1
  6
CONTINUOUS
100
AcDbLine
 10
269.628
 20
76.971
 30
0.0
 11
269.378
 21
76.971
 31
0.0
  0
LINE
  5
73F
100
AcDbEntity
  8
1
  6
CONTINUOUS
100
AcDbLine
 10
268.378
 20
76.971
 30
0.0
 11
268.17
 21
76.971
 31
0.0
  0
LINE
  5
740
100
AcDbEntity
  8
1
  6
CONTINUOUS
100
AcDbLine
 10
262.67
 20
76.971
 30
0.0
 11
263.045
 21
76.971
 31
0.0
  0
LINE
  5
741
100
AcDbEntity
  8
1
  6
CONTINUOUS
100
AcDbLine
 10
264.295
 20
76.971
 30
0.0
 11
264.67
 21
76.971
 31
0.0
  0
LINE
  5
742
100
AcDbEntity
  8
1
  6
CONTINUOUS
100
AcDbLine
 10
265.003
 20
76.971
 30
0.0
 11
265.253
 21
76.971
 31
0.0
  0
LINE
  5
743
100
AcDbEntity
  8
1
  6
CONTINUOUS
100
AcDbLine
 10
265.586
 20
76.971
 30
0.0
 11
267.17
 21
76.971
 31
0.0
  0
LINE
  5
744
100
AcDbEntity
  8
1
  6
CONTINUOUS
100
AcDbLine
 10
271.211
 20
76.971
 30
0.0
 11
272.211
 21
76.971
 31
0.0
  0
LINE
  5
745
100
AcDbEntity
  8
1
  6
CONTINUOUS
100
AcDbLine
 10
273.086
 20
76.971
 30
0.0
 11
273.336
 21
76.971
 31
0.0
  0
LINE
  5
746
100
AcDbEntity
  8
1
  6
CONTINUOUS
100
AcDbLine
 10
275.545
 20
76.971
 30
0.0
 11
275.795
 21
76.971
 31
0.0
  0
LINE
  5
747
100
AcDbEntity
  8
1
  6
CONTINUOUS
100
AcDbLine
 10
276.961
 20
76.971
 30
0.0
 11
277.211
 21
76.971
 31
0.0
  0
LINE
  5
748
100
AcDbEntity
  8
1
  6
CONTINUOUS
100
AcDbLine
 10
277.545
 20
76.971
 30
0.0
 11
277.795
 21
76.971
 31
0.0
  0
LINE
  5
749
100
AcDbEntity
  8
1
  6
CONTINUOUS
100
AcDbLine
 10
194.086
 20
77.002
 30
0.0
 11
194.972
 21
77.002
 31
0.0
  0
LINE
  5
74A
100
AcDbEntity
  8
1
  6
CONTINUOUS
100
AcDbLine
 10
243.67
 20
57.421
 30
0.0
 11
243.67
 21
57.471
 31
0.0
  0
LINE
  5
74B
100
AcDbEntity
  8
1
  6
CONTINUOUS
100
AcDbLine
 10
244.17
 20
57.421
 30
0.0
 11
244.17
 21
57.471
 31
0.0
  0
LINE
  5
74C
100
AcDbEntity
  8
1
  6
CONTINUOUS
100
AcDbLine
 10
267.92
 20
76.588
 30
0.0
 11
268.045
 21
76.673
 31
0.0
  0
LINE
  5
74D
100
AcDbEntity
  8
1
  6
CONTINUOUS
100
AcDbLine
 10
268.711
 20
75.354
 30
0.0
 11
268.586
 21
75.269
 31
0.0
  0
LINE
  5
74E
100
AcDbEntity
  8
1
  6
CONTINUOUS
100
AcDbLine
 10
270.503
 20
75.354
 30
0.0
 11
270.378
 21
75.269
 31
0.0
  0
LINE
  5
74F
100
AcDbEntity
  8
1
  6
CONTINUOUS
100
AcDbLine
 10
274.795
 20
75.014
 30
0.0
 11
274.961
 21
75.099
 31
0.0
  0
LINE
  5
750
100
AcDbEntity
  8
1
  6
CONTINUOUS
100
AcDbLine
 10
180.838
 20
75.723
 30
0.0
 11
181.67
 21
75.796
 31
0.0
  0
LINE
  5
751
100
AcDbEntity
  8
1
  6
CONTINUOUS
100
AcDbLine
 10
198.467
 20
76.838
 30
0.0
 11
199.156
 21
76.893
 31
0.0
  0
LINE
  5
752
100
AcDbEntity
  8
1
  6
CONTINUOUS
100
AcDbLine
 10
281.67
 20
79.471
 30
0.0
 11
181.67
 21
79.471
 31
0.0
  0
LINE
  5
753
100
AcDbEntity
  8
1
  6
CONTINUOUS
100
AcDbLine
 10
282.501
 20
75.723
 30
0.0
 11
281.67
 21
75.796
 31
0.0
  0
LINE
  5
754
100
AcDbEntity
  8
1
  6
CONTINUOUS
100
AcDbLine
 10
272.586
 20
75.141
 30
0.0
 11
272.42
 21
75.014
 31
0.0
  0
LINE
  5
755
100
AcDbEntity
  8
1
  6
CONTINUOUS
100
AcDbLine
 10
274.086
 20
76.588
 30
0.0
 11
274.211
 21
76.673
 31
0.0
  0
LINE
  5
756
100
AcDbEntity
  8
1
  6
CONTINUOUS
100
AcDbLine
 10
274.878
 20
75.354
 30
0.0
 11
274.753
 21
75.269
 31
0.0
  0
LINE
  5
757
100
AcDbEntity
  8
1
  6
CONTINUOUS
100
AcDbLine
 10
191.42
 20
73.604
 30
0.0
 11
191.524
 21
73.631
 31
0.0
  0
LINE
  5
758
100
AcDbEntity
  8
1
  6
CONTINUOUS
100
AcDbLine
 10
190.503
 20
73.604
 30
0.0
 11
190.607
 21
73.631
 31
0.0
  0
LINE
  5
759
100
AcDbEntity
  8
1
  6
CONTINUOUS
100
AcDbLine
 10
200.042
 20
76.401
 30
0.0
 11
200.485
 21
76.51
 31
0.0
  0
LINE
  5
75A
100
AcDbEntity
  8
1
  6
CONTINUOUS
100
AcDbLine
 10
191.42
 20
73.471
 30
0.0
 11
191.545
 21
73.498
 31
0.0
  0
LINE
  5
75B
100
AcDbEntity
  8
1
  6
CONTINUOUS
100
AcDbLine
 10
190.503
 20
73.471
 30
0.0
 11
190.628
 21
73.498
 31
0.0
  0
LINE
  5
75C
100
AcDbEntity
  8
1
  6
CONTINUOUS
100
AcDbLine
 10
191.42
 20
74.721
 30
0.0
 11
191.295
 21
74.694
 31
0.0
  0
LINE
  5
75D
100
AcDbEntity
  8
1
  6
CONTINUOUS
100
AcDbLine
 10
190.503
 20
74.721
 30
0.0
 11
190.378
 21
74.694
 31
0.0
  0
LINE
  5
75E
100
AcDbEntity
  8
1
  6
CONTINUOUS
100
AcDbLine
 10
267.878
 20
75.014
 30
0.0
 11
268.086
 21
74.971
 31
0.0
  0
LINE
  5
75F
100
AcDbEntity
  8
1
  6
CONTINUOUS
100
AcDbLine
 10
269.836
 20
75.014
 30
0.0
 11
270.045
 21
74.971
 31
0.0
  0
LINE
  5
760
100
AcDbEntity
  8
1
  6
CONTINUOUS
100
AcDbLine
 10
268.628
 20
76.077
 30
0.0
 11
268.42
 21
76.12
 31
0.0
  0
LINE
  5
761
100
AcDbEntity
  8
1
  6
CONTINUOUS
100
AcDbLine
 10
274.045
 20
75.014
 30
0.0
 11
274.253
 21
74.971
 31
0.0
  0
LINE
  5
762
100
AcDbEntity
  8
1
  6
CONTINUOUS
100
AcDbLine
 10
268.586
 20
76.929
 30
0.0
 11
268.378
 21
76.971
 31
0.0
  0
LINE
  5
763
100
AcDbEntity
  8
1
  6
CONTINUOUS
100
AcDbLine
 10
268.086
 20
75.226
 30
0.0
 11
267.92
 21
75.269
 31
0.0
  0
LINE
  5
764
100
AcDbEntity
  8
1
  6
CONTINUOUS
100
AcDbLine
 10
267.836
 20
76.843
 30
0.0
 11
267.67
 21
76.673
 31
0.0
  0
LINE
  5
765
100
AcDbEntity
  8
1
  6
CONTINUOUS
100
AcDbLine
 10
268.795
 20
75.099
 30
0.0
 11
268.961
 21
75.269
 31
0.0
  0
LINE
  5
766
100
AcDbEntity
  8
1
  6
CONTINUOUS
100
AcDbLine
 10
270.586
 20
75.099
 30
0.0
 11
270.753
 21
75.269
 31
0.0
  0
LINE
  5
767
100
AcDbEntity
  8
1
  6
CONTINUOUS
100
AcDbLine
 10
191.42
 20
74.588
 30
0.0
 11
191.316
 21
74.561
 31
0.0
  0
LINE
  5
768
100
AcDbEntity
  8
1
  6
CONTINUOUS
100
AcDbLine
 10
190.503
 20
74.588
 30
0.0
 11
190.399
 21
74.561
 31
0.0
  0
LINE
  5
769
100
AcDbEntity
  8
1
  6
CONTINUOUS
100
AcDbLine
 10
274.795
 20
76.077
 30
0.0
 11
274.586
 21
76.12
 31
0.0
  0
LINE
  5
76A
100
AcDbEntity
  8
1
  6
CONTINUOUS
100
AcDbLine
 10
272.211
 20
76.971
 30
0.0
 11
272.42
 21
76.929
 31
0.0
  0
LINE
  5
76B
100
AcDbEntity
  8
1
  6
CONTINUOUS
100
AcDbLine
 10
274.753
 20
76.929
 30
0.0
 11
274.545
 21
76.971
 31
0.0
  0
LINE
  5
76C
100
AcDbEntity
  8
1
  6
CONTINUOUS
100
AcDbLine
 10
270.045
 20
75.226
 30
0.0
 11
269.878
 21
75.269
 31
0.0
  0
LINE
  5
76D
100
AcDbEntity
  8
1
  6
CONTINUOUS
100
AcDbLine
 10
268.003
 20
75.907
 30
0.0
 11
268.17
 21
75.865
 31
0.0
  0
LINE
  5
76E
100
AcDbEntity
  8
1
  6
CONTINUOUS
100
AcDbLine
 10
268.42
 20
75.865
 30
0.0
 11
268.586
 21
75.822
 31
0.0
  0
LINE
  5
76F
100
AcDbEntity
  8
1
  6
CONTINUOUS
100
AcDbLine
 10
274.253
 20
75.226
 30
0.0
 11
274.086
 21
75.269
 31
0.0
  0
LINE
  5
770
100
AcDbEntity
  8
1
  6
CONTINUOUS
100
AcDbLine
 10
274.17
 20
75.907
 30
0.0
 11
274.336
 21
75.865
 31
0.0
  0
LINE
  5
771
100
AcDbEntity
  8
1
  6
CONTINUOUS
100
AcDbLine
 10
274.586
 20
75.865
 30
0.0
 11
274.753
 21
75.822
 31
0.0
  0
LINE
  5
772
100
AcDbEntity
  8
1
  6
CONTINUOUS
100
AcDbLine
 10
268.17
 20
76.12
 30
0.0
 11
268.045
 21
76.163
 31
0.0
  0
LINE
  5
773
100
AcDbEntity
  8
1
  6
CONTINUOUS
100
AcDbLine
 10
272.378
 20
76.163
 30
0.0
 11
272.461
 21
76.248
 31
0.0
  0
LINE
  5
774
100
AcDbEntity
  8
1
  6
CONTINUOUS
100
AcDbLine
 10
272.461
 20
75.354
 30
0.0
 11
272.378
 21
75.269
 31
0.0
  0
LINE
  5
775
100
AcDbEntity
  8
1
  6
CONTINUOUS
100
AcDbLine
 10
274.003
 20
76.843
 30
0.0
 11
273.836
 21
76.673
 31
0.0
  0
LINE
  5
776
100
AcDbEntity
  8
1
  6
CONTINUOUS
100
AcDbLine
 10
274.961
 20
75.099
 30
0.0
 11
275.128
 21
75.269
 31
0.0
  0
LINE
  5
777
100
AcDbEntity
  8
1
  6
CONTINUOUS
100
AcDbLine
 10
268.42
 20
76.716
 30
0.0
 11
268.545
 21
76.673
 31
0.0
  0
LINE
  5
778
100
AcDbEntity
  8
1
  6
CONTINUOUS
100
AcDbLine
 10
272.253
 20
75.865
 30
0.0
 11
272.378
 21
75.822
 31
0.0
  0
LINE
  5
779
100
AcDbEntity
  8
1
  6
CONTINUOUS
100
AcDbLine
 10
272.378
 20
76.673
 30
0.0
 11
272.253
 21
76.716
 31
0.0
  0
LINE
  5
77A
100
AcDbEntity
  8
1
  6
CONTINUOUS
100
AcDbLine
 10
274.336
 20
76.12
 30
0.0
 11
274.211
 21
76.163
 31
0.0
  0
LINE
  5
77B
100
AcDbEntity
  8
1
  6
CONTINUOUS
100
AcDbLine
 10
274.586
 20
76.716
 30
0.0
 11
274.711
 21
76.673
 31
0.0
  0
LINE
  5
77C
100
AcDbEntity
  8
1
  6
CONTINUOUS
100
AcDbLine
 10
263.67
 20
75.184
 30
0.0
 11
264.295
 21
76.971
 31
0.0
  0
LINE
  5
77D
100
AcDbEntity
  8
1
  6
CONTINUOUS
100
AcDbLine
 10
264.42
 20
76.546
 30
0.0
 11
263.836
 21
74.971
 31
0.0
  0
LINE
  5
77E
100
AcDbEntity
  8
1
  6
CONTINUOUS
100
AcDbLine
 10
268.795
 20
75.482
 30
0.0
 11
268.711
 21
75.354
 31
0.0
  0
LINE
  5
77F
100
AcDbEntity
  8
1
  6
CONTINUOUS
100
AcDbLine
 10
270.586
 20
75.482
 30
0.0
 11
270.503
 21
75.354
 31
0.0
  0
LINE
  5
780
100
AcDbEntity
  8
1
  6
CONTINUOUS
100
AcDbLine
 10
272.711
 20
76.205
 30
0.0
 11
272.586
 21
76.035
 31
0.0
  0
LINE
  5
781
100
AcDbEntity
  8
1
  6
CONTINUOUS
100
AcDbLine
 10
272.711
 20
75.311
 30
0.0
 11
272.586
 21
75.141
 31
0.0
  0
LINE
  5
782
100
AcDbEntity
  8
1
  6
CONTINUOUS
100
AcDbLine
 10
267.836
 20
75.992
 30
0.0
 11
268.003
 21
75.907
 31
0.0
  0
LINE
  5
783
100
AcDbEntity
  8
1
  6
CONTINUOUS
100
AcDbLine
 10
269.67
 20
75.099
 30
0.0
 11
269.836
 21
75.014
 31
0.0
  0
LINE
  5
784
100
AcDbEntity
  8
1
  6
CONTINUOUS
100
AcDbLine
 10
268.795
 20
75.992
 30
0.0
 11
268.628
 21
76.077
 31
0.0
  0
LINE
  5
785
100
AcDbEntity
  8
1
  6
CONTINUOUS
100
AcDbLine
 10
272.503
 20
75.992
 30
0.0
 11
272.586
 21
75.95
 31
0.0
  0
LINE
  5
786
100
AcDbEntity
  8
1
  6
CONTINUOUS
100
AcDbLine
 10
274.003
 20
75.992
 30
0.0
 11
274.17
 21
75.907
 31
0.0
  0
LINE
  5
787
100
AcDbEntity
  8
1
  6
CONTINUOUS
100
AcDbLine
 10
274.961
 20
75.992
 30
0.0
 11
274.795
 21
76.077
 31
0.0
  0
LINE
  5
788
100
AcDbEntity
  8
1
  6
CONTINUOUS
100
AcDbLine
 10
267.67
 20
75.141
 30
0.0
 11
267.878
 21
75.014
 31
0.0
  0
LINE
  5
789
100
AcDbEntity
  8
1
  6
CONTINUOUS
100
AcDbLine
 10
262.195
 20
52.471
 30
0.0
 11
261.695
 21
57.471
 31
0.0
  0
LINE
  5
78A
100
AcDbEntity
  8
1
  6
CONTINUOUS
100
AcDbLine
 10
262.67
 20
74.971
 30
0.0
 11
262.67
 21
76.971
 31
0.0
  0
LINE
  5
78B
100
AcDbEntity
  8
1
  6
CONTINUOUS
100
AcDbLine
 10
262.92
 20
76.546
 30
0.0
 11
262.92
 21
74.971
 31
0.0
  0
LINE
  5
78C
100
AcDbEntity
  8
1
  6
CONTINUOUS
100
AcDbLine
 10
267.878
 20
76.46
 30
0.0
 11
267.92
 21
76.588
 31
0.0
  0
LINE
  5
78D
100
AcDbEntity
  8
1
  6
CONTINUOUS
100
AcDbLine
 10
268.961
 20
75.269
 30
0.0
 11
269.045
 21
75.439
 31
0.0
  0
LINE
  5
78E
100
AcDbEntity
  8
1
  6
CONTINUOUS
100
AcDbLine
 10
270.753
 20
75.269
 30
0.0
 11
270.836
 21
75.439
 31
0.0
  0
LINE
  5
78F
100
AcDbEntity
  8
1
  6
CONTINUOUS
100
AcDbLine
 10
274.961
 20
75.482
 30
0.0
 11
274.878
 21
75.354
 31
0.0
  0
LINE
  5
790
100
AcDbEntity
  8
1
  6
CONTINUOUS
100
AcDbLine
 10
273.836
 20
75.141
 30
0.0
 11
274.045
 21
75.014
 31
0.0
  0
LINE
  5
791
100
AcDbEntity
  8
1
  6
CONTINUOUS
100
AcDbLine
 10
268.045
 20
76.163
 30
0.0
 11
267.92
 21
76.248
 31
0.0
  0
LINE
  5
792
100
AcDbEntity
  8
1
  6
CONTINUOUS
100
AcDbLine
 10
268.586
 20
75.822
 30
0.0
 11
268.711
 21
75.737
 31
0.0
  0
LINE
  5
793
100
AcDbEntity
  8
1
  6
CONTINUOUS
100
AcDbLine
 10
269.878
 20
75.269
 30
0.0
 11
269.753
 21
75.354
 31
0.0
  0
LINE
  5
794
100
AcDbEntity
  8
1
  6
CONTINUOUS
100
AcDbLine
 10
268.753
 20
76.801
 30
0.0
 11
268.586
 21
76.929
 31
0.0
  0
LINE
  5
795
100
AcDbEntity
  8
1
  6
CONTINUOUS
100
AcDbLine
 10
264.42
 20
74.971
 30
0.0
 11
264.42
 21
76.546
 31
0.0
  0
LINE
  5
796
100
AcDbEntity
  8
1
  6
CONTINUOUS
100
AcDbLine
 10
264.67
 20
76.971
 30
0.0
 11
264.67
 21
74.971
 31
0.0
  0
LINE
  5
797
100
AcDbEntity
  8
1
  6
CONTINUOUS
100
AcDbLine
 10
265.003
 20
74.971
 30
0.0
 11
265.003
 21
76.971
 31
0.0
  0
LINE
  5
798
100
AcDbEntity
  8
1
  6
CONTINUOUS
100
AcDbLine
 10
265.253
 20
76.971
 30
0.0
 11
265.253
 21
74.971
 31
0.0
  0
LINE
  5
799
100
AcDbEntity
  8
1
  6
CONTINUOUS
100
AcDbLine
 10
265.586
 20
76.758
 30
0.0
 11
265.586
 21
76.971
 31
0.0
  0
LINE
  5
79A
100
AcDbEntity
  8
1
  6
CONTINUOUS
100
AcDbLine
 10
266.253
 20
74.971
 30
0.0
 11
266.253
 21
76.758
 31
0.0
  0
LINE
  5
79B
100
AcDbEntity
  8
1
  6
CONTINUOUS
100
AcDbLine
 10
266.503
 20
76.758
 30
0.0
 11
266.503
 21
74.971
 31
0.0
  0
LINE
  5
79C
100
AcDbEntity
  8
1
  6
DASHDOT
100
AcDbLine
 10
266.695
 20
59.471
 30
0.0
 11
266.695
 21
50.471
 31
0.0
  0
LINE
  5
79D
100
AcDbEntity
  8
1
  6
CONTINUOUS
100
AcDbLine
 10
267.17
 20
76.971
 30
0.0
 11
267.17
 21
76.758
 31
0.0
  0
LINE
  5
79E
100
AcDbEntity
  8
1
  6
CONTINUOUS
100
AcDbLine
 10
267.67
 20
76.673
 30
0.0
 11
267.628
 21
76.503
 31
0.0
  0
LINE
  5
79F
100
AcDbEntity
  8
1
  6
CONTINUOUS
100
AcDbLine
 10
270.628
 20
75.652
 30
0.0
 11
270.586
 21
75.482
 31
0.0
  0
LINE
  5
7A0
100
AcDbEntity
  8
1
  6
CONTINUOUS
100
AcDbLine
 10
272.461
 20
76.248
 30
0.0
 11
272.503
 21
76.375
 31
0.0
  0
LINE
  5
7A1
100
AcDbEntity
  8
1
  6
CONTINUOUS
100
AcDbLine
 10
275.128
 20
75.269
 30
0.0
 11
275.211
 21
75.439
 31
0.0
  0
LINE
  5
7A2
100
AcDbEntity
  8
1
  6
CONTINUOUS
100
AcDbLine
 10
274.211
 20
76.163
 30
0.0
 11
274.086
 21
76.248
 31
0.0
  0
LINE
  5
7A3
100
AcDbEntity
  8
1
  6
CONTINUOUS
100
AcDbLine
 10
274.753
 20
75.822
 30
0.0
 11
274.878
 21
75.737
 31
0.0
  0
LINE
  5
7A4
100
AcDbEntity
  8
1
  6
CONTINUOUS
100
AcDbLine
 10
272.42
 20
76.929
 30
0.0
 11
272.586
 21
76.801
 31
0.0
  0
LINE
  5
7A5
100
AcDbEntity
  8
1
  6
CONTINUOUS
100
AcDbLine
 10
274.92
 20
76.801
 30
0.0
 11
274.753
 21
76.929
 31
0.0
  0
LINE
  5
7A6
100
AcDbEntity
  8
1
  6
CONTINUOUS
100
AcDbLine
 10
267.92
 20
75.269
 30
0.0
 11
267.795
 21
75.397
 31
0.0
  0
LINE
  5
7A7
100
AcDbEntity
  8
1
  6
CONTINUOUS
100
AcDbLine
 10
267.67
 20
76.163
 30
0.0
 11
267.836
 21
75.992
 31
0.0
  0
LINE
  5
7A8
100
AcDbEntity
  8
1
  6
CONTINUOUS
100
AcDbLine
 10
268.961
 20
75.822
 30
0.0
 11
268.795
 21
75.992
 31
0.0
  0
LINE
  5
7A9
100
AcDbEntity
  8
1
  6
CONTINUOUS
100
AcDbLine
 10
269.503
 20
75.269
 30
0.0
 11
269.67
 21
75.099
 31
0.0
  0
LINE
  5
7AA
100
AcDbEntity
  8
1
  6
CONTINUOUS
100
AcDbLine
 10
268.545
 20
76.673
 30
0.0
 11
268.628
 21
76.588
 31
0.0
  0
LINE
  5
7AB
100
AcDbEntity
  8
1
  6
CONTINUOUS
100
AcDbLine
 10
267.545
 20
75.354
 30
0.0
 11
267.67
 21
75.141
 31
0.0
  0
LINE
  5
7AC
100
AcDbEntity
  8
1
  6
CONTINUOUS
100
AcDbLine
 10
263.503
 20
74.971
 30
0.0
 11
262.92
 21
76.546
 31
0.0
  0
LINE
  5
7AD
100
AcDbEntity
  8
1
  6
CONTINUOUS
100
AcDbLine
 10
263.045
 20
76.971
 30
0.0
 11
263.67
 21
75.184
 31
0.0
  0
LINE
  5
7AE
100
AcDbEntity
  8
1
  6
CONTINUOUS
100
AcDbLine
 10
267.628
 20
76.503
 30
0.0
 11
267.628
 21
76.333
 31
0.0
  0
LINE
  5
7AF
100
AcDbEntity
  8
1
  6
CONTINUOUS
100
AcDbLine
 10
267.878
 20
76.375
 30
0.0
 11
267.878
 21
76.46
 31
0.0
  0
LINE
  5
7B0
100
AcDbEntity
  8
1
  6
CONTINUOUS
100
AcDbLine
 10
268.795
 20
75.609
 30
0.0
 11
268.795
 21
75.482
 31
0.0
  0
LINE
  5
7B1
100
AcDbEntity
  8
1
  6
CONTINUOUS
100
AcDbLine
 10
269.045
 20
75.439
 30
0.0
 11
269.045
 21
75.652
 31
0.0
  0
LINE
  5
7B2
100
AcDbEntity
  8
1
  6
CONTINUOUS
100
AcDbLine
 10
269.378
 20
76.971
 30
0.0
 11
269.378
 21
75.652
 31
0.0
  0
LINE
  5
7B3
100
AcDbEntity
  8
1
  6
CONTINUOUS
100
AcDbLine
 10
269.628
 20
75.652
 30
0.0
 11
269.628
 21
76.971
 31
0.0
  0
LINE
  5
7B4
100
AcDbEntity
  8
1
  6
CONTINUOUS
100
AcDbLine
 10
270.628
 20
76.971
 30
0.0
 11
270.628
 21
75.652
 31
0.0
  0
LINE
  5
7B5
100
AcDbEntity
  8
1
  6
CONTINUOUS
100
AcDbLine
 10
270.878
 20
75.652
 30
0.0
 11
270.878
 21
76.971
 31
0.0
  0
LINE
  5
7B6
100
AcDbEntity
  8
1
  6
CONTINUOUS
100
AcDbLine
 10
270.836
 20
75.439
 30
0.0
 11
270.878
 21
75.652
 31
0.0
  0
LINE
  5
7B7
100
AcDbEntity
  8
1
  6
CONTINUOUS
100
AcDbLine
 10
273.836
 20
76.673
 30
0.0
 11
273.795
 21
76.503
 31
0.0
  0
LINE
  5
7B8
100
AcDbEntity
  8
1
  6
CONTINUOUS
100
AcDbLine
 10
272.753
 20
76.333
 30
0.0
 11
272.711
 21
76.205
 31
0.0
  0
LINE
  5
7B9
100
AcDbEntity
  8
1
  6
CONTINUOUS
100
AcDbLine
 10
272.503
 20
75.482
 30
0.0
 11
272.461
 21
75.354
 31
0.0
  0
LINE
  5
7BA
100
AcDbEntity
  8
1
  6
CONTINUOUS
100
AcDbLine
 10
272.753
 20
75.439
 30
0.0
 11
272.711
 21
75.311
 31
0.0
  0
LINE
  5
7BB
100
AcDbEntity
  8
1
  6
CONTINUOUS
100
AcDbLine
 10
274.045
 20
76.46
 30
0.0
 11
274.086
 21
76.588
 31
0.0
  0
LINE
  5
7BC
100
AcDbEntity
  8
1
  6
CONTINUOUS
100
AcDbLine
 10
272.378
 20
75.822
 30
0.0
 11
272.461
 21
75.737
 31
0.0
  0
LINE
  5
7BD
100
AcDbEntity
  8
1
  6
CONTINUOUS
100
AcDbLine
 10
272.461
 20
76.588
 30
0.0
 11
272.378
 21
76.673
 31
0.0
  0
LINE
  5
7BE
100
AcDbEntity
  8
1
  6
CONTINUOUS
100
AcDbLine
 10
274.086
 20
75.269
 30
0.0
 11
273.961
 21
75.397
 31
0.0
  0
LINE
  5
7BF
100
AcDbEntity
  8
1
  6
CONTINUOUS
100
AcDbLine
 10
273.836
 20
76.163
 30
0.0
 11
274.003
 21
75.992
 31
0.0
  0
LINE
  5
7C0
100
AcDbEntity
  8
1
  6
CONTINUOUS
100
AcDbLine
 10
275.128
 20
75.822
 30
0.0
 11
274.961
 21
75.992
 31
0.0
  0
LINE
  5
7C1
100
AcDbEntity
  8
1
  6
CONTINUOUS
100
AcDbLine
 10
274.711
 20
76.673
 30
0.0
 11
274.795
 21
76.588
 31
0.0
  0
LINE
  5
7C2
100
AcDbEntity
  8
1
  6
CONTINUOUS
100
AcDbLine
 10
268.878
 20
76.631
 30
0.0
 11
268.753
 21
76.801
 31
0.0
  0
LINE
  5
7C3
100
AcDbEntity
  8
1
  6
CONTINUOUS
100
AcDbLine
 10
272.586
 20
75.95
 30
0.0
 11
272.711
 21
75.78
 31
0.0
  0
LINE
  5
7C4
100
AcDbEntity
  8
1
  6
CONTINUOUS
100
AcDbLine
 10
268.711
 20
75.737
 30
0.0
 11
268.795
 21
75.609
 31
0.0
  0
LINE
  5
7C5
100
AcDbEntity
  8
1
  6
CONTINUOUS
100
AcDbLine
 10
269.753
 20
75.354
 30
0.0
 11
269.67
 21
75.482
 31
0.0
  0
LINE
  5
7C6
100
AcDbEntity
  8
1
  6
CONTINUOUS
100
AcDbLine
 10
269.045
 20
75.652
 30
0.0
 11
268.961
 21
75.822
 31
0.0
  0
LINE
  5
7C7
100
AcDbEntity
  8
1
  6
CONTINUOUS
100
AcDbLine
 10
268.628
 20
76.588
 30
0.0
 11
268.67
 21
76.503
 31
0.0
  0
LINE
  5
7C8
100
AcDbEntity
  8
1
  6
CONTINUOUS
100
AcDbLine
 10
269.42
 20
75.439
 30
0.0
 11
269.503
 21
75.269
 31
0.0
  0
LINE
  5
7C9
100
AcDbEntity
  8
1
  6
CONTINUOUS
100
AcDbLine
 10
267.795
 20
75.397
 30
0.0
 11
267.753
 21
75.524
 31
0.0
  0
LINE
  5
7CA
100
AcDbEntity
  8
1
  6
CONTINUOUS
100
AcDbLine
 10
267.92
 20
76.248
 30
0.0
 11
267.878
 21
76.375
 31
0.0
  0
LINE
  5
7CB
100
AcDbEntity
  8
1
  6
CONTINUOUS
100
AcDbLine
 10
268.92
 20
76.503
 30
0.0
 11
268.878
 21
76.631
 31
0.0
  0
LINE
  5
7CC
100
AcDbEntity
  8
1
  6
CONTINUOUS
100
AcDbLine
 10
267.503
 20
75.524
 30
0.0
 11
267.545
 21
75.354
 31
0.0
  0
LINE
  5
7CD
100
AcDbEntity
  8
1
  6
CONTINUOUS
100
AcDbLine
 10
267.628
 20
76.333
 30
0.0
 11
267.67
 21
76.163
 31
0.0
  0
LINE
  5
7CE
100
AcDbEntity
  8
1
  6
CONTINUOUS
100
AcDbLine
 10
269.67
 20
75.482
 30
0.0
 11
269.628
 21
75.652
 31
0.0
  0
LINE
  5
7CF
100
AcDbEntity
  8
1
  6
CONTINUOUS
100
AcDbLine
 10
269.378
 20
75.652
 30
0.0
 11
269.42
 21
75.439
 31
0.0
  0
LINE
  5
7D0
100
AcDbEntity
  8
1
  6
CONTINUOUS
100
AcDbLine
 10
271.211
 20
74.971
 30
0.0
 11
271.211
 21
76.971
 31
0.0
  0
LINE
  5
7D1
100
AcDbEntity
  8
1
  6
CONTINUOUS
100
AcDbLine
 10
271.461
 20
76.716
 30
0.0
 11
271.461
 21
76.12
 31
0.0
  0
LINE
  5
7D2
100
AcDbEntity
  8
1
  6
CONTINUOUS
100
AcDbLine
 10
271.461
 20
75.226
 30
0.0
 11
271.461
 21
75.865
 31
0.0
  0
LINE
  5
7D3
100
AcDbEntity
  8
1
  6
CONTINUOUS
100
AcDbLine
 10
272.503
 20
75.609
 30
0.0
 11
272.503
 21
75.482
 31
0.0
  0
LINE
  5
7D4
100
AcDbEntity
  8
1
  6
CONTINUOUS
100
AcDbLine
 10
272.503
 20
76.375
 30
0.0
 11
272.503
 21
76.46
 31
0.0
  0
LINE
  5
7D5
100
AcDbEntity
  8
1
  6
CONTINUOUS
100
AcDbLine
 10
272.753
 20
76.503
 30
0.0
 11
272.753
 21
76.333
 31
0.0
  0
LINE
  5
7D6
100
AcDbEntity
  8
1
  6
CONTINUOUS
100
AcDbLine
 10
272.753
 20
75.652
 30
0.0
 11
272.753
 21
75.439
 31
0.0
  0
LINE
  5
7D7
100
AcDbEntity
  8
1
  6
CONTINUOUS
100
AcDbLine
 10
273.086
 20
74.971
 30
0.0
 11
273.086
 21
76.971
 31
0.0
  0
LINE
  5
7D8
100
AcDbEntity
  8
1
  6
CONTINUOUS
100
AcDbLine
 10
273.336
 20
76.971
 30
0.0
 11
273.336
 21
74.971
 31
0.0
  0
LINE
  5
7D9
100
AcDbEntity
  8
1
  6
CONTINUOUS
100
AcDbLine
 10
273.795
 20
76.503
 30
0.0
 11
273.795
 21
76.333
 31
0.0
  0
LINE
  5
7DA
100
AcDbEntity
  8
1
  6
CONTINUOUS
100
AcDbLine
 10
274.045
 20
76.375
 30
0.0
 11
274.045
 21
76.46
 31
0.0
  0
LINE
  5
7DB
100
AcDbEntity
  8
1
  6
CONTINUOUS
100
AcDbLine
 10
271.195
 20
52.471
 30
0.0
 11
271.695
 21
57.471
 31
0.0
  0
LINE
  5
7DC
100
AcDbEntity
  8
1
  6
CONTINUOUS
100
AcDbLine
 10
272.586
 20
76.801
 30
0.0
 11
272.711
 21
76.631
 31
0.0
  0
LINE
  5
7DD
100
AcDbEntity
  8
1
  6
CONTINUOUS
100
AcDbLine
 10
275.045
 20
76.631
 30
0.0
 11
274.92
 21
76.801
 31
0.0
  0
LINE
  5
7DE
100
AcDbEntity
  8
1
  6
CONTINUOUS
100
AcDbLine
 10
274.878
 20
75.737
 30
0.0
 11
274.961
 21
75.609
 31
0.0
  0
LINE
  5
7DF
100
AcDbEntity
  8
1
  6
CONTINUOUS
100
AcDbLine
 10
273.711
 20
75.354
 30
0.0
 11
273.836
 21
75.141
 31
0.0
  0
LINE
  5
7E0
100
AcDbEntity
  8
1
  6
CONTINUOUS
100
AcDbLine
 10
272.461
 20
75.737
 30
0.0
 11
272.503
 21
75.609
 31
0.0
  0
LINE
  5
7E1
100
AcDbEntity
  8
1
  6
CONTINUOUS
100
AcDbLine
 10
272.711
 20
75.78
 30
0.0
 11
272.753
 21
75.652
 31
0.0
  0
LINE
  5
7E2
100
AcDbEntity
  8
1
  6
CONTINUOUS
100
AcDbLine
 10
272.503
 20
76.46
 30
0.0
 11
272.461
 21
76.588
 31
0.0
  0
LINE
  5
7E3
100
AcDbEntity
  8
1
  6
CONTINUOUS
100
AcDbLine
 10
272.711
 20
76.631
 30
0.0
 11
272.753
 21
76.503
 31
0.0
  0
LINE
  5
7E4
100
AcDbEntity
  8
1
  6
CONTINUOUS
100
AcDbLine
 10
274.961
 20
75.609
 30
0.0
 11
274.961
 21
75.482
 31
0.0
  0
LINE
  5
7E5
100
AcDbEntity
  8
1
  6
CONTINUOUS
100
AcDbLine
 10
275.211
 20
75.439
 30
0.0
 11
275.211
 21
75.652
 31
0.0
  0
LINE
  5
7E6
100
AcDbEntity
  8
1
  6
CONTINUOUS
100
AcDbLine
 10
275.545
 20
74.971
 30
0.0
 11
275.545
 21
76.971
 31
0.0
  0
LINE
  5
7E7
100
AcDbEntity
  8
1
  6
CONTINUOUS
100
AcDbLine
 10
275.795
 20
76.971
 30
0.0
 11
275.795
 21
76.163
 31
0.0
  0
LINE
  5
7E8
100
AcDbEntity
  8
1
  6
CONTINUOUS
100
AcDbLine
 10
275.795
 20
75.907
 30
0.0
 11
275.795
 21
74.971
 31
0.0
  0
LINE
  5
7E9
100
AcDbEntity
  8
1
  6
CONTINUOUS
100
AcDbLine
 10
276.961
 20
74.971
 30
0.0
 11
276.961
 21
75.907
 31
0.0
  0
LINE
  5
7EA
100
AcDbEntity
  8
1
  6
CONTINUOUS
100
AcDbLine
 10
276.961
 20
76.163
 30
0.0
 11
276.961
 21
76.971
 31
0.0
  0
LINE
  5
7EB
100
AcDbEntity
  8
1
  6
CONTINUOUS
100
AcDbLine
 10
277.211
 20
76.971
 30
0.0
 11
277.211
 21
74.971
 31
0.0
  0
LINE
  5
7EC
100
AcDbEntity
  8
1
  6
CONTINUOUS
100
AcDbLine
 10
277.545
 20
74.971
 30
0.0
 11
277.545
 21
76.971
 31
0.0
  0
LINE
  5
7ED
100
AcDbEntity
  8
1
  6
CONTINUOUS
100
AcDbLine
 10
277.795
 20
76.971
 30
0.0
 11
277.795
 21
74.971
 31
0.0
  0
LINE
  5
7EE
100
AcDbEntity
  8
1
  6
CONTINUOUS
100
AcDbLine
 10
275.211
 20
75.652
 30
0.0
 11
275.128
 21
75.822
 31
0.0
  0
LINE
  5
7EF
100
AcDbEntity
  8
1
  6
CONTINUOUS
100
AcDbLine
 10
274.795
 20
76.588
 30
0.0
 11
274.836
 21
76.503
 31
0.0
  0
LINE
  5
7F0
100
AcDbEntity
  8
1
  6
CONTINUOUS
100
AcDbLine
 10
273.961
 20
75.397
 30
0.0
 11
273.92
 21
75.524
 31
0.0
  0
LINE
  5
7F1
100
AcDbEntity
  8
1
  6
CONTINUOUS
100
AcDbLine
 10
274.086
 20
76.248
 30
0.0
 11
274.045
 21
76.375
 31
0.0
  0
LINE
  5
7F2
100
AcDbEntity
  8
1
  6
CONTINUOUS
100
AcDbLine
 10
275.086
 20
76.503
 30
0.0
 11
275.045
 21
76.631
 31
0.0
  0
LINE
  5
7F3
100
AcDbEntity
  8
1
  6
CONTINUOUS
100
AcDbLine
 10
273.67
 20
75.524
 30
0.0
 11
273.711
 21
75.354
 31
0.0
  0
LINE
  5
7F4
100
AcDbEntity
  8
1
  6
CONTINUOUS
100
AcDbLine
 10
273.795
 20
76.333
 30
0.0
 11
273.836
 21
76.163
 31
0.0
  0
LINE
  5
7F5
100
AcDbEntity
  8
1
  6
CONTINUOUS
100
AcDbLine
 10
282.791
 20
63.221
 30
0.0
 11
282.788
 21
63.408
 31
0.0
  0
LINE
  5
7F6
100
AcDbEntity
  8
1
  6
CONTINUOUS
100
AcDbLine
 10
282.788
 20
63.408
 30
0.0
 11
282.777
 21
63.596
 31
0.0
  0
LINE
  5
7F7
100
AcDbEntity
  8
1
  6
CONTINUOUS
100
AcDbLine
 10
282.791
 20
73.721
 30
0.0
 11
282.788
 21
73.908
 31
0.0
  0
LINE
  5
7F8
100
AcDbEntity
  8
1
  6
CONTINUOUS
100
AcDbLine
 10
282.788
 20
73.908
 30
0.0
 11
282.777
 21
74.096
 31
0.0
  0
LINE
  5
7F9
100
AcDbEntity
  8
1
  6
CONTINUOUS
100
AcDbLine
 10
281.67
 20
57.471
 30
0.0
 11
281.67
 21
79.471
 31
0.0
  0
LINE
  5
7FA
100
AcDbEntity
  8
1
  6
CONTINUOUS
100
AcDbLine
 10
282.501
 20
61.219
 30
0.0
 11
282.501
 21
65.223
 31
0.0
  0
LINE
  5
7FB
100
AcDbEntity
  8
1
  6
CONTINUOUS
100
AcDbLine
 10
282.501
 20
71.719
 30
0.0
 11
282.501
 21
75.723
 31
0.0
  0
LINE
  5
7FC
100
AcDbEntity
  8
1
  6
CONTINUOUS
100
AcDbLine
 10
282.777
 20
73.346
 30
0.0
 11
282.788
 21
73.534
 31
0.0
  0
LINE
  5
7FD
100
AcDbEntity
  8
1
  6
CONTINUOUS
100
AcDbLine
 10
282.788
 20
73.534
 30
0.0
 11
282.791
 21
73.721
 31
0.0
  0
LINE
  5
7FE
100
AcDbEntity
  8
1
  6
CONTINUOUS
100
AcDbLine
 10
282.777
 20
62.846
 30
0.0
 11
282.788
 21
63.034
 31
0.0
  0
LINE
  5
7FF
100
AcDbEntity
  8
1
  6
CONTINUOUS
100
AcDbLine
 10
282.788
 20
63.034
 30
0.0
 11
282.791
 21
63.221
 31
0.0
  0
LINE
  5
800
100
AcDbEntity
  8
1
  6
CONTINUOUS
100
AcDbLine
 10
282.878
 20
73.196
 30
0.0
 11
282.884
 21
73.272
 31
0.0
  0
LINE
  5
801
100
AcDbEntity
  8
1
  6
CONTINUOUS
100
AcDbLine
 10
282.884
 20
73.272
 30
0.0
 11
282.884
 21
73.326
 31
0.0
  0
LINE
  5
802
100
AcDbEntity
  8
1
  6
CONTINUOUS
100
AcDbLine
 10
282.884
 20
73.326
 30
0.0
 11
282.878
 21
73.346
 31
0.0
  0
LINE
  5
803
100
AcDbEntity
  8
1
  6
CONTINUOUS
100
AcDbLine
 10
282.878
 20
62.696
 30
0.0
 11
282.884
 21
62.772
 31
0.0
  0
LINE
  5
804
100
AcDbEntity
  8
1
  6
CONTINUOUS
100
AcDbLine
 10
282.884
 20
62.772
 30
0.0
 11
282.884
 21
62.826
 31
0.0
  0
LINE
  5
805
100
AcDbEntity
  8
1
  6
CONTINUOUS
100
AcDbLine
 10
282.884
 20
62.826
 30
0.0
 11
282.878
 21
62.846
 31
0.0
  0
LINE
  5
806
100
AcDbEntity
  8
1
  6
CONTINUOUS
100
AcDbLine
 10
282.777
 20
72.596
 30
0.0
 11
282.838
 21
72.905
 31
0.0
  0
LINE
  5
807
100
AcDbEntity
  8
1
  6
CONTINUOUS
100
AcDbLine
 10
282.838
 20
72.905
 30
0.0
 11
282.878
 21
73.196
 31
0.0
  0
LINE
  5
808
100
AcDbEntity
  8
1
  6
CONTINUOUS
100
AcDbLine
 10
282.777
 20
62.096
 30
0.0
 11
282.838
 21
62.405
 31
0.0
  0
LINE
  5
809
100
AcDbEntity
  8
1
  6
CONTINUOUS
100
AcDbLine
 10
282.838
 20
62.405
 30
0.0
 11
282.878
 21
62.696
 31
0.0
  0
LINE
  5
80A
100
AcDbEntity
  8
1
  6
CONTINUOUS
100
AcDbLine
 10
282.878
 20
74.096
 30
0.0
 11
282.884
 21
74.116
 31
0.0
  0
LINE
  5
80B
100
AcDbEntity
  8
1
  6
CONTINUOUS
100
AcDbLine
 10
282.884
 20
74.116
 30
0.0
 11
282.884
 21
74.17
 31
0.0
  0
LINE
  5
80C
100
AcDbEntity
  8
1
  6
CONTINUOUS
100
AcDbLine
 10
282.884
 20
74.17
 30
0.0
 11
282.878
 21
74.246
 31
0.0
  0
LINE
  5
80D
100
AcDbEntity
  8
1
  6
CONTINUOUS
100
AcDbLine
 10
282.878
 20
63.596
 30
0.0
 11
282.884
 21
63.616
 31
0.0
  0
LINE
  5
80E
100
AcDbEntity
  8
1
  6
CONTINUOUS
100
AcDbLine
 10
282.884
 20
63.616
 30
0.0
 11
282.884
 21
63.67
 31
0.0
  0
LINE
  5
80F
100
AcDbEntity
  8
1
  6
CONTINUOUS
100
AcDbLine
 10
282.884
 20
63.67
 30
0.0
 11
282.878
 21
63.746
 31
0.0
  0
LINE
  5
810
100
AcDbEntity
  8
1
  6
CONTINUOUS
100
AcDbLine
 10
282.878
 20
63.746
 30
0.0
 11
282.853
 21
63.945
 31
0.0
  0
LINE
  5
811
100
AcDbEntity
  8
1
  6
CONTINUOUS
100
AcDbLine
 10
282.853
 20
63.945
 30
0.0
 11
282.82
 21
64.143
 31
0.0
  0
LINE
  5
812
100
AcDbEntity
  8
1
  6
CONTINUOUS
100
AcDbLine
 10
282.82
 20
64.143
 30
0.0
 11
282.777
 21
64.346
 31
0.0
  0
LINE
  5
813
100
AcDbEntity
  8
1
  6
CONTINUOUS
100
AcDbLine
 10
282.878
 20
74.246
 30
0.0
 11
282.853
 21
74.445
 31
0.0
  0
LINE
  5
814
100
AcDbEntity
  8
1
  6
CONTINUOUS
100
AcDbLine
 10
282.853
 20
74.445
 30
0.0
 11
282.82
 21
74.643
 31
0.0
  0
LINE
  5
815
100
AcDbEntity
  8
1
  6
CONTINUOUS
100
AcDbLine
 10
282.82
 20
74.643
 30
0.0
 11
282.777
 21
74.846
 31
0.0
  0
LINE
  5
816
100
AcDbEntity
  8
1
  6
CONTINUOUS
100
AcDbLine
 10
190.845
 20
105.376
 30
0.0
 11
190.445
 21
105.776
 31
0.0
  0
LINE
  5
817
100
AcDbEntity
  8
1
  6
CONTINUOUS
100
AcDbLine
 10
180.461
 20
206.501
 30
0.0
 11
180.456
 21
206.481
 31
0.0
  0
LINE
  5
818
100
AcDbEntity
  8
1
  6
CONTINUOUS
100
AcDbLine
 10
180.456
 20
206.481
 30
0.0
 11
180.456
 21
206.427
 31
0.0
  0
LINE
  5
819
100
AcDbEntity
  8
1
  6
CONTINUOUS
100
AcDbLine
 10
180.456
 20
206.427
 30
0.0
 11
180.461
 21
206.351
 31
0.0
  0
LINE
  5
81A
100
AcDbEntity
  8
1
  6
CONTINUOUS
100
AcDbLine
 10
180.562
 20
208.001
 30
0.0
 11
180.518
 21
207.789
 31
0.0
  0
LINE
  5
81B
100
AcDbEntity
  8
1
  6
CONTINUOUS
100
AcDbLine
 10
180.518
 20
207.789
 30
0.0
 11
180.485
 21
207.589
 31
0.0
  0
LINE
  5
81C
100
AcDbEntity
  8
1
  6
CONTINUOUS
100
AcDbLine
 10
180.485
 20
207.589
 30
0.0
 11
180.461
 21
207.401
 31
0.0
  0
LINE
  5
81D
100
AcDbEntity
  8
1
  6
CONTINUOUS
100
AcDbLine
 10
196.745
 20
103.726
 30
0.0
 11
191.645
 21
103.726
 31
0.0
  0
LINE
  5
81E
100
AcDbEntity
  8
1
  6
CONTINUOUS
100
AcDbLine
 10
180.461
 20
114.351
 30
0.0
 11
180.485
 21
114.164
 31
0.0
  0
LINE
  5
81F
100
AcDbEntity
  8
1
  6
CONTINUOUS
100
AcDbLine
 10
180.485
 20
114.164
 30
0.0
 11
180.518
 21
113.964
 31
0.0
  0
LINE
  5
820
100
AcDbEntity
  8
1
  6
CONTINUOUS
100
AcDbLine
 10
180.518
 20
113.964
 30
0.0
 11
180.562
 21
113.751
 31
0.0
  0
LINE
  5
821
100
AcDbEntity
  8
1
  6
CONTINUOUS
100
AcDbLine
 10
180.838
 20
208.878
 30
0.0
 11
180.838
 21
204.874
 31
0.0
  0
LINE
  5
822
100
AcDbEntity
  8
1
  6
CONTINUOUS
100
AcDbLine
 10
180.838
 20
116.878
 30
0.0
 11
180.838
 21
112.874
 31
0.0
  0
LINE
  5
823
100
AcDbEntity
  8
1
  6
CONTINUOUS
100
AcDbLine
 10
180.562
 20
207.251
 30
0.0
 11
180.548
 21
206.876
 31
0.0
  0
LINE
  5
824
100
AcDbEntity
  8
1
  6
CONTINUOUS
100
AcDbLine
 10
180.548
 20
206.876
 30
0.0
 11
180.562
 21
206.501
 31
0.0
  0
LINE
  5
825
100
AcDbEntity
  8
1
  6
CONTINUOUS
100
AcDbLine
 10
180.461
 20
207.401
 30
0.0
 11
180.456
 21
207.326
 31
0.0
  0
LINE
  5
826
100
AcDbEntity
  8
1
  6
CONTINUOUS
100
AcDbLine
 10
180.456
 20
207.326
 30
0.0
 11
180.456
 21
207.272
 31
0.0
  0
LINE
  5
827
100
AcDbEntity
  8
1
  6
CONTINUOUS
100
AcDbLine
 10
180.456
 20
207.272
 30
0.0
 11
180.461
 21
207.251
 31
0.0
  0
LINE
  5
828
100
AcDbEntity
  8
1
  6
CONTINUOUS
100
AcDbLine
 10
282.501
 20
112.874
 30
0.0
 11
281.67
 21
112.801
 31
0.0
  0
LINE
  5
829
100
AcDbEntity
  8
1
  6
CONTINUOUS
100
AcDbLine
 10
197.545
 20
105.376
 30
0.0
 11
190.845
 21
105.376
 31
0.0
  0
LINE
  5
82A
100
AcDbEntity
  8
1
  6
CONTINUOUS
100
AcDbLine
 10
197.945
 20
105.776
 30
0.0
 11
190.445
 21
105.776
 31
0.0
  0
LINE
  5
82B
100
AcDbEntity
  8
1
  6
CONTINUOUS
100
AcDbLine
 10
281.67
 20
105.876
 30
0.0
 11
181.67
 21
105.876
 31
0.0
  0
LINE
  5
82C
100
AcDbEntity
  8
1
  6
CONTINUOUS
100
AcDbLine
 10
180.838
 20
112.874
 30
0.0
 11
181.67
 21
112.801
 31
0.0
  0
LINE
  5
82D
100
AcDbEntity
  8
1
  6
CONTINUOUS
100
AcDbLine
 10
181.67
 20
215.876
 30
0.0
 11
181.67
 21
105.876
 31
0.0
  0
LINE
  5
82E
100
AcDbEntity
  8
1
  6
CONTINUOUS
100
AcDbLine
 10
180.562
 20
115.251
 30
0.0
 11
180.548
 21
114.876
 31
0.0
  0
LINE
  5
82F
100
AcDbEntity
  8
1
  6
CONTINUOUS
100
AcDbLine
 10
180.548
 20
114.876
 30
0.0
 11
180.562
 21
114.501
 31
0.0
  0
LINE
  5
830
100
AcDbEntity
  8
1
  6
CONTINUOUS
100
AcDbLine
 10
180.461
 20
115.401
 30
0.0
 11
180.456
 21
115.326
 31
0.0
  0
LINE
  5
831
100
AcDbEntity
  8
1
  6
CONTINUOUS
100
AcDbLine
 10
180.456
 20
115.326
 30
0.0
 11
180.456
 21
115.272
 31
0.0
  0
LINE
  5
832
100
AcDbEntity
  8
1
  6
CONTINUOUS
100
AcDbLine
 10
180.456
 20
115.272
 30
0.0
 11
180.461
 21
115.251
 31
0.0
  0
LINE
  5
833
100
AcDbEntity
  8
1
  6
CONTINUOUS
100
AcDbLine
 10
282.791
 20
113.751
 30
0.0
 11
282.777
 21
113.751
 31
0.0
  0
LINE
  5
834
100
AcDbEntity
  8
1
  6
CONTINUOUS
100
AcDbLine
 10
180.562
 20
113.751
 30
0.0
 11
180.548
 21
113.751
 31
0.0
  0
LINE
  5
835
100
AcDbEntity
  8
1
  6
CONTINUOUS
100
AcDbLine
 10
282.878
 20
114.501
 30
0.0
 11
282.777
 21
114.501
 31
0.0
  0
LINE
  5
836
100
AcDbEntity
  8
1
  6
CONTINUOUS
100
AcDbLine
 10
180.562
 20
114.501
 30
0.0
 11
180.461
 21
114.501
 31
0.0
  0
LINE
  5
837
100
AcDbEntity
  8
1
  6
CONTINUOUS
100
AcDbLine
 10
180.461
 20
115.251
 30
0.0
 11
180.562
 21
115.251
 31
0.0
  0
LINE
  5
838
100
AcDbEntity
  8
1
  6
CONTINUOUS
100
AcDbLine
 10
282.777
 20
115.251
 30
0.0
 11
282.878
 21
115.251
 31
0.0
  0
LINE
  5
839
100
AcDbEntity
  8
1
  6
CONTINUOUS
100
AcDbLine
 10
190.32
 20
215.876
 30
0.0
 11
190.32
 21
217.326
 31
0.0
  0
LINE
  5
83A
100
AcDbEntity
  8
1
  6
CONTINUOUS
100
AcDbLine
 10
190.445
 20
105.876
 30
0.0
 11
190.445
 21
105.776
 31
0.0
  0
LINE
  5
83B
100
AcDbEntity
  8
1
  6
CONTINUOUS
100
AcDbLine
 10
180.562
 20
116.001
 30
0.0
 11
180.518
 21
115.789
 31
0.0
  0
LINE
  5
83C
100
AcDbEntity
  8
1
  6
CONTINUOUS
100
AcDbLine
 10
180.518
 20
115.789
 30
0.0
 11
180.485
 21
115.589
 31
0.0
  0
LINE
  5
83D
100
AcDbEntity
  8
1
  6
CONTINUOUS
100
AcDbLine
 10
180.485
 20
115.589
 30
0.0
 11
180.461
 21
115.401
 31
0.0
  0
LINE
  5
83E
100
AcDbEntity
  8
1
  6
CONTINUOUS
100
AcDbLine
 10
180.548
 20
116.001
 30
0.0
 11
180.562
 21
116.001
 31
0.0
  0
LINE
  5
83F
100
AcDbEntity
  8
1
  6
CONTINUOUS
100
AcDbLine
 10
282.777
 20
116.001
 30
0.0
 11
282.791
 21
116.001
 31
0.0
  0
LINE
  5
840
100
AcDbEntity
  8
1
  6
CONTINUOUS
100
AcDbLine
 10
180.461
 20
206.351
 30
0.0
 11
180.485
 21
206.164
 31
0.0
  0
LINE
  5
841
100
AcDbEntity
  8
1
  6
CONTINUOUS
100
AcDbLine
 10
180.485
 20
206.164
 30
0.0
 11
180.518
 21
205.964
 31
0.0
  0
LINE
  5
842
100
AcDbEntity
  8
1
  6
CONTINUOUS
100
AcDbLine
 10
180.518
 20
205.964
 30
0.0
 11
180.562
 21
205.751
 31
0.0
  0
LINE
  5
843
100
AcDbEntity
  8
1
  6
CONTINUOUS
100
AcDbLine
 10
191.645
 20
103.726
 30
0.0
 11
191.645
 21
105.376
 31
0.0
  0
LINE
  5
844
100
AcDbEntity
  8
1
  6
CONTINUOUS
100
AcDbLine
 10
180.461
 20
114.501
 30
0.0
 11
180.456
 21
114.481
 31
0.0
  0
LINE
  5
845
100
AcDbEntity
  8
1
  6
CONTINUOUS
100
AcDbLine
 10
180.456
 20
114.481
 30
0.0
 11
180.456
 21
114.427
 31
0.0
  0
LINE
  5
846
100
AcDbEntity
  8
1
  6
CONTINUOUS
100
AcDbLine
 10
180.456
 20
114.427
 30
0.0
 11
180.461
 21
114.351
 31
0.0
  0
LINE
  5
847
100
AcDbEntity
  8
1
  6
CONTINUOUS
100
AcDbLine
 10
180.838
 20
116.878
 30
0.0
 11
181.67
 21
116.951
 31
0.0
  0
LINE
  5
848
100
AcDbEntity
  8
1
  6
CONTINUOUS
100
AcDbLine
 10
282.501
 20
116.878
 30
0.0
 11
281.67
 21
116.951
 31
0.0
  0
LINE
  5
849
100
AcDbEntity
  8
1
  6
CONTINUOUS
100
AcDbLine
 10
196.745
 20
103.726
 30
0.0
 11
196.745
 21
105.376
 31
0.0
  0
LINE
  5
84A
100
AcDbEntity
  8
1
  6
CONTINUOUS
100
AcDbLine
 10
197.07
 20
215.876
 30
0.0
 11
197.07
 21
217.326
 31
0.0
  0
LINE
  5
84B
100
AcDbEntity
  8
1
  6
CONTINUOUS
100
AcDbLine
 10
197.945
 20
105.876
 30
0.0
 11
197.945
 21
105.776
 31
0.0
  0
LINE
  5
84C
100
AcDbEntity
  8
1
  6
CONTINUOUS
100
AcDbLine
 10
203.37
 20
216.276
 30
0.0
 11
203.37
 21
215.876
 31
0.0
  0
LINE
  5
84D
100
AcDbEntity
  8
1
  6
CONTINUOUS
100
AcDbLine
 10
215.97
 20
216.276
 30
0.0
 11
215.97
 21
215.876
 31
0.0
  0
LINE
  5
84E
100
AcDbEntity
  8
1
  6
CONTINUOUS
100
AcDbLine
 10
220.172
 20
215.876
 30
0.0
 11
220.172
 21
218.376
 31
0.0
  0
LINE
  5
84F
100
AcDbEntity
  8
1
  6
CONTINUOUS
100
AcDbLine
 10
221.422
 20
215.876
 30
0.0
 11
221.422
 21
218.376
 31
0.0
  0
LINE
  5
850
100
AcDbEntity
  8
1
  6
CONTINUOUS
100
AcDbLine
 10
222.672
 20
215.876
 30
0.0
 11
222.672
 21
218.376
 31
0.0
  0
LINE
  5
851
100
AcDbEntity
  8
1
  6
CONTINUOUS
100
AcDbLine
 10
223.584
 20
218.366
 30
0.0
 11
223.584
 21
215.876
 31
0.0
  0
LINE
  5
852
100
AcDbEntity
  8
1
  6
CONTINUOUS
100
AcDbLine
 10
224.834
 20
218.366
 30
0.0
 11
224.834
 21
215.876
 31
0.0
  0
LINE
  5
853
100
AcDbEntity
  8
1
  6
CONTINUOUS
100
AcDbLine
 10
227.92
 20
215.876
 30
0.0
 11
227.92
 21
216.326
 31
0.0
  0
LINE
  5
854
100
AcDbEntity
  8
1
  6
CONTINUOUS
100
AcDbLine
 10
228.42
 20
215.876
 30
0.0
 11
228.42
 21
216.326
 31
0.0
  0
LINE
  5
855
100
AcDbEntity
  8
1
  6
CONTINUOUS
100
AcDbLine
 10
229.02
 20
215.876
 30
0.0
 11
229.02
 21
216.326
 31
0.0
  0
LINE
  5
856
100
AcDbEntity
  8
1
  6
CONTINUOUS
100
AcDbLine
 10
230.505
 20
218.366
 30
0.0
 11
230.505
 21
216.326
 31
0.0
  0
LINE
  5
857
100
AcDbEntity
  8
1
  6
CONTINUOUS
100
AcDbLine
 10
231.755
 20
218.366
 30
0.0
 11
231.755
 21
216.326
 31
0.0
  0
LINE
  5
858
100
AcDbEntity
  8
1
  6
CONTINUOUS
100
AcDbLine
 10
231.92
 20
216.376
 30
0.0
 11
231.92
 21
216.326
 31
0.0
  0
LINE
  5
859
100
AcDbEntity
  8
1
  6
CONTINUOUS
100
AcDbLine
 10
232.667
 20
216.376
 30
0.0
 11
232.667
 21
218.376
 31
0.0
  0
LINE
  5
85A
100
AcDbEntity
  8
1
  6
CONTINUOUS
100
AcDbLine
 10
233.917
 20
216.376
 30
0.0
 11
233.917
 21
218.376
 31
0.0
  0
LINE
  5
85B
100
AcDbEntity
  8
1
  6
CONTINUOUS
100
AcDbLine
 10
235.167
 20
216.376
 30
0.0
 11
235.167
 21
218.376
 31
0.0
  0
LINE
  5
85C
100
AcDbEntity
  8
1
  6
CONTINUOUS
100
AcDbLine
 10
241.172
 20
216.376
 30
0.0
 11
241.172
 21
218.376
 31
0.0
  0
LINE
  5
85D
100
AcDbEntity
  8
1
  6
CONTINUOUS
100
AcDbLine
 10
242.422
 20
216.376
 30
0.0
 11
242.422
 21
218.376
 31
0.0
  0
LINE
  5
85E
100
AcDbEntity
  8
1
  6
CONTINUOUS
100
AcDbLine
 10
243.672
 20
216.376
 30
0.0
 11
243.672
 21
218.376
 31
0.0
  0
LINE
  5
85F
100
AcDbEntity
  8
1
  6
CONTINUOUS
100
AcDbLine
 10
244.584
 20
218.366
 30
0.0
 11
244.584
 21
216.376
 31
0.0
  0
LINE
  5
860
100
AcDbEntity
  8
1
  6
CONTINUOUS
100
AcDbLine
 10
245.834
 20
218.366
 30
0.0
 11
245.834
 21
216.376
 31
0.0
  0
LINE
  5
861
100
AcDbEntity
  8
1
  6
CONTINUOUS
100
AcDbLine
 10
197.545
 20
105.376
 30
0.0
 11
197.945
 21
105.776
 31
0.0
  0
LINE
  5
862
100
AcDbEntity
  8
1
  6
CONTINUOUS
100
AcDbLine
 10
251.505
 20
218.366
 30
0.0
 11
251.505
 21
216.376
 31
0.0
  0
LINE
  5
863
100
AcDbEntity
  8
1
  6
CONTINUOUS
100
AcDbLine
 10
252.755
 20
218.366
 30
0.0
 11
252.755
 21
216.376
 31
0.0
  0
LINE
  5
864
100
AcDbEntity
  8
1
  6
CONTINUOUS
100
AcDbLine
 10
253.667
 20
216.376
 30
0.0
 11
253.667
 21
218.376
 31
0.0
  0
LINE
  5
865
100
AcDbEntity
  8
1
  6
CONTINUOUS
100
AcDbLine
 10
254.917
 20
216.376
 30
0.0
 11
254.917
 21
218.376
 31
0.0
  0
LINE
  5
866
100
AcDbEntity
  8
1
  6
CONTINUOUS
100
AcDbLine
 10
256.167
 20
216.376
 30
0.0
 11
256.167
 21
218.376
 31
0.0
  0
LINE
  5
867
100
AcDbEntity
  8
1
  6
CONTINUOUS
100
AcDbLine
 10
256.42
 20
216.326
 30
0.0
 11
256.42
 21
216.376
 31
0.0
  0
LINE
  5
868
100
AcDbEntity
  8
1
  6
CONTINUOUS
100
AcDbLine
 10
256.92
 20
216.326
 30
0.0
 11
256.92
 21
216.376
 31
0.0
  0
LINE
  5
869
100
AcDbEntity
  8
1
  6
CONTINUOUS
100
AcDbLine
 10
258.157
 20
217.042
 30
0.0
 11
258.095
 21
216.326
 31
0.0
  0
LINE
  5
86A
100
AcDbEntity
  8
1
  6
CONTINUOUS
100
AcDbLine
 10
258.92
 20
217.213
 30
0.0
 11
258.92
 21
217.22
 31
0.0
  0
LINE
  5
86B
100
AcDbEntity
  8
1
  6
CONTINUOUS
100
AcDbLine
 10
259.42
 20
217.213
 30
0.0
 11
259.42
 21
217.254
 31
0.0
  0
LINE
  5
86C
100
AcDbEntity
  8
1
  6
CONTINUOUS
100
AcDbLine
 10
259.92
 20
217.254
 30
0.0
 11
259.92
 21
217.213
 31
0.0
  0
LINE
  5
86D
100
AcDbEntity
  8
1
  6
CONTINUOUS
100
AcDbLine
 10
260.42
 20
217.22
 30
0.0
 11
260.42
 21
217.213
 31
0.0
  0
LINE
  5
86E
100
AcDbEntity
  8
1
  6
CONTINUOUS
100
AcDbLine
 10
260.57
 20
215.876
 30
0.0
 11
260.57
 21
216.326
 31
0.0
  0
LINE
  5
86F
100
AcDbEntity
  8
1
  6
CONTINUOUS
100
AcDbLine
 10
261.17
 20
215.876
 30
0.0
 11
261.17
 21
216.326
 31
0.0
  0
LINE
  5
870
100
AcDbEntity
  8
1
  6
CONTINUOUS
100
AcDbLine
 10
261.182
 20
217.042
 30
0.0
 11
261.245
 21
216.326
 31
0.0
  0
LINE
  5
871
100
AcDbEntity
  8
1
  6
CONTINUOUS
100
AcDbLine
 10
282.878
 20
207.251
 30
0.0
 11
282.884
 21
207.272
 31
0.0
  0
LINE
  5
872
100
AcDbEntity
  8
1
  6
CONTINUOUS
100
AcDbLine
 10
282.884
 20
207.272
 30
0.0
 11
282.884
 21
207.326
 31
0.0
  0
LINE
  5
873
100
AcDbEntity
  8
1
  6
CONTINUOUS
100
AcDbLine
 10
282.884
 20
207.326
 30
0.0
 11
282.878
 21
207.401
 31
0.0
  0
LINE
  5
874
100
AcDbEntity
  8
1
  6
CONTINUOUS
100
AcDbLine
 10
282.777
 20
205.751
 30
0.0
 11
282.821
 21
205.964
 31
0.0
  0
LINE
  5
875
100
AcDbEntity
  8
1
  6
CONTINUOUS
100
AcDbLine
 10
282.821
 20
205.964
 30
0.0
 11
282.854
 21
206.164
 31
0.0
  0
LINE
  5
876
100
AcDbEntity
  8
1
  6
CONTINUOUS
100
AcDbLine
 10
282.854
 20
206.164
 30
0.0
 11
282.878
 21
206.351
 31
0.0
  0
LINE
  5
877
100
AcDbEntity
  8
1
  6
CONTINUOUS
100
AcDbLine
 10
282.501
 20
204.874
 30
0.0
 11
281.67
 21
204.801
 31
0.0
  0
LINE
  5
878
100
AcDbEntity
  8
1
  6
CONTINUOUS
100
AcDbLine
 10
180.838
 20
204.874
 30
0.0
 11
181.67
 21
204.801
 31
0.0
  0
LINE
  5
879
100
AcDbEntity
  8
1
  6
CONTINUOUS
100
AcDbLine
 10
282.791
 20
205.751
 30
0.0
 11
282.777
 21
205.751
 31
0.0
  0
LINE
  5
87A
100
AcDbEntity
  8
1
  6
CONTINUOUS
100
AcDbLine
 10
180.562
 20
205.751
 30
0.0
 11
180.548
 21
205.751
 31
0.0
  0
LINE
  5
87B
100
AcDbEntity
  8
1
  6
CONTINUOUS
100
AcDbLine
 10
282.878
 20
206.501
 30
0.0
 11
282.777
 21
206.501
 31
0.0
  0
LINE
  5
87C
100
AcDbEntity
  8
1
  6
CONTINUOUS
100
AcDbLine
 10
180.562
 20
206.501
 30
0.0
 11
180.461
 21
206.501
 31
0.0
  0
LINE
  5
87D
100
AcDbEntity
  8
1
  6
CONTINUOUS
100
AcDbLine
 10
180.461
 20
207.251
 30
0.0
 11
180.562
 21
207.251
 31
0.0
  0
LINE
  5
87E
100
AcDbEntity
  8
1
  6
CONTINUOUS
100
AcDbLine
 10
282.777
 20
207.251
 30
0.0
 11
282.878
 21
207.251
 31
0.0
  0
LINE
  5
87F
100
AcDbEntity
  8
1
  6
CONTINUOUS
100
AcDbLine
 10
282.878
 20
115.401
 30
0.0
 11
282.854
 21
115.589
 31
0.0
  0
LINE
  5
880
100
AcDbEntity
  8
1
  6
CONTINUOUS
100
AcDbLine
 10
282.854
 20
115.589
 30
0.0
 11
282.821
 21
115.789
 31
0.0
  0
LINE
  5
881
100
AcDbEntity
  8
1
  6
CONTINUOUS
100
AcDbLine
 10
282.821
 20
115.789
 30
0.0
 11
282.777
 21
116.001
 31
0.0
  0
LINE
  5
882
100
AcDbEntity
  8
1
  6
CONTINUOUS
100
AcDbLine
 10
281.67
 20
215.876
 30
0.0
 11
281.67
 21
105.876
 31
0.0
  0
LINE
  5
883
100
AcDbEntity
  8
1
  6
CONTINUOUS
100
AcDbLine
 10
282.501
 20
208.878
 30
0.0
 11
282.501
 21
204.874
 31
0.0
  0
LINE
  5
884
100
AcDbEntity
  8
1
  6
CONTINUOUS
100
AcDbLine
 10
282.501
 20
116.878
 30
0.0
 11
282.501
 21
112.874
 31
0.0
  0
LINE
  5
885
100
AcDbEntity
  8
1
  6
CONTINUOUS
100
AcDbLine
 10
282.777
 20
206.501
 30
0.0
 11
282.791
 21
206.876
 31
0.0
  0
LINE
  5
886
100
AcDbEntity
  8
1
  6
CONTINUOUS
100
AcDbLine
 10
282.791
 20
206.876
 30
0.0
 11
282.777
 21
207.251
 31
0.0
  0
LINE
  5
887
100
AcDbEntity
  8
1
  6
CONTINUOUS
100
AcDbLine
 10
282.878
 20
206.351
 30
0.0
 11
282.884
 21
206.427
 31
0.0
  0
LINE
  5
888
100
AcDbEntity
  8
1
  6
CONTINUOUS
100
AcDbLine
 10
282.884
 20
206.427
 30
0.0
 11
282.884
 21
206.481
 31
0.0
  0
LINE
  5
889
100
AcDbEntity
  8
1
  6
CONTINUOUS
100
AcDbLine
 10
282.884
 20
206.481
 30
0.0
 11
282.878
 21
206.501
 31
0.0
  0
LINE
  5
88A
100
AcDbEntity
  8
1
  6
CONTINUOUS
100
AcDbLine
 10
258.92
 20
217.22
 30
0.0
 11
258.157
 21
217.042
 31
0.0
  0
LINE
  5
88B
100
AcDbEntity
  8
1
  6
CONTINUOUS
100
AcDbLine
 10
180.548
 20
208.001
 30
0.0
 11
180.562
 21
208.001
 31
0.0
  0
LINE
  5
88C
100
AcDbEntity
  8
1
  6
CONTINUOUS
100
AcDbLine
 10
282.777
 20
208.001
 30
0.0
 11
282.791
 21
208.001
 31
0.0
  0
LINE
  5
88D
100
AcDbEntity
  8
1
  6
CONTINUOUS
100
AcDbLine
 10
282.777
 20
114.501
 30
0.0
 11
282.791
 21
114.876
 31
0.0
  0
LINE
  5
88E
100
AcDbEntity
  8
1
  6
CONTINUOUS
100
AcDbLine
 10
282.791
 20
114.876
 30
0.0
 11
282.777
 21
115.251
 31
0.0
  0
LINE
  5
88F
100
AcDbEntity
  8
1
  6
CONTINUOUS
100
AcDbLine
 10
282.878
 20
114.351
 30
0.0
 11
282.884
 21
114.427
 31
0.0
  0
LINE
  5
890
100
AcDbEntity
  8
1
  6
CONTINUOUS
100
AcDbLine
 10
282.884
 20
114.427
 30
0.0
 11
282.884
 21
114.481
 31
0.0
  0
LINE
  5
891
100
AcDbEntity
  8
1
  6
CONTINUOUS
100
AcDbLine
 10
282.884
 20
114.481
 30
0.0
 11
282.878
 21
114.501
 31
0.0
  0
LINE
  5
892
100
AcDbEntity
  8
1
  6
CONTINUOUS
100
AcDbLine
 10
259.27
 20
217.254
 30
0.0
 11
259.159
 21
217.244
 31
0.0
  0
LINE
  5
893
100
AcDbEntity
  8
1
  6
CONTINUOUS
100
AcDbLine
 10
259.159
 20
217.244
 30
0.0
 11
259.042
 21
217.23
 31
0.0
  0
LINE
  5
894
100
AcDbEntity
  8
1
  6
CONTINUOUS
100
AcDbLine
 10
259.042
 20
217.23
 30
0.0
 11
258.92
 21
217.213
 31
0.0
  0
LINE
  5
895
100
AcDbEntity
  8
1
  6
CONTINUOUS
100
AcDbLine
 10
180.838
 20
208.878
 30
0.0
 11
181.67
 21
208.951
 31
0.0
  0
LINE
  5
896
100
AcDbEntity
  8
1
  6
CONTINUOUS
100
AcDbLine
 10
281.67
 20
215.876
 30
0.0
 11
181.67
 21
215.876
 31
0.0
  0
LINE
  5
897
100
AcDbEntity
  8
1
  6
CONTINUOUS
100
AcDbLine
 10
203.37
 20
216.276
 30
0.0
 11
215.97
 21
216.276
 31
0.0
  0
LINE
  5
898
100
AcDbEntity
  8
1
  6
CONTINUOUS
100
AcDbLine
 10
227.92
 20
216.326
 30
0.0
 11
261.245
 21
216.326
 31
0.0
  0
LINE
  5
899
100
AcDbEntity
  8
1
  6
CONTINUOUS
100
AcDbLine
 10
231.92
 20
216.376
 30
0.0
 11
256.92
 21
216.376
 31
0.0
  0
LINE
  5
89A
100
AcDbEntity
  8
1
  6
CONTINUOUS
100
AcDbLine
 10
258.157
 20
217.042
 30
0.0
 11
261.182
 21
217.042
 31
0.0
  0
LINE
  5
89B
100
AcDbEntity
  8
1
  6
CONTINUOUS
100
AcDbLine
 10
259.399
 20
217.258
 30
0.0
 11
259.346
 21
217.258
 31
0.0
  0
LINE
  5
89C
100
AcDbEntity
  8
1
  6
CONTINUOUS
100
AcDbLine
 10
259.346
 20
217.258
 30
0.0
 11
259.27
 21
217.254
 31
0.0
  0
LINE
  5
89D
100
AcDbEntity
  8
1
  6
CONTINUOUS
100
AcDbLine
 10
190.32
 20
217.326
 30
0.0
 11
197.07
 21
217.326
 31
0.0
  0
LINE
  5
89E
100
AcDbEntity
  8
1
  6
CONTINUOUS
100
AcDbLine
 10
190.82
 20
217.826
 30
0.0
 11
196.57
 21
217.826
 31
0.0
  0
LINE
  5
89F
100
AcDbEntity
  8
1
  6
CONTINUOUS
100
AcDbLine
 10
259.92
 20
217.213
 30
0.0
 11
259.67
 21
217.22
 31
0.0
  0
LINE
  5
8A0
100
AcDbEntity
  8
1
  6
CONTINUOUS
100
AcDbLine
 10
259.67
 20
217.22
 30
0.0
 11
259.42
 21
217.213
 31
0.0
  0
LINE
  5
8A1
100
AcDbEntity
  8
1
  6
CONTINUOUS
100
AcDbLine
 10
282.501
 20
208.878
 30
0.0
 11
281.67
 21
208.951
 31
0.0
  0
LINE
  5
8A2
100
AcDbEntity
  8
1
  6
CONTINUOUS
100
AcDbLine
 10
282.878
 20
207.401
 30
0.0
 11
282.854
 21
207.589
 31
0.0
  0
LINE
  5
8A3
100
AcDbEntity
  8
1
  6
CONTINUOUS
100
AcDbLine
 10
282.854
 20
207.589
 30
0.0
 11
282.821
 21
207.789
 31
0.0
  0
LINE
  5
8A4
100
AcDbEntity
  8
1
  6
CONTINUOUS
100
AcDbLine
 10
282.821
 20
207.789
 30
0.0
 11
282.777
 21
208.001
 31
0.0
  0
LINE
  5
8A5
100
AcDbEntity
  8
1
  6
CONTINUOUS
100
AcDbLine
 10
282.777
 20
113.751
 30
0.0
 11
282.821
 21
113.964
 31
0.0
  0
LINE
  5
8A6
100
AcDbEntity
  8
1
  6
CONTINUOUS
100
AcDbLine
 10
282.821
 20
113.964
 30
0.0
 11
282.854
 21
114.164
 31
0.0
  0
LINE
  5
8A7
100
AcDbEntity
  8
1
  6
CONTINUOUS
100
AcDbLine
 10
282.854
 20
114.164
 30
0.0
 11
282.878
 21
114.351
 31
0.0
  0
LINE
  5
8A8
100
AcDbEntity
  8
1
  6
CONTINUOUS
100
AcDbLine
 10
282.878
 20
115.251
 30
0.0
 11
282.884
 21
115.272
 31
0.0
  0
LINE
  5
8A9
100
AcDbEntity
  8
1
  6
CONTINUOUS
100
AcDbLine
 10
282.884
 20
115.272
 30
0.0
 11
282.884
 21
115.326
 31
0.0
  0
LINE
  5
8AA
100
AcDbEntity
  8
1
  6
CONTINUOUS
100
AcDbLine
 10
282.884
 20
115.326
 30
0.0
 11
282.878
 21
115.401
 31
0.0
  0
LINE
  5
8AB
100
AcDbEntity
  8
1
  6
CONTINUOUS
100
AcDbLine
 10
223.584
 20
218.366
 30
0.0
 11
231.755
 21
218.366
 31
0.0
  0
LINE
  5
8AC
100
AcDbEntity
  8
1
  6
CONTINUOUS
100
AcDbLine
 10
244.584
 20
218.366
 30
0.0
 11
252.755
 21
218.366
 31
0.0
  0
LINE
  5
8AD
100
AcDbEntity
  8
1
  6
CONTINUOUS
100
AcDbLine
 10
220.172
 20
218.376
 30
0.0
 11
222.672
 21
218.376
 31
0.0
  0
LINE
  5
8AE
100
AcDbEntity
  8
1
  6
CONTINUOUS
100
AcDbLine
 10
232.667
 20
218.376
 30
0.0
 11
235.167
 21
218.376
 31
0.0
  0
LINE
  5
8AF
100
AcDbEntity
  8
1
  6
CONTINUOUS
100
AcDbLine
 10
241.172
 20
218.376
 30
0.0
 11
243.672
 21
218.376
 31
0.0
  0
LINE
  5
8B0
100
AcDbEntity
  8
1
  6
CONTINUOUS
100
AcDbLine
 10
253.667
 20
218.376
 30
0.0
 11
256.167
 21
218.376
 31
0.0
  0
LINE
  5
8B1
100
AcDbEntity
  8
1
  6
CONTINUOUS
100
AcDbLine
 10
260.07
 20
217.254
 30
0.0
 11
259.994
 21
217.258
 31
0.0
  0
LINE
  5
8B2
100
AcDbEntity
  8
1
  6
CONTINUOUS
100
AcDbLine
 10
259.994
 20
217.258
 30
0.0
 11
259.94
 21
217.258
 31
0.0
  0
LINE
  5
8B3
100
AcDbEntity
  8
1
  6
CONTINUOUS
100
AcDbLine
 10
259.94
 20
217.258
 30
0.0
 11
259.92
 21
217.254
 31
0.0
  0
LINE
  5
8B4
100
AcDbEntity
  8
1
  6
CONTINUOUS
100
AcDbLine
 10
260.42
 20
217.213
 30
0.0
 11
260.297
 21
217.23
 31
0.0
  0
LINE
  5
8B5
100
AcDbEntity
  8
1
  6
CONTINUOUS
100
AcDbLine
 10
260.297
 20
217.23
 30
0.0
 11
260.181
 21
217.244
 31
0.0
  0
LINE
  5
8B6
100
AcDbEntity
  8
1
  6
CONTINUOUS
100
AcDbLine
 10
260.181
 20
217.244
 30
0.0
 11
260.07
 21
217.254
 31
0.0
  0
LINE
  5
8B7
100
AcDbEntity
  8
1
  6
CONTINUOUS
100
AcDbLine
 10
259.42
 20
217.254
 30
0.0
 11
259.399
 21
217.258
 31
0.0
  0
LINE
  5
8B8
100
AcDbEntity
  8
1
  6
CONTINUOUS
100
AcDbLine
 10
260.42
 20
217.22
 30
0.0
 11
261.182
 21
217.042
 31
0.0
  0
LINE
  5
8B9
100
AcDbEntity
  8
1
  6
CONTINUOUS
100
AcDbLine
 10
124.477
 20
105.376
 30
0.0
 11
114.777
 21
105.376
 31
0.0
  0
LINE
  5
8BA
100
AcDbEntity
  8
1
  6
CONTINUOUS
100
AcDbLine
 10
124.877
 20
105.776
 30
0.0
 11
114.377
 21
105.776
 31
0.0
  0
LINE
  5
8BB
100
AcDbEntity
  8
1
  6
CONTINUOUS
100
AcDbLine
 10
131.627
 20
105.876
 30
0.0
 11
109.627
 21
105.876
 31
0.0
  0
LINE
  5
8BC
100
AcDbEntity
  8
1
  6
CONTINUOUS
100
AcDbLine
 10
122.077
 20
103.826
 30
0.0
 11
121.027
 21
104.229
 31
0.0
  0
LINE
  5
8BD
100
AcDbEntity
  8
1
  6
CONTINUOUS
100
AcDbLine
 10
124.463
 20
112.326
 30
0.0
 11
124.538
 21
112.326
 31
0.0
  0
LINE
  5
8BE
100
AcDbEntity
  8
1
  6
CONTINUOUS
100
AcDbLine
 10
124.407
 20
112.376
 30
0.0
 11
124.482
 21
112.376
 31
0.0
  0
LINE
  5
8BF
100
AcDbEntity
  8
1
  6
CONTINUOUS
100
AcDbLine
 10
126.252
 20
113.751
 30
0.0
 11
125.502
 21
113.751
 31
0.0
  0
LINE
  5
8C0
100
AcDbEntity
  8
1
  6
CONTINUOUS
100
AcDbLine
 10
115.752
 20
113.751
 30
0.0
 11
115.002
 21
113.751
 31
0.0
  0
LINE
  5
8C1
100
AcDbEntity
  8
1
  6
CONTINUOUS
100
AcDbLine
 10
127.002
 20
114.501
 30
0.0
 11
126.402
 21
114.501
 31
0.0
  0
LINE
  5
8C2
100
AcDbEntity
  8
1
  6
CONTINUOUS
100
AcDbLine
 10
125.352
 20
114.501
 30
0.0
 11
124.752
 21
114.501
 31
0.0
  0
LINE
  5
8C3
100
AcDbEntity
  8
1
  6
CONTINUOUS
100
AcDbLine
 10
116.502
 20
114.501
 30
0.0
 11
115.902
 21
114.501
 31
0.0
  0
LINE
  5
8C4
100
AcDbEntity
  8
1
  6
CONTINUOUS
100
AcDbLine
 10
114.852
 20
114.501
 30
0.0
 11
114.252
 21
114.501
 31
0.0
  0
LINE
  5
8C5
100
AcDbEntity
  8
1
  6
CONTINUOUS
100
AcDbLine
 10
114.252
 20
115.251
 30
0.0
 11
114.852
 21
115.251
 31
0.0
  0
LINE
  5
8C6
100
AcDbEntity
  8
1
  6
CONTINUOUS
100
AcDbLine
 10
115.902
 20
115.251
 30
0.0
 11
116.502
 21
115.251
 31
0.0
  0
LINE
  5
8C7
100
AcDbEntity
  8
1
  6
CONTINUOUS
100
AcDbLine
 10
124.752
 20
115.251
 30
0.0
 11
125.352
 21
115.251
 31
0.0
  0
LINE
  5
8C8
100
AcDbEntity
  8
1
  6
CONTINUOUS
100
AcDbLine
 10
126.402
 20
115.251
 30
0.0
 11
127.002
 21
115.251
 31
0.0
  0
LINE
  5
8C9
100
AcDbEntity
  8
1
  6
CONTINUOUS
100
AcDbLine
 10
115.002
 20
116.001
 30
0.0
 11
115.752
 21
116.001
 31
0.0
  0
LINE
  5
8CA
100
AcDbEntity
  8
1
  6
CONTINUOUS
100
AcDbLine
 10
125.502
 20
116.001
 30
0.0
 11
126.252
 21
116.001
 31
0.0
  0
LINE
  5
8CB
100
AcDbEntity
  8
1
  6
CONTINUOUS
100
AcDbLine
 10
104.627
 20
116.626
 30
0.0
 11
109.627
 21
116.126
 31
0.0
  0
LINE
  5
8CC
100
AcDbEntity
  8
1
  6
CONTINUOUS
100
AcDbLine
 10
109.627
 20
118.876
 30
0.0
 11
117.127
 21
118.876
 31
0.0
  0
LINE
  5
8CD
100
AcDbEntity
  8
1
  6
CONTINUOUS
100
AcDbLine
 10
109.627
 20
118.926
 30
0.0
 11
117.146
 21
118.926
 31
0.0
  0
LINE
  5
8CE
100
AcDbEntity
  8
1
  6
DASHDOT
100
AcDbLine
 10
111.627
 20
121.126
 30
0.0
 11
102.627
 21
121.126
 31
0.0
  0
LINE
  5
8CF
100
AcDbEntity
  8
1
  6
CONTINUOUS
100
AcDbLine
 10
114.777
 20
105.376
 30
0.0
 11
114.377
 21
105.776
 31
0.0
  0
LINE
  5
8D0
100
AcDbEntity
  8
1
  6
CONTINUOUS
100
AcDbLine
 10
116.722
 20
217.826
 30
0.0
 11
116.666
 21
217.761
 31
0.0
  0
LINE
  5
8D1
100
AcDbEntity
  8
1
  6
CONTINUOUS
100
AcDbLine
 10
116.666
 20
217.761
 30
0.0
 11
116.625
 21
217.579
 31
0.0
  0
LINE
  5
8D2
100
AcDbEntity
  8
1
  6
CONTINUOUS
100
AcDbLine
 10
116.625
 20
217.579
 30
0.0
 11
116.61
 21
217.326
 31
0.0
  0
LINE
  5
8D3
100
AcDbEntity
  8
1
  6
CONTINUOUS
100
AcDbLine
 10
104.627
 20
125.626
 30
0.0
 11
109.627
 21
126.126
 31
0.0
  0
LINE
  5
8D4
100
AcDbEntity
  8
1
  6
CONTINUOUS
100
AcDbLine
 10
117.127
 20
118.876
 30
0.0
 11
131.127
 21
106.376
 31
0.0
  0
LINE
  5
8D5
100
AcDbEntity
  8
1
  6
CONTINUOUS
100
AcDbLine
 10
131.16
 20
106.413
 30
0.0
 11
117.146
 21
118.926
 31
0.0
  0
LINE
  5
8D6
100
AcDbEntity
  8
1
  6
CONTINUOUS
100
AcDbLine
 10
115.877
 20
105.376
 30
0.0
 11
115.924
 21
105.276
 31
0.0
  0
LINE
  5
8D7
100
AcDbEntity
  8
1
  6
CONTINUOUS
100
AcDbLine
 10
104.627
 20
116.626
 30
0.0
 11
104.627
 21
125.626
 31
0.0
  0
LINE
  5
8D8
100
AcDbEntity
  8
1
  6
CONTINUOUS
100
AcDbLine
 10
104.627
 20
196.626
 30
0.0
 11
104.627
 21
205.626
 31
0.0
  0
LINE
  5
8D9
100
AcDbEntity
  8
1
  6
CONTINUOUS
100
AcDbLine
 10
109.577
 20
190.076
 30
0.0
 11
109.577
 21
196.126
 31
0.0
  0
LINE
  5
8DA
100
AcDbEntity
  8
1
  6
CONTINUOUS
100
AcDbLine
 10
109.627
 20
215.826
 30
0.0
 11
109.627
 21
105.876
 31
0.0
  0
LINE
  5
8DB
100
AcDbEntity
  8
1
  6
CONTINUOUS
100
AcDbLine
 10
114.252
 20
114.501
 30
0.0
 11
114.252
 21
115.251
 31
0.0
  0
LINE
  5
8DC
100
AcDbEntity
  8
1
  6
CONTINUOUS
100
AcDbLine
 10
114.252
 20
206.501
 30
0.0
 11
114.252
 21
207.251
 31
0.0
  0
LINE
  5
8DD
100
AcDbEntity
  8
1
  6
CONTINUOUS
100
AcDbLine
 10
114.377
 20
105.876
 30
0.0
 11
114.377
 21
105.776
 31
0.0
  0
LINE
  5
8DE
100
AcDbEntity
  8
1
  6
CONTINUOUS
100
AcDbLine
 10
114.427
 20
215.876
 30
0.0
 11
114.427
 21
217.326
 31
0.0
  0
LINE
  5
8DF
100
AcDbEntity
  8
1
  6
CONTINUOUS
100
AcDbLine
 10
115.002
 20
113.751
 30
0.0
 11
115.002
 21
114.351
 31
0.0
  0
LINE
  5
8E0
100
AcDbEntity
  8
1
  6
CONTINUOUS
100
AcDbLine
 10
115.002
 20
115.401
 30
0.0
 11
115.002
 21
116.001
 31
0.0
  0
LINE
  5
8E1
100
AcDbEntity
  8
1
  6
CONTINUOUS
100
AcDbLine
 10
115.002
 20
205.751
 30
0.0
 11
115.002
 21
206.351
 31
0.0
  0
LINE
  5
8E2
100
AcDbEntity
  8
1
  6
CONTINUOUS
100
AcDbLine
 10
115.002
 20
207.401
 30
0.0
 11
115.002
 21
208.001
 31
0.0
  0
LINE
  5
8E3
100
AcDbEntity
  8
1
  6
CONTINUOUS
100
AcDbLine
 10
115.752
 20
208.001
 30
0.0
 11
115.752
 21
207.401
 31
0.0
  0
LINE
  5
8E4
100
AcDbEntity
  8
1
  6
CONTINUOUS
100
AcDbLine
 10
115.752
 20
206.351
 30
0.0
 11
115.752
 21
205.751
 31
0.0
  0
LINE
  5
8E5
100
AcDbEntity
  8
1
  6
CONTINUOUS
100
AcDbLine
 10
115.752
 20
116.001
 30
0.0
 11
115.752
 21
115.401
 31
0.0
  0
LINE
  5
8E6
100
AcDbEntity
  8
1
  6
CONTINUOUS
100
AcDbLine
 10
115.752
 20
114.351
 30
0.0
 11
115.752
 21
113.751
 31
0.0
  0
LINE
  5
8E7
100
AcDbEntity
  8
1
  6
CONTINUOUS
100
AcDbLine
 10
116.502
 20
207.251
 30
0.0
 11
116.502
 21
206.501
 31
0.0
  0
LINE
  5
8E8
100
AcDbEntity
  8
1
  6
CONTINUOUS
100
AcDbLine
 10
116.502
 20
115.251
 30
0.0
 11
116.502
 21
114.501
 31
0.0
  0
LINE
  5
8E9
100
AcDbEntity
  8
1
  6
CONTINUOUS
100
AcDbLine
 10
116.61
 20
215.876
 30
0.0
 11
116.61
 21
217.326
 31
0.0
  0
LINE
  5
8EA
100
AcDbEntity
  8
1
  6
CONTINUOUS
100
AcDbLine
 10
119.643
 20
215.876
 30
0.0
 11
119.643
 21
217.326
 31
0.0
  0
LINE
  5
8EB
100
AcDbEntity
  8
1
  6
CONTINUOUS
100
AcDbLine
 10
121.027
 20
104.27
 30
0.0
 11
121.027
 21
104.229
 31
0.0
  0
LINE
  5
8EC
100
AcDbEntity
  8
1
  6
CONTINUOUS
100
AcDbLine
 10
121.827
 20
215.876
 30
0.0
 11
121.827
 21
217.326
 31
0.0
  0
LINE
  5
8ED
100
AcDbEntity
  8
1
  6
CONTINUOUS
100
AcDbLine
 10
122.077
 20
103.873
 30
0.0
 11
122.077
 21
103.826
 31
0.0
  0
LINE
  5
8EE
100
AcDbEntity
  8
1
  6
CONTINUOUS
100
AcDbLine
 10
122.427
 20
215.876
 30
0.0
 11
122.427
 21
216.326
 31
0.0
  0
LINE
  5
8EF
100
AcDbEntity
  8
1
  6
CONTINUOUS
100
AcDbLine
 10
125.114
 20
217.042
 30
0.0
 11
125.056
 21
216.376
 31
0.0
  0
LINE
  5
8F0
100
AcDbEntity
  8
1
  6
CONTINUOUS
100
AcDbLine
 10
123.027
 20
215.876
 30
0.0
 11
123.027
 21
216.326
 31
0.0
  0
LINE
  5
8F1
100
AcDbEntity
  8
1
  6
CONTINUOUS
100
AcDbLine
 10
123.377
 20
113.363
 30
0.0
 11
123.377
 21
113.296
 31
0.0
  0
LINE
  5
8F2
100
AcDbEntity
  8
1
  6
CONTINUOUS
100
AcDbLine
 10
123.677
 20
216.376
 30
0.0
 11
123.677
 21
216.326
 31
0.0
  0
LINE
  5
8F3
100
AcDbEntity
  8
1
  6
CONTINUOUS
100
AcDbLine
 10
124.752
 20
114.501
 30
0.0
 11
124.752
 21
115.251
 31
0.0
  0
LINE
  5
8F4
100
AcDbEntity
  8
1
  6
CONTINUOUS
100
AcDbLine
 10
124.752
 20
206.501
 30
0.0
 11
124.752
 21
207.251
 31
0.0
  0
LINE
  5
8F5
100
AcDbEntity
  8
1
  6
CONTINUOUS
100
AcDbLine
 10
124.877
 20
105.876
 30
0.0
 11
124.877
 21
105.776
 31
0.0
  0
LINE
  5
8F6
100
AcDbEntity
  8
1
  6
CONTINUOUS
100
AcDbLine
 10
125.502
 20
113.751
 30
0.0
 11
125.502
 21
114.351
 31
0.0
  0
LINE
  5
8F7
100
AcDbEntity
  8
1
  6
CONTINUOUS
100
AcDbLine
 10
125.502
 20
115.401
 30
0.0
 11
125.502
 21
116.001
 31
0.0
  0
LINE
  5
8F8
100
AcDbEntity
  8
1
  6
CONTINUOUS
100
AcDbLine
 10
125.502
 20
205.751
 30
0.0
 11
125.502
 21
206.351
 31
0.0
  0
LINE
  5
8F9
100
AcDbEntity
  8
1
  6
CONTINUOUS
100
AcDbLine
 10
125.502
 20
207.401
 30
0.0
 11
125.502
 21
208.001
 31
0.0
  0
LINE
  5
8FA
100
AcDbEntity
  8
1
  6
CONTINUOUS
100
AcDbLine
 10
125.877
 20
217.213
 30
0.0
 11
125.877
 21
217.22
 31
0.0
  0
LINE
  5
8FB
100
AcDbEntity
  8
1
  6
CONTINUOUS
100
AcDbLine
 10
126.252
 20
208.001
 30
0.0
 11
126.252
 21
207.401
 31
0.0
  0
LINE
  5
8FC
100
AcDbEntity
  8
1
  6
CONTINUOUS
100
AcDbLine
 10
126.252
 20
206.351
 30
0.0
 11
126.252
 21
205.751
 31
0.0
  0
LINE
  5
8FD
100
AcDbEntity
  8
1
  6
CONTINUOUS
100
AcDbLine
 10
126.252
 20
116.001
 30
0.0
 11
126.252
 21
115.401
 31
0.0
  0
LINE
  5
8FE
100
AcDbEntity
  8
1
  6
CONTINUOUS
100
AcDbLine
 10
126.252
 20
114.351
 30
0.0
 11
126.252
 21
113.751
 31
0.0
  0
LINE
  5
8FF
100
AcDbEntity
  8
1
  6
CONTINUOUS
100
AcDbLine
 10
126.377
 20
217.213
 30
0.0
 11
126.377
 21
217.254
 31
0.0
  0
LINE
  5
900
100
AcDbEntity
  8
1
  6
CONTINUOUS
100
AcDbLine
 10
126.877
 20
217.254
 30
0.0
 11
126.877
 21
217.213
 31
0.0
  0
LINE
  5
901
100
AcDbEntity
  8
1
  6
CONTINUOUS
100
AcDbLine
 10
127.002
 20
207.251
 30
0.0
 11
127.002
 21
206.501
 31
0.0
  0
LINE
  5
902
100
AcDbEntity
  8
1
  6
CONTINUOUS
100
AcDbLine
 10
127.002
 20
115.251
 30
0.0
 11
127.002
 21
114.501
 31
0.0
  0
LINE
  5
903
100
AcDbEntity
  8
1
  6
CONTINUOUS
100
AcDbLine
 10
127.377
 20
217.22
 30
0.0
 11
127.377
 21
217.213
 31
0.0
  0
LINE
  5
904
100
AcDbEntity
  8
1
  6
CONTINUOUS
100
AcDbLine
 10
129.677
 20
216.376
 30
0.0
 11
129.677
 21
216.326
 31
0.0
  0
LINE
  5
905
100
AcDbEntity
  8
1
  6
CONTINUOUS
100
AcDbLine
 10
130.227
 20
215.876
 30
0.0
 11
130.227
 21
216.326
 31
0.0
  0
LINE
  5
906
100
AcDbEntity
  8
1
  6
CONTINUOUS
100
AcDbLine
 10
128.139
 20
217.042
 30
0.0
 11
128.197
 21
216.376
 31
0.0
  0
LINE
  5
907
100
AcDbEntity
  8
1
  6
CONTINUOUS
100
AcDbLine
 10
130.827
 20
215.876
 30
0.0
 11
130.827
 21
216.326
 31
0.0
  0
LINE
  5
908
100
AcDbEntity
  8
1
  6
CONTINUOUS
100
AcDbLine
 10
130.877
 20
106.599
 30
0.0
 11
130.877
 21
106.666
 31
0.0
  0
LINE
  5
909
100
AcDbEntity
  8
1
  6
CONTINUOUS
100
AcDbLine
 10
131.627
 20
215.876
 30
0.0
 11
131.627
 21
105.876
 31
0.0
  0
LINE
  5
90A
100
AcDbEntity
  8
1
  6
CONTINUOUS
100
AcDbLine
 10
109.577
 20
190.076
 30
0.0
 11
109.627
 21
190.076
 31
0.0
  0
LINE
  5
90B
100
AcDbEntity
  8
1
  6
CONTINUOUS
100
AcDbLine
 10
109.577
 20
190.576
 30
0.0
 11
109.627
 21
190.576
 31
0.0
  0
LINE
  5
90C
100
AcDbEntity
  8
1
  6
CONTINUOUS
100
AcDbLine
 10
122.424
 20
103.726
 30
0.0
 11
123.377
 21
105.376
 31
0.0
  0
LINE
  5
90D
100
AcDbEntity
  8
1
  6
CONTINUOUS
100
AcDbLine
 10
104.627
 20
196.626
 30
0.0
 11
109.627
 21
196.126
 31
0.0
  0
LINE
  5
90E
100
AcDbEntity
  8
1
  6
CONTINUOUS
100
AcDbLine
 10
119.532
 20
217.826
 30
0.0
 11
119.588
 21
217.761
 31
0.0
  0
LINE
  5
90F
100
AcDbEntity
  8
1
  6
CONTINUOUS
100
AcDbLine
 10
119.588
 20
217.761
 30
0.0
 11
119.628
 21
217.579
 31
0.0
  0
LINE
  5
910
100
AcDbEntity
  8
1
  6
CONTINUOUS
100
AcDbLine
 10
119.628
 20
217.579
 30
0.0
 11
119.643
 21
217.326
 31
0.0
  0
LINE
  5
911
100
AcDbEntity
  8
1
  6
DASHDOT
100
AcDbLine
 10
111.627
 20
201.126
 30
0.0
 11
102.627
 21
201.126
 31
0.0
  0
LINE
  5
912
100
AcDbEntity
  8
1
  6
CONTINUOUS
100
AcDbLine
 10
131.127
 20
106.376
 30
0.0
 11
131.16
 21
106.413
 31
0.0
  0
LINE
  5
913
100
AcDbEntity
  8
1
  6
CONTINUOUS
100
AcDbLine
 10
124.477
 20
105.376
 30
0.0
 11
124.877
 21
105.776
 31
0.0
  0
LINE
  5
914
100
AcDbEntity
  8
1
  6
CONTINUOUS
100
AcDbLine
 10
104.627
 20
205.626
 30
0.0
 11
109.627
 21
206.126
 31
0.0
  0
LINE
  5
915
100
AcDbEntity
  8
1
  6
CONTINUOUS
100
AcDbLine
 10
126.252
 20
205.751
 30
0.0
 11
125.502
 21
205.751
 31
0.0
  0
LINE
  5
916
100
AcDbEntity
  8
1
  6
CONTINUOUS
100
AcDbLine
 10
115.752
 20
205.751
 30
0.0
 11
115.002
 21
205.751
 31
0.0
  0
LINE
  5
917
100
AcDbEntity
  8
1
  6
CONTINUOUS
100
AcDbLine
 10
127.002
 20
206.501
 30
0.0
 11
126.402
 21
206.501
 31
0.0
  0
LINE
  5
918
100
AcDbEntity
  8
1
  6
CONTINUOUS
100
AcDbLine
 10
125.352
 20
206.501
 30
0.0
 11
124.752
 21
206.501
 31
0.0
  0
LINE
  5
919
100
AcDbEntity
  8
1
  6
CONTINUOUS
100
AcDbLine
 10
116.502
 20
206.501
 30
0.0
 11
115.902
 21
206.501
 31
0.0
  0
LINE
  5
91A
100
AcDbEntity
  8
1
  6
CONTINUOUS
100
AcDbLine
 10
114.852
 20
206.501
 30
0.0
 11
114.252
 21
206.501
 31
0.0
  0
LINE
  5
91B
100
AcDbEntity
  8
1
  6
CONTINUOUS
100
AcDbLine
 10
114.252
 20
207.251
 30
0.0
 11
114.852
 21
207.251
 31
0.0
  0
LINE
  5
91C
100
AcDbEntity
  8
1
  6
CONTINUOUS
100
AcDbLine
 10
115.902
 20
207.251
 30
0.0
 11
116.502
 21
207.251
 31
0.0
  0
LINE
  5
91D
100
AcDbEntity
  8
1
  6
CONTINUOUS
100
AcDbLine
 10
124.752
 20
207.251
 30
0.0
 11
125.352
 21
207.251
 31
0.0
  0
LINE
  5
91E
100
AcDbEntity
  8
1
  6
CONTINUOUS
100
AcDbLine
 10
126.402
 20
207.251
 30
0.0
 11
127.002
 21
207.251
 31
0.0
  0
LINE
  5
91F
100
AcDbEntity
  8
1
  6
CONTINUOUS
100
AcDbLine
 10
115.002
 20
208.001
 30
0.0
 11
115.752
 21
208.001
 31
0.0
  0
LINE
  5
920
100
AcDbEntity
  8
1
  6
CONTINUOUS
100
AcDbLine
 10
125.502
 20
208.001
 30
0.0
 11
126.252
 21
208.001
 31
0.0
  0
LINE
  5
921
100
AcDbEntity
  8
1
  6
CONTINUOUS
100
AcDbLine
 10
125.877
 20
217.22
 30
0.0
 11
125.114
 21
217.042
 31
0.0
  0
LINE
  5
922
100
AcDbEntity
  8
1
  6
CONTINUOUS
100
AcDbLine
 10
126.227
 20
217.254
 30
0.0
 11
126.052
 21
217.237
 31
0.0
  0
LINE
  5
923
100
AcDbEntity
  8
1
  6
CONTINUOUS
100
AcDbLine
 10
126.052
 20
217.237
 30
0.0
 11
125.877
 21
217.213
 31
0.0
  0
LINE
  5
924
100
AcDbEntity
  8
1
  6
CONTINUOUS
100
AcDbLine
 10
126.627
 20
217.22
 30
0.0
 11
126.502
 21
217.218
 31
0.0
  0
LINE
  5
925
100
AcDbEntity
  8
1
  6
CONTINUOUS
100
AcDbLine
 10
126.502
 20
217.218
 30
0.0
 11
126.377
 21
217.213
 31
0.0
  0
LINE
  5
926
100
AcDbEntity
  8
1
  6
CONTINUOUS
100
AcDbLine
 10
109.627
 20
215.826
 30
0.0
 11
109.918
 21
215.826
 31
0.0
  0
LINE
  5
927
100
AcDbEntity
  8
1
  6
CONTINUOUS
100
AcDbLine
 10
131.627
 20
215.876
 30
0.0
 11
110.127
 21
215.876
 31
0.0
  0
LINE
  5
928
100
AcDbEntity
  8
1
  6
CONTINUOUS
100
AcDbLine
 10
122.427
 20
216.326
 30
0.0
 11
130.827
 21
216.326
 31
0.0
  0
LINE
  5
929
100
AcDbEntity
  8
1
  6
CONTINUOUS
100
AcDbLine
 10
123.677
 20
216.376
 30
0.0
 11
129.677
 21
216.376
 31
0.0
  0
LINE
  5
92A
100
AcDbEntity
  8
1
  6
CONTINUOUS
100
AcDbLine
 10
125.114
 20
217.042
 30
0.0
 11
128.139
 21
217.042
 31
0.0
  0
LINE
  5
92B
100
AcDbEntity
  8
1
  6
CONTINUOUS
100
AcDbLine
 10
126.356
 20
217.258
 30
0.0
 11
126.303
 21
217.258
 31
0.0
  0
LINE
  5
92C
100
AcDbEntity
  8
1
  6
CONTINUOUS
100
AcDbLine
 10
126.303
 20
217.258
 30
0.0
 11
126.227
 21
217.254
 31
0.0
  0
LINE
  5
92D
100
AcDbEntity
  8
1
  6
CONTINUOUS
100
AcDbLine
 10
114.427
 20
217.326
 30
0.0
 11
121.827
 21
217.326
 31
0.0
  0
LINE
  5
92E
100
AcDbEntity
  8
1
  6
CONTINUOUS
100
AcDbLine
 10
114.927
 20
217.826
 30
0.0
 11
121.327
 21
217.826
 31
0.0
  0
LINE
  5
92F
100
AcDbEntity
  8
1
  6
CONTINUOUS
100
AcDbLine
 10
126.877
 20
217.213
 30
0.0
 11
126.751
 21
217.218
 31
0.0
  0
LINE
  5
930
100
AcDbEntity
  8
1
  6
CONTINUOUS
100
AcDbLine
 10
126.751
 20
217.218
 30
0.0
 11
126.627
 21
217.22
 31
0.0
  0
LINE
  5
931
100
AcDbEntity
  8
1
  6
CONTINUOUS
100
AcDbLine
 10
127.027
 20
217.254
 30
0.0
 11
126.951
 21
217.258
 31
0.0
  0
LINE
  5
932
100
AcDbEntity
  8
1
  6
CONTINUOUS
100
AcDbLine
 10
126.951
 20
217.258
 30
0.0
 11
126.897
 21
217.258
 31
0.0
  0
LINE
  5
933
100
AcDbEntity
  8
1
  6
CONTINUOUS
100
AcDbLine
 10
126.897
 20
217.258
 30
0.0
 11
126.877
 21
217.254
 31
0.0
  0
LINE
  5
934
100
AcDbEntity
  8
1
  6
CONTINUOUS
100
AcDbLine
 10
127.377
 20
217.213
 30
0.0
 11
127.201
 21
217.237
 31
0.0
  0
LINE
  5
935
100
AcDbEntity
  8
1
  6
CONTINUOUS
100
AcDbLine
 10
127.201
 20
217.237
 30
0.0
 11
127.027
 21
217.254
 31
0.0
  0
LINE
  5
936
100
AcDbEntity
  8
1
  6
CONTINUOUS
100
AcDbLine
 10
126.377
 20
217.254
 30
0.0
 11
126.356
 21
217.258
 31
0.0
  0
LINE
  5
937
100
AcDbEntity
  8
1
  6
CONTINUOUS
100
AcDbLine
 10
127.377
 20
217.22
 30
0.0
 11
128.139
 21
217.042
 31
0.0
  0
LINE
  5
938
100
AcDbEntity
  8
1
  6
CONTINUOUS
100
AcDbLine
 10
180.548
 20
239.157
 30
0.0
 11
180.551
 21
238.969
 31
0.0
  0
LINE
  5
939
100
AcDbEntity
  8
1
  6
CONTINUOUS
100
AcDbLine
 10
180.551
 20
238.969
 30
0.0
 11
180.562
 21
238.782
 31
0.0
  0
LINE
  5
93A
100
AcDbEntity
  8
1
  6
CONTINUOUS
100
AcDbLine
 10
180.548
 20
249.657
 30
0.0
 11
180.551
 21
249.469
 31
0.0
  0
LINE
  5
93B
100
AcDbEntity
  8
1
  6
CONTINUOUS
100
AcDbLine
 10
180.551
 20
249.469
 30
0.0
 11
180.562
 21
249.282
 31
0.0
  0
LINE
  5
93C
100
AcDbEntity
  8
1
  6
CONTINUOUS
100
AcDbLine
 10
180.838
 20
237.154
 30
0.0
 11
180.838
 21
241.159
 31
0.0
  0
LINE
  5
93D
100
AcDbEntity
  8
1
  6
CONTINUOUS
100
AcDbLine
 10
180.838
 20
247.654
 30
0.0
 11
180.838
 21
251.659
 31
0.0
  0
LINE
  5
93E
100
AcDbEntity
  8
1
  6
CONTINUOUS
100
AcDbLine
 10
181.67
 20
233.407
 30
0.0
 11
181.67
 21
255.407
 31
0.0
  0
LINE
  5
93F
100
AcDbEntity
  8
1
  6
CONTINUOUS
100
AcDbLine
 10
182.17
 20
255.407
 30
0.0
 11
182.17
 21
233.907
 31
0.0
  0
LINE
  5
940
100
AcDbEntity
  8
1
  6
CONTINUOUS
100
AcDbLine
 10
182.195
 20
234.157
 30
0.0
 11
182.195
 21
255.407
 31
0.0
  0
LINE
  5
941
100
AcDbEntity
  8
1
  6
CONTINUOUS
100
AcDbLine
 10
182.695
 20
255.407
 30
0.0
 11
182.695
 21
254.907
 31
0.0
  0
LINE
  5
942
100
AcDbEntity
  8
1
  6
CONTINUOUS
100
AcDbLine
 10
182.695
 20
234.157
 30
0.0
 11
182.695
 21
234.657
 31
0.0
  0
LINE
  5
943
100
AcDbEntity
  8
1
  6
CONTINUOUS
100
AcDbLine
 10
180.562
 20
250.032
 30
0.0
 11
180.551
 21
249.843
 31
0.0
  0
LINE
  5
944
100
AcDbEntity
  8
1
  6
CONTINUOUS
100
AcDbLine
 10
180.551
 20
249.843
 30
0.0
 11
180.548
 21
249.657
 31
0.0
  0
LINE
  5
945
100
AcDbEntity
  8
1
  6
CONTINUOUS
100
AcDbLine
 10
180.562
 20
239.532
 30
0.0
 11
180.551
 21
239.343
 31
0.0
  0
LINE
  5
946
100
AcDbEntity
  8
1
  6
CONTINUOUS
100
AcDbLine
 10
180.551
 20
239.343
 30
0.0
 11
180.548
 21
239.157
 31
0.0
  0
LINE
  5
947
100
AcDbEntity
  8
1
  6
CONTINUOUS
100
AcDbLine
 10
180.461
 20
250.182
 30
0.0
 11
180.456
 21
250.106
 31
0.0
  0
LINE
  5
948
100
AcDbEntity
  8
1
  6
CONTINUOUS
100
AcDbLine
 10
180.456
 20
250.106
 30
0.0
 11
180.456
 21
250.052
 31
0.0
  0
LINE
  5
949
100
AcDbEntity
  8
1
  6
CONTINUOUS
100
AcDbLine
 10
180.456
 20
250.052
 30
0.0
 11
180.461
 21
250.032
 31
0.0
  0
LINE
  5
94A
100
AcDbEntity
  8
1
  6
CONTINUOUS
100
AcDbLine
 10
180.461
 20
239.682
 30
0.0
 11
180.456
 21
239.606
 31
0.0
  0
LINE
  5
94B
100
AcDbEntity
  8
1
  6
CONTINUOUS
100
AcDbLine
 10
180.456
 20
239.606
 30
0.0
 11
180.456
 21
239.552
 31
0.0
  0
LINE
  5
94C
100
AcDbEntity
  8
1
  6
CONTINUOUS
100
AcDbLine
 10
180.456
 20
239.552
 30
0.0
 11
180.461
 21
239.532
 31
0.0
  0
LINE
  5
94D
100
AcDbEntity
  8
1
  6
CONTINUOUS
100
AcDbLine
 10
180.562
 20
250.782
 30
0.0
 11
180.501
 21
250.473
 31
0.0
  0
LINE
  5
94E
100
AcDbEntity
  8
1
  6
CONTINUOUS
100
AcDbLine
 10
180.501
 20
250.473
 30
0.0
 11
180.461
 21
250.182
 31
0.0
  0
LINE
  5
94F
100
AcDbEntity
  8
1
  6
CONTINUOUS
100
AcDbLine
 10
180.461
 20
249.282
 30
0.0
 11
180.456
 21
249.261
 31
0.0
  0
LINE
  5
950
100
AcDbEntity
  8
1
  6
CONTINUOUS
100
AcDbLine
 10
180.456
 20
249.261
 30
0.0
 11
180.456
 21
249.207
 31
0.0
  0
LINE
  5
951
100
AcDbEntity
  8
1
  6
CONTINUOUS
100
AcDbLine
 10
180.456
 20
249.207
 30
0.0
 11
180.461
 21
249.132
 31
0.0
  0
LINE
  5
952
100
AcDbEntity
  8
1
  6
CONTINUOUS
100
AcDbLine
 10
180.461
 20
238.632
 30
0.0
 11
180.487
 21
238.433
 31
0.0
  0
LINE
  5
953
100
AcDbEntity
  8
1
  6
CONTINUOUS
100
AcDbLine
 10
180.487
 20
238.433
 30
0.0
 11
180.52
 21
238.234
 31
0.0
  0
LINE
  5
954
100
AcDbEntity
  8
1
  6
CONTINUOUS
100
AcDbLine
 10
180.52
 20
238.234
 30
0.0
 11
180.562
 21
238.032
 31
0.0
  0
LINE
  5
955
100
AcDbEntity
  8
1
  6
CONTINUOUS
100
AcDbLine
 10
180.461
 20
249.132
 30
0.0
 11
180.487
 21
248.933
 31
0.0
  0
LINE
  5
956
100
AcDbEntity
  8
1
  6
CONTINUOUS
100
AcDbLine
 10
180.487
 20
248.933
 30
0.0
 11
180.52
 21
248.734
 31
0.0
  0
LINE
  5
957
100
AcDbEntity
  8
1
  6
CONTINUOUS
100
AcDbLine
 10
180.52
 20
248.734
 30
0.0
 11
180.562
 21
248.532
 31
0.0
  0
LINE
  5
958
100
AcDbEntity
  8
1
  6
CONTINUOUS
100
AcDbLine
 10
180.562
 20
240.282
 30
0.0
 11
180.501
 21
239.973
 31
0.0
  0
LINE
  5
959
100
AcDbEntity
  8
1
  6
CONTINUOUS
100
AcDbLine
 10
180.501
 20
239.973
 30
0.0
 11
180.461
 21
239.682
 31
0.0
  0
LINE
  5
95A
100
AcDbEntity
  8
1
  6
CONTINUOUS
100
AcDbLine
 10
180.461
 20
238.782
 30
0.0
 11
180.456
 21
238.761
 31
0.0
  0
LINE
  5
95B
100
AcDbEntity
  8
1
  6
CONTINUOUS
100
AcDbLine
 10
180.456
 20
238.761
 30
0.0
 11
180.456
 21
238.707
 31
0.0
  0
LINE
  5
95C
100
AcDbEntity
  8
1
  6
CONTINUOUS
100
AcDbLine
 10
180.456
 20
238.707
 30
0.0
 11
180.461
 21
238.632
 31
0.0
  0
LINE
  5
95D
100
AcDbEntity
  8
1
  6
CONTINUOUS
100
AcDbLine
 10
190.32
 20
248.423
 30
0.0
 11
190.32
 21
245.39
 31
0.0
  0
LINE
  5
95E
100
AcDbEntity
  8
1
  6
CONTINUOUS
100
AcDbLine
 10
190.82
 20
248.312
 30
0.0
 11
190.82
 21
245.501
 31
0.0
  0
LINE
  5
95F
100
AcDbEntity
  8
1
  6
CONTINUOUS
100
AcDbLine
 10
191.795
 20
240.3
 30
0.0
 11
191.795
 21
240.013
 31
0.0
  0
LINE
  5
960
100
AcDbEntity
  8
1
  6
CONTINUOUS
100
AcDbLine
 10
191.92
 20
240.268
 30
0.0
 11
191.92
 21
240.045
 31
0.0
  0
LINE
  5
961
100
AcDbEntity
  8
1
  6
CONTINUOUS
100
AcDbLine
 10
192.57
 20
240.045
 30
0.0
 11
192.57
 21
240.268
 31
0.0
  0
LINE
  5
962
100
AcDbEntity
  8
1
  6
CONTINUOUS
100
AcDbLine
 10
192.695
 20
240.013
 30
0.0
 11
192.695
 21
240.3
 31
0.0
  0
LINE
  5
963
100
AcDbEntity
  8
1
  6
CONTINUOUS
100
AcDbLine
 10
192.895
 20
240.3
 30
0.0
 11
192.895
 21
240.013
 31
0.0
  0
LINE
  5
964
100
AcDbEntity
  8
1
  6
CONTINUOUS
100
AcDbLine
 10
193.02
 20
240.268
 30
0.0
 11
193.02
 21
240.045
 31
0.0
  0
LINE
  5
965
100
AcDbEntity
  8
1
  6
CONTINUOUS
100
AcDbLine
 10
192.195
 20
260.407
 30
0.0
 11
191.695
 21
255.407
 31
0.0
  0
LINE
  5
966
100
AcDbEntity
  8
1
  6
CONTINUOUS
100
AcDbLine
 10
191.945
 20
240.46
 30
0.0
 11
191.92
 21
240.268
 31
0.0
  0
LINE
  5
967
100
AcDbEntity
  8
1
  6
CONTINUOUS
100
AcDbLine
 10
191.82
 20
240.46
 30
0.0
 11
191.795
 21
240.3
 31
0.0
  0
LINE
  5
968
100
AcDbEntity
  8
1
  6
CONTINUOUS
100
AcDbLine
 10
191.945
 20
239.853
 30
0.0
 11
192.045
 21
239.662
 31
0.0
  0
LINE
  5
969
100
AcDbEntity
  8
1
  6
CONTINUOUS
100
AcDbLine
 10
191.845
 20
239.758
 30
0.0
 11
191.895
 21
239.63
 31
0.0
  0
LINE
  5
96A
100
AcDbEntity
  8
1
  6
CONTINUOUS
100
AcDbLine
 10
192.945
 20
239.758
 30
0.0
 11
192.995
 21
239.63
 31
0.0
  0
LINE
  5
96B
100
AcDbEntity
  8
1
  6
CONTINUOUS
100
AcDbLine
 10
192.645
 20
240.555
 30
0.0
 11
192.595
 21
240.683
 31
0.0
  0
LINE
  5
96C
100
AcDbEntity
  8
1
  6
CONTINUOUS
100
AcDbLine
 10
191.445
 20
239.407
 30
0.0
 11
191.095
 21
240.715
 31
0.0
  0
LINE
  5
96D
100
AcDbEntity
  8
1
  6
CONTINUOUS
100
AcDbLine
 10
191.195
 20
240.907
 30
0.0
 11
191.595
 21
239.407
 31
0.0
  0
LINE
  5
96E
100
AcDbEntity
  8
1
  6
CONTINUOUS
100
AcDbLine
 10
191.82
 20
239.853
 30
0.0
 11
191.845
 21
239.758
 31
0.0
  0
LINE
  5
96F
100
AcDbEntity
  8
1
  6
CONTINUOUS
100
AcDbLine
 10
192.67
 20
240.46
 30
0.0
 11
192.645
 21
240.555
 31
0.0
  0
LINE
  5
970
100
AcDbEntity
  8
1
  6
CONTINUOUS
100
AcDbLine
 10
192.92
 20
239.853
 30
0.0
 11
192.945
 21
239.758
 31
0.0
  0
LINE
  5
971
100
AcDbEntity
  8
1
  6
CONTINUOUS
100
AcDbLine
 10
191.795
 20
240.013
 30
0.0
 11
191.82
 21
239.853
 31
0.0
  0
LINE
  5
972
100
AcDbEntity
  8
1
  6
CONTINUOUS
100
AcDbLine
 10
192.695
 20
240.3
 30
0.0
 11
192.67
 21
240.46
 31
0.0
  0
LINE
  5
973
100
AcDbEntity
  8
1
  6
CONTINUOUS
100
AcDbLine
 10
192.895
 20
240.013
 30
0.0
 11
192.92
 21
239.853
 31
0.0
  0
LINE
  5
974
100
AcDbEntity
  8
1
  6
CONTINUOUS
100
AcDbLine
 10
193.795
 20
240.3
 30
0.0
 11
193.77
 21
240.46
 31
0.0
  0
LINE
  5
975
100
AcDbEntity
  8
1
  6
CONTINUOUS
100
AcDbLine
 10
191.92
 20
240.045
 30
0.0
 11
191.945
 21
239.853
 31
0.0
  0
LINE
  5
976
100
AcDbEntity
  8
1
  6
CONTINUOUS
100
AcDbLine
 10
192.57
 20
240.268
 30
0.0
 11
192.545
 21
240.46
 31
0.0
  0
LINE
  5
977
100
AcDbEntity
  8
1
  6
CONTINUOUS
100
AcDbLine
 10
193.02
 20
240.045
 30
0.0
 11
193.045
 21
239.853
 31
0.0
  0
LINE
  5
978
100
AcDbEntity
  8
1
  6
CONTINUOUS
100
AcDbLine
 10
193.67
 20
240.268
 30
0.0
 11
193.645
 21
240.46
 31
0.0
  0
LINE
  5
979
100
AcDbEntity
  8
1
  6
CONTINUOUS
100
AcDbLine
 10
193.67
 20
240.045
 30
0.0
 11
193.67
 21
240.268
 31
0.0
  0
LINE
  5
97A
100
AcDbEntity
  8
1
  6
CONTINUOUS
100
AcDbLine
 10
193.795
 20
240.013
 30
0.0
 11
193.795
 21
240.3
 31
0.0
  0
LINE
  5
97B
100
AcDbEntity
  8
1
  6
CONTINUOUS
100
AcDbLine
 10
193.995
 20
239.407
 30
0.0
 11
193.995
 21
240.907
 31
0.0
  0
LINE
  5
97C
100
AcDbEntity
  8
1
  6
CONTINUOUS
100
AcDbLine
 10
194.145
 20
240.907
 30
0.0
 11
194.145
 21
239.662
 31
0.0
  0
LINE
  5
97D
100
AcDbEntity
  8
1
  6
CONTINUOUS
100
AcDbLine
 10
194.295
 20
239.885
 30
0.0
 11
194.295
 21
239.63
 31
0.0
  0
LINE
  5
97E
100
AcDbEntity
  8
1
  6
CONTINUOUS
100
AcDbLine
 10
195.32
 20
239.917
 30
0.0
 11
195.32
 21
240.396
 31
0.0
  0
LINE
  5
97F
100
AcDbEntity
  8
1
  6
CONTINUOUS
100
AcDbLine
 10
195.47
 20
240.396
 30
0.0
 11
195.47
 21
239.917
 31
0.0
  0
LINE
  5
980
100
AcDbEntity
  8
1
  6
CONTINUOUS
100
AcDbLine
 10
196.57
 20
245.501
 30
0.0
 11
196.57
 21
248.312
 31
0.0
  0
LINE
  5
981
100
AcDbEntity
  8
1
  6
CONTINUOUS
100
AcDbLine
 10
192.545
 20
239.853
 30
0.0
 11
192.57
 21
240.045
 31
0.0
  0
LINE
  5
982
100
AcDbEntity
  8
1
  6
CONTINUOUS
100
AcDbLine
 10
193.045
 20
240.46
 30
0.0
 11
193.02
 21
240.268
 31
0.0
  0
LINE
  5
983
100
AcDbEntity
  8
1
  6
CONTINUOUS
100
AcDbLine
 10
193.645
 20
239.853
 30
0.0
 11
193.67
 21
240.045
 31
0.0
  0
LINE
  5
984
100
AcDbEntity
  8
1
  6
CONTINUOUS
100
AcDbLine
 10
192.67
 20
239.853
 30
0.0
 11
192.695
 21
240.013
 31
0.0
  0
LINE
  5
985
100
AcDbEntity
  8
1
  6
CONTINUOUS
100
AcDbLine
 10
192.92
 20
240.46
 30
0.0
 11
192.895
 21
240.3
 31
0.0
  0
LINE
  5
986
100
AcDbEntity
  8
1
  6
CONTINUOUS
100
AcDbLine
 10
193.77
 20
239.853
 30
0.0
 11
193.795
 21
240.013
 31
0.0
  0
LINE
  5
987
100
AcDbEntity
  8
1
  6
CONTINUOUS
100
AcDbLine
 10
194.495
 20
240.524
 30
0.0
 11
194.52
 21
240.683
 31
0.0
  0
LINE
  5
988
100
AcDbEntity
  8
1
  6
CONTINUOUS
100
AcDbLine
 10
191.845
 20
240.555
 30
0.0
 11
191.82
 21
240.46
 31
0.0
  0
LINE
  5
989
100
AcDbEntity
  8
1
  6
CONTINUOUS
100
AcDbLine
 10
192.645
 20
239.758
 30
0.0
 11
192.67
 21
239.853
 31
0.0
  0
LINE
  5
98A
100
AcDbEntity
  8
1
  6
CONTINUOUS
100
AcDbLine
 10
192.945
 20
240.555
 30
0.0
 11
192.92
 21
240.46
 31
0.0
  0
LINE
  5
98B
100
AcDbEntity
  8
1
  6
CONTINUOUS
100
AcDbLine
 10
193.745
 20
239.758
 30
0.0
 11
193.77
 21
239.853
 31
0.0
  0
LINE
  5
98C
100
AcDbEntity
  8
1
  6
CONTINUOUS
100
AcDbLine
 10
190.595
 20
239.407
 30
0.0
 11
190.995
 21
240.907
 31
0.0
  0
LINE
  5
98D
100
AcDbEntity
  8
1
  6
CONTINUOUS
100
AcDbLine
 10
191.095
 20
240.715
 30
0.0
 11
190.745
 21
239.407
 31
0.0
  0
LINE
  5
98E
100
AcDbEntity
  8
1
  6
CONTINUOUS
100
AcDbLine
 10
191.895
 20
239.63
 30
0.0
 11
191.97
 21
239.534
 31
0.0
  0
LINE
  5
98F
100
AcDbEntity
  8
1
  6
CONTINUOUS
100
AcDbLine
 10
192.995
 20
239.63
 30
0.0
 11
193.07
 21
239.534
 31
0.0
  0
LINE
  5
990
100
AcDbEntity
  8
1
  6
CONTINUOUS
100
AcDbLine
 10
192.545
 20
240.46
 30
0.0
 11
192.445
 21
240.651
 31
0.0
  0
LINE
  5
991
100
AcDbEntity
  8
1
  6
CONTINUOUS
100
AcDbLine
 10
193.045
 20
239.853
 30
0.0
 11
193.145
 21
239.662
 31
0.0
  0
LINE
  5
992
100
AcDbEntity
  8
1
  6
CONTINUOUS
100
AcDbLine
 10
193.645
 20
240.46
 30
0.0
 11
193.545
 21
240.651
 31
0.0
  0
LINE
  5
993
100
AcDbEntity
  8
1
  6
CONTINUOUS
100
AcDbLine
 10
195.295
 20
240.524
 30
0.0
 11
195.245
 21
240.619
 31
0.0
  0
LINE
  5
994
100
AcDbEntity
  8
1
  6
CONTINUOUS
100
AcDbLine
 10
193.745
 20
240.555
 30
0.0
 11
193.695
 21
240.683
 31
0.0
  0
LINE
  5
995
100
AcDbEntity
  8
1
  6
CONTINUOUS
100
AcDbLine
 10
195.395
 20
240.683
 30
0.0
 11
195.445
 21
240.555
 31
0.0
  0
LINE
  5
996
100
AcDbEntity
  8
1
  6
CONTINUOUS
100
AcDbLine
 10
196.07
 20
239.407
 30
0.0
 11
195.67
 21
240.907
 31
0.0
  0
LINE
  5
997
100
AcDbEntity
  8
1
  6
CONTINUOUS
100
AcDbLine
 10
193.77
 20
240.46
 30
0.0
 11
193.745
 21
240.555
 31
0.0
  0
LINE
  5
998
100
AcDbEntity
  8
1
  6
CONTINUOUS
100
AcDbLine
 10
194.645
 20
239.79
 30
0.0
 11
194.67
 21
239.694
 31
0.0
  0
LINE
  5
999
100
AcDbEntity
  8
1
  6
CONTINUOUS
100
AcDbLine
 10
196.17
 20
239.534
 30
0.0
 11
195.945
 21
240.396
 31
0.0
  0
LINE
  5
99A
100
AcDbEntity
  8
1
  6
CONTINUOUS
100
AcDbLine
 10
195.82
 20
240.907
 30
0.0
 11
195.92
 21
240.524
 31
0.0
  0
LINE
  5
99B
100
AcDbEntity
  8
1
  6
CONTINUOUS
100
AcDbLine
 10
195.32
 20
240.396
 30
0.0
 11
195.295
 21
240.524
 31
0.0
  0
LINE
  5
99C
100
AcDbEntity
  8
1
  6
CONTINUOUS
100
AcDbLine
 10
194.52
 20
239.63
 30
0.0
 11
194.495
 21
239.79
 31
0.0
  0
LINE
  5
99D
100
AcDbEntity
  8
1
  6
CONTINUOUS
100
AcDbLine
 10
195.445
 20
240.555
 30
0.0
 11
195.47
 21
240.396
 31
0.0
  0
LINE
  5
99E
100
AcDbEntity
  8
1
  6
CONTINUOUS
100
AcDbLine
 10
197.07
 20
245.39
 30
0.0
 11
197.07
 21
248.423
 31
0.0
  0
LINE
  5
99F
100
AcDbEntity
  8
1
  6
CONTINUOUS
100
AcDbLine
 10
195.47
 20
239.917
 30
0.0
 11
195.445
 21
239.758
 31
0.0
  0
LINE
  5
9A0
100
AcDbEntity
  8
1
  6
CONTINUOUS
100
AcDbLine
 10
195.295
 20
239.79
 30
0.0
 11
195.32
 21
239.917
 31
0.0
  0
LINE
  5
9A1
100
AcDbEntity
  8
1
  6
CONTINUOUS
100
AcDbLine
 10
194.67
 20
240.619
 30
0.0
 11
194.645
 21
240.524
 31
0.0
  0
LINE
  5
9A2
100
AcDbEntity
  8
1
  6
CONTINUOUS
100
AcDbLine
 10
196.42
 20
240.524
 30
0.0
 11
196.52
 21
240.907
 31
0.0
  0
LINE
  5
9A3
100
AcDbEntity
  8
1
  6
CONTINUOUS
100
AcDbLine
 10
196.395
 20
240.396
 30
0.0
 11
196.17
 21
239.534
 31
0.0
  0
LINE
  5
9A4
100
AcDbEntity
  8
1
  6
CONTINUOUS
100
AcDbLine
 10
196.67
 20
240.907
 30
0.0
 11
196.27
 21
239.407
 31
0.0
  0
LINE
  5
9A5
100
AcDbEntity
  8
1
  6
CONTINUOUS
100
AcDbLine
 10
191.895
 20
240.683
 30
0.0
 11
191.845
 21
240.555
 31
0.0
  0
LINE
  5
9A6
100
AcDbEntity
  8
1
  6
CONTINUOUS
100
AcDbLine
 10
192.995
 20
240.683
 30
0.0
 11
192.945
 21
240.555
 31
0.0
  0
LINE
  5
9A7
100
AcDbEntity
  8
1
  6
CONTINUOUS
100
AcDbLine
 10
192.595
 20
239.63
 30
0.0
 11
192.645
 21
239.758
 31
0.0
  0
LINE
  5
9A8
100
AcDbEntity
  8
1
  6
CONTINUOUS
100
AcDbLine
 10
193.695
 20
239.63
 30
0.0
 11
193.745
 21
239.758
 31
0.0
  0
LINE
  5
9A9
100
AcDbEntity
  8
1
  6
CONTINUOUS
100
AcDbLine
 10
192.045
 20
240.651
 30
0.0
 11
191.945
 21
240.46
 31
0.0
  0
LINE
  5
9AA
100
AcDbEntity
  8
1
  6
CONTINUOUS
100
AcDbLine
 10
192.445
 20
239.662
 30
0.0
 11
192.545
 21
239.853
 31
0.0
  0
LINE
  5
9AB
100
AcDbEntity
  8
1
  6
CONTINUOUS
100
AcDbLine
 10
192.595
 20
240.683
 30
0.0
 11
192.52
 21
240.779
 31
0.0
  0
LINE
  5
9AC
100
AcDbEntity
  8
1
  6
CONTINUOUS
100
AcDbLine
 10
193.695
 20
240.683
 30
0.0
 11
193.62
 21
240.779
 31
0.0
  0
LINE
  5
9AD
100
AcDbEntity
  8
1
  6
CONTINUOUS
100
AcDbLine
 10
194.62
 20
239.502
 30
0.0
 11
194.52
 21
239.63
 31
0.0
  0
LINE
  5
9AE
100
AcDbEntity
  8
1
  6
CONTINUOUS
100
AcDbLine
 10
195.295
 20
240.811
 30
0.0
 11
195.395
 21
240.683
 31
0.0
  0
LINE
  5
9AF
100
AcDbEntity
  8
1
  6
CONTINUOUS
100
AcDbLine
 10
201.195
 20
260.407
 30
0.0
 11
201.695
 21
255.407
 31
0.0
  0
LINE
  5
9B0
100
AcDbEntity
  8
1
  6
CONTINUOUS
100
AcDbLine
 10
202.92
 20
251.357
 30
0.0
 11
202.92
 21
243.107
 31
0.0
  0
LINE
  5
9B1
100
AcDbEntity
  8
1
  6
CONTINUOUS
100
AcDbLine
 10
203.06
 20
241.282
 30
0.0
 11
203.06
 21
241.797
 31
0.0
  0
LINE
  5
9B2
100
AcDbEntity
  8
1
  6
CONTINUOUS
100
AcDbLine
 10
203.37
 20
251.107
 30
0.0
 11
203.37
 21
243.407
 31
0.0
  0
LINE
  5
9B3
100
AcDbEntity
  8
1
  6
CONTINUOUS
100
AcDbLine
 10
203.545
 20
243.407
 30
0.0
 11
203.545
 21
243.107
 31
0.0
  0
LINE
  5
9B4
100
AcDbEntity
  8
1
  6
CONTINUOUS
100
AcDbLine
 10
203.717
 20
241.235
 30
0.0
 11
203.717
 21
241.0
 31
0.0
  0
LINE
  5
9B5
100
AcDbEntity
  8
1
  6
CONTINUOUS
100
AcDbLine
 10
203.06
 20
241.797
 30
0.0
 11
203.107
 21
242.313
 31
0.0
  0
LINE
  5
9B6
100
AcDbEntity
  8
1
  6
CONTINUOUS
100
AcDbLine
 10
195.445
 20
239.758
 30
0.0
 11
195.395
 21
239.63
 31
0.0
  0
LINE
  5
9B7
100
AcDbEntity
  8
1
  6
CONTINUOUS
100
AcDbLine
 10
193.145
 20
240.651
 30
0.0
 11
193.045
 21
240.46
 31
0.0
  0
LINE
  5
9B8
100
AcDbEntity
  8
1
  6
CONTINUOUS
100
AcDbLine
 10
193.545
 20
239.662
 30
0.0
 11
193.645
 21
239.853
 31
0.0
  0
LINE
  5
9B9
100
AcDbEntity
  8
1
  6
CONTINUOUS
100
AcDbLine
 10
195.245
 20
239.694
 30
0.0
 11
195.295
 21
239.79
 31
0.0
  0
LINE
  5
9BA
100
AcDbEntity
  8
1
  6
CONTINUOUS
100
AcDbLine
 10
191.97
 20
239.534
 30
0.0
 11
192.095
 21
239.438
 31
0.0
  0
LINE
  5
9BB
100
AcDbEntity
  8
1
  6
CONTINUOUS
100
AcDbLine
 10
193.07
 20
239.534
 30
0.0
 11
193.195
 21
239.438
 31
0.0
  0
LINE
  5
9BC
100
AcDbEntity
  8
1
  6
CONTINUOUS
100
AcDbLine
 10
192.52
 20
240.779
 30
0.0
 11
192.395
 21
240.875
 31
0.0
  0
LINE
  5
9BD
100
AcDbEntity
  8
1
  6
CONTINUOUS
100
AcDbLine
 10
193.62
 20
240.779
 30
0.0
 11
193.495
 21
240.875
 31
0.0
  0
LINE
  5
9BE
100
AcDbEntity
  8
1
  6
CONTINUOUS
100
AcDbLine
 10
192.045
 20
239.662
 30
0.0
 11
192.12
 21
239.598
 31
0.0
  0
LINE
  5
9BF
100
AcDbEntity
  8
1
  6
CONTINUOUS
100
AcDbLine
 10
193.145
 20
239.662
 30
0.0
 11
193.22
 21
239.598
 31
0.0
  0
LINE
  5
9C0
100
AcDbEntity
  8
1
  6
CONTINUOUS
100
AcDbLine
 10
192.445
 20
240.651
 30
0.0
 11
192.37
 21
240.715
 31
0.0
  0
LINE
  5
9C1
100
AcDbEntity
  8
1
  6
CONTINUOUS
100
AcDbLine
 10
194.67
 20
239.694
 30
0.0
 11
194.745
 21
239.63
 31
0.0
  0
LINE
  5
9C2
100
AcDbEntity
  8
1
  6
CONTINUOUS
100
AcDbLine
 10
193.545
 20
240.651
 30
0.0
 11
193.47
 21
240.715
 31
0.0
  0
LINE
  5
9C3
100
AcDbEntity
  8
1
  6
CONTINUOUS
100
AcDbLine
 10
195.245
 20
240.619
 30
0.0
 11
195.17
 21
240.683
 31
0.0
  0
LINE
  5
9C4
100
AcDbEntity
  8
1
  6
CONTINUOUS
100
AcDbLine
 10
204.42
 20
249.457
 30
0.0
 11
204.42
 21
245.557
 31
0.0
  0
LINE
  5
9C5
100
AcDbEntity
  8
1
  6
CONTINUOUS
100
AcDbLine
 10
204.42
 20
239.357
 30
0.0
 11
204.42
 21
240.607
 31
0.0
  0
LINE
  5
9C6
100
AcDbEntity
  8
1
  6
CONTINUOUS
100
AcDbLine
 10
205.295
 20
245.557
 30
0.0
 11
205.295
 21
244.807
 31
0.0
  0
LINE
  5
9C7
100
AcDbEntity
  8
1
  6
CONTINUOUS
100
AcDbLine
 10
205.72
 20
244.807
 30
0.0
 11
205.72
 21
243.907
 31
0.0
  0
LINE
  5
9C8
100
AcDbEntity
  8
1
  6
CONTINUOUS
100
AcDbLine
 10
203.81
 20
241.657
 30
0.0
 11
203.717
 21
241.235
 31
0.0
  0
LINE
  5
9C9
100
AcDbEntity
  8
1
  6
CONTINUOUS
100
AcDbLine
 10
194.145
 20
239.662
 30
0.0
 11
194.295
 21
239.885
 31
0.0
  0
LINE
  5
9CA
100
AcDbEntity
  8
1
  6
CONTINUOUS
100
AcDbLine
 10
194.295
 20
239.63
 30
0.0
 11
194.145
 21
239.407
 31
0.0
  0
LINE
  5
9CB
100
AcDbEntity
  8
1
  6
CONTINUOUS
100
AcDbLine
 10
191.97
 20
240.779
 30
0.0
 11
191.895
 21
240.683
 31
0.0
  0
LINE
  5
9CC
100
AcDbEntity
  8
1
  6
CONTINUOUS
100
AcDbLine
 10
193.07
 20
240.779
 30
0.0
 11
192.995
 21
240.683
 31
0.0
  0
LINE
  5
9CD
100
AcDbEntity
  8
1
  6
CONTINUOUS
100
AcDbLine
 10
192.52
 20
239.534
 30
0.0
 11
192.595
 21
239.63
 31
0.0
  0
LINE
  5
9CE
100
AcDbEntity
  8
1
  6
CONTINUOUS
100
AcDbLine
 10
193.62
 20
239.534
 30
0.0
 11
193.695
 21
239.63
 31
0.0
  0
LINE
  5
9CF
100
AcDbEntity
  8
1
  6
CONTINUOUS
100
AcDbLine
 10
194.52
 20
240.683
 30
0.0
 11
194.62
 21
240.811
 31
0.0
  0
LINE
  5
9D0
100
AcDbEntity
  8
1
  6
CONTINUOUS
100
AcDbLine
 10
194.72
 20
239.438
 30
0.0
 11
194.62
 21
239.502
 31
0.0
  0
LINE
  5
9D1
100
AcDbEntity
  8
1
  6
CONTINUOUS
100
AcDbLine
 10
195.195
 20
240.875
 30
0.0
 11
195.295
 21
240.811
 31
0.0
  0
LINE
  5
9D2
100
AcDbEntity
  8
1
  6
CONTINUOUS
100
AcDbLine
 10
204.888
 20
241.797
 30
0.0
 11
204.701
 21
242.125
 31
0.0
  0
LINE
  5
9D3
100
AcDbEntity
  8
1
  6
CONTINUOUS
100
AcDbLine
 10
205.029
 20
241.375
 30
0.0
 11
204.888
 21
241.797
 31
0.0
  0
LINE
  5
9D4
100
AcDbEntity
  8
1
  6
CONTINUOUS
100
AcDbLine
 10
205.123
 20
241.047
 30
0.0
 11
205.029
 21
241.375
 31
0.0
  0
LINE
  5
9D5
100
AcDbEntity
  8
1
  6
CONTINUOUS
100
AcDbLine
 10
208.12
 20
243.907
 30
0.0
 11
208.12
 21
244.807
 31
0.0
  0
LINE
  5
9D6
100
AcDbEntity
  8
1
  6
CONTINUOUS
100
AcDbLine
 10
208.295
 20
243.107
 30
0.0
 11
208.295
 21
243.407
 31
0.0
  0
LINE
  5
9D7
100
AcDbEntity
  8
1
  6
CONTINUOUS
100
AcDbLine
 10
208.31
 20
238.844
 30
0.0
 11
208.31
 21
240.063
 31
0.0
  0
LINE
  5
9D8
100
AcDbEntity
  8
1
  6
CONTINUOUS
100
AcDbLine
 10
208.545
 20
244.807
 30
0.0
 11
208.545
 21
245.557
 31
0.0
  0
LINE
  5
9D9
100
AcDbEntity
  8
1
  6
CONTINUOUS
100
AcDbLine
 10
208.732
 20
239.688
 30
0.0
 11
208.732
 21
238.797
 31
0.0
  0
LINE
  5
9DA
100
AcDbEntity
  8
1
  6
CONTINUOUS
100
AcDbLine
 10
208.967
 20
238.75
 30
0.0
 11
208.967
 21
239.735
 31
0.0
  0
LINE
  5
9DB
100
AcDbEntity
  8
1
  6
CONTINUOUS
100
AcDbLine
 10
209.42
 20
245.557
 30
0.0
 11
209.42
 21
249.457
 31
0.0
  0
LINE
  5
9DC
100
AcDbEntity
  8
1
  6
CONTINUOUS
100
AcDbLine
 10
209.435
 20
238.75
 30
0.0
 11
209.435
 21
239.735
 31
0.0
  0
LINE
  5
9DD
100
AcDbEntity
  8
1
  6
CONTINUOUS
100
AcDbLine
 10
209.67
 20
243.107
 30
0.0
 11
209.67
 21
243.407
 31
0.0
  0
LINE
  5
9DE
100
AcDbEntity
  8
1
  6
CONTINUOUS
100
AcDbLine
 10
209.81
 20
238.844
 30
0.0
 11
209.81
 21
240.063
 31
0.0
  0
LINE
  5
9DF
100
AcDbEntity
  8
1
  6
CONTINUOUS
100
AcDbLine
 10
209.92
 20
249.457
 30
0.0
 11
209.92
 21
245.557
 31
0.0
  0
LINE
  5
9E0
100
AcDbEntity
  8
1
  6
CONTINUOUS
100
AcDbLine
 10
210.045
 20
239.782
 30
0.0
 11
210.045
 21
239.266
 31
0.0
  0
LINE
  5
9E1
100
AcDbEntity
  8
1
  6
CONTINUOUS
100
AcDbLine
 10
210.795
 20
245.557
 30
0.0
 11
210.795
 21
244.807
 31
0.0
  0
LINE
  5
9E2
100
AcDbEntity
  8
1
  6
CONTINUOUS
100
AcDbLine
 10
210.795
 20
239.266
 30
0.0
 11
210.795
 21
239.782
 31
0.0
  0
LINE
  5
9E3
100
AcDbEntity
  8
1
  6
CONTINUOUS
100
AcDbLine
 10
205.123
 20
241.047
 30
0.0
 11
205.263
 21
241.469
 31
0.0
  0
LINE
  5
9E4
100
AcDbEntity
  8
1
  6
CONTINUOUS
100
AcDbLine
 10
203.904
 20
241.891
 30
0.0
 11
203.81
 21
241.657
 31
0.0
  0
LINE
  5
9E5
100
AcDbEntity
  8
1
  6
CONTINUOUS
100
AcDbLine
 10
204.045
 20
242.125
 30
0.0
 11
203.904
 21
241.891
 31
0.0
  0
LINE
  5
9E6
100
AcDbEntity
  8
1
  6
CONTINUOUS
100
AcDbLine
 10
195.395
 20
239.63
 30
0.0
 11
195.295
 21
239.502
 31
0.0
  0
LINE
  5
9E7
100
AcDbEntity
  8
1
  6
CONTINUOUS
100
AcDbLine
 10
192.12
 20
240.715
 30
0.0
 11
192.045
 21
240.651
 31
0.0
  0
LINE
  5
9E8
100
AcDbEntity
  8
1
  6
CONTINUOUS
100
AcDbLine
 10
203.107
 20
241.235
 30
0.0
 11
203.06
 21
241.282
 31
0.0
  0
LINE
  5
9E9
100
AcDbEntity
  8
1
  6
CONTINUOUS
100
AcDbLine
 10
208.357
 20
238.797
 30
0.0
 11
208.31
 21
238.844
 31
0.0
  0
LINE
  5
9EA
100
AcDbEntity
  8
1
  6
CONTINUOUS
100
AcDbLine
 10
209.857
 20
238.797
 30
0.0
 11
209.81
 21
238.844
 31
0.0
  0
LINE
  5
9EB
100
AcDbEntity
  8
1
  6
CONTINUOUS
100
AcDbLine
 10
204.701
 20
242.125
 30
0.0
 11
204.513
 21
242.36
 31
0.0
  0
LINE
  5
9EC
100
AcDbEntity
  8
1
  6
CONTINUOUS
100
AcDbLine
 10
209.107
 20
239.828
 30
0.0
 11
208.967
 21
240.016
 31
0.0
  0
LINE
  5
9ED
100
AcDbEntity
  8
1
  6
CONTINUOUS
100
AcDbLine
 10
211.029
 20
240.11
 30
0.0
 11
211.029
 21
238.797
 31
0.0
  0
LINE
  5
9EE
100
AcDbEntity
  8
1
  6
CONTINUOUS
100
AcDbLine
 10
211.045
 20
243.107
 30
0.0
 11
211.045
 21
243.407
 31
0.0
  0
LINE
  5
9EF
100
AcDbEntity
  8
1
  6
CONTINUOUS
100
AcDbLine
 10
211.22
 20
244.807
 30
0.0
 11
211.22
 21
243.907
 31
0.0
  0
LINE
  5
9F0
100
AcDbEntity
  8
1
  6
CONTINUOUS
100
AcDbLine
 10
213.56
 20
241.282
 30
0.0
 11
213.56
 21
241.797
 31
0.0
  0
LINE
  5
9F1
100
AcDbEntity
  8
1
  6
CONTINUOUS
100
AcDbLine
 10
213.62
 20
243.907
 30
0.0
 11
213.62
 21
244.807
 31
0.0
  0
LINE
  5
9F2
100
AcDbEntity
  8
1
  6
CONTINUOUS
100
AcDbLine
 10
214.045
 20
244.807
 30
0.0
 11
214.045
 21
245.557
 31
0.0
  0
LINE
  5
9F3
100
AcDbEntity
  8
1
  6
CONTINUOUS
100
AcDbLine
 10
214.217
 20
241.235
 30
0.0
 11
214.217
 21
241.0
 31
0.0
  0
LINE
  5
9F4
100
AcDbEntity
  8
1
  6
CONTINUOUS
100
AcDbLine
 10
213.56
 20
241.797
 30
0.0
 11
213.607
 21
242.313
 31
0.0
  0
LINE
  5
9F5
100
AcDbEntity
  8
1
  6
CONTINUOUS
100
AcDbLine
 10
208.779
 20
239.875
 30
0.0
 11
208.732
 21
239.688
 31
0.0
  0
LINE
  5
9F6
100
AcDbEntity
  8
1
  6
CONTINUOUS
100
AcDbLine
 10
205.263
 20
241.469
 30
0.0
 11
205.451
 21
241.797
 31
0.0
  0
LINE
  5
9F7
100
AcDbEntity
  8
1
  6
CONTINUOUS
100
AcDbLine
 10
205.451
 20
241.797
 30
0.0
 11
205.638
 21
242.078
 31
0.0
  0
LINE
  5
9F8
100
AcDbEntity
  8
1
  6
CONTINUOUS
100
AcDbLine
 10
193.22
 20
240.715
 30
0.0
 11
193.145
 21
240.651
 31
0.0
  0
LINE
  5
9F9
100
AcDbEntity
  8
1
  6
CONTINUOUS
100
AcDbLine
 10
192.37
 20
239.598
 30
0.0
 11
192.445
 21
239.662
 31
0.0
  0
LINE
  5
9FA
100
AcDbEntity
  8
1
  6
CONTINUOUS
100
AcDbLine
 10
194.745
 20
240.683
 30
0.0
 11
194.67
 21
240.619
 31
0.0
  0
LINE
  5
9FB
100
AcDbEntity
  8
1
  6
CONTINUOUS
100
AcDbLine
 10
193.47
 20
239.598
 30
0.0
 11
193.545
 21
239.662
 31
0.0
  0
LINE
  5
9FC
100
AcDbEntity
  8
1
  6
CONTINUOUS
100
AcDbLine
 10
195.17
 20
239.63
 30
0.0
 11
195.245
 21
239.694
 31
0.0
  0
LINE
  5
9FD
100
AcDbEntity
  8
1
  6
CONTINUOUS
100
AcDbLine
 10
192.095
 20
240.875
 30
0.0
 11
191.97
 21
240.779
 31
0.0
  0
LINE
  5
9FE
100
AcDbEntity
  8
1
  6
CONTINUOUS
100
AcDbLine
 10
193.195
 20
240.875
 30
0.0
 11
193.07
 21
240.779
 31
0.0
  0
LINE
  5
9FF
100
AcDbEntity
  8
1
  6
CONTINUOUS
100
AcDbLine
 10
192.395
 20
239.438
 30
0.0
 11
192.52
 21
239.534
 31
0.0
  0
LINE
  5
A00
100
AcDbEntity
  8
1
  6
CONTINUOUS
100
AcDbLine
 10
193.495
 20
239.438
 30
0.0
 11
193.62
 21
239.534
 31
0.0
  0
LINE
  5
A01
100
AcDbEntity
  8
1
  6
CONTINUOUS
100
AcDbLine
 10
194.745
 20
239.63
 30
0.0
 11
194.845
 21
239.598
 31
0.0
  0
LINE
  5
A02
100
AcDbEntity
  8
1
  6
CONTINUOUS
100
AcDbLine
 10
216.845
 20
236.072
 30
0.0
 11
216.695
 21
236.353
 31
0.0
  0
LINE
  5
A03
100
AcDbEntity
  8
1
  6
CONTINUOUS
100
AcDbLine
 10
216.507
 20
236.072
 30
0.0
 11
216.395
 21
236.353
 31
0.0
  0
LINE
  5
A04
100
AcDbEntity
  8
1
  6
CONTINUOUS
100
AcDbLine
 10
214.92
 20
239.357
 30
0.0
 11
214.92
 21
240.607
 31
0.0
  0
LINE
  5
A05
100
AcDbEntity
  8
1
  6
CONTINUOUS
100
AcDbLine
 10
214.92
 20
245.557
 30
0.0
 11
214.92
 21
249.457
 31
0.0
  0
LINE
  5
A06
100
AcDbEntity
  8
1
  6
CONTINUOUS
100
AcDbLine
 10
215.107
 20
242.36
 30
0.0
 11
215.107
 21
241.891
 31
0.0
  0
LINE
  5
A07
100
AcDbEntity
  8
1
  6
CONTINUOUS
100
AcDbLine
 10
215.201
 20
241.563
 30
0.0
 11
215.201
 21
241.094
 31
0.0
  0
LINE
  5
A08
100
AcDbEntity
  8
1
  6
CONTINUOUS
100
AcDbLine
 10
215.57
 20
235.65
 30
0.0
 11
215.57
 21
237.01
 31
0.0
  0
LINE
  5
A09
100
AcDbEntity
  8
1
  6
CONTINUOUS
100
AcDbLine
 10
215.717
 20
241.0
 30
0.0
 11
215.717
 21
242.36
 31
0.0
  0
LINE
  5
A0A
100
AcDbEntity
  8
1
  6
CONTINUOUS
100
AcDbLine
 10
215.97
 20
251.107
 30
0.0
 11
215.97
 21
243.407
 31
0.0
  0
LINE
  5
A0B
100
AcDbEntity
  8
1
  6
CONTINUOUS
100
AcDbLine
 10
216.232
 20
241.094
 30
0.0
 11
216.232
 21
241.563
 31
0.0
  0
LINE
  5
A0C
100
AcDbEntity
  8
1
  6
CONTINUOUS
100
AcDbLine
 10
216.326
 20
241.891
 30
0.0
 11
216.326
 21
242.36
 31
0.0
  0
LINE
  5
A0D
100
AcDbEntity
  8
1
  6
CONTINUOUS
100
AcDbLine
 10
216.42
 20
243.107
 30
0.0
 11
216.42
 21
251.357
 31
0.0
  0
LINE
  5
A0E
100
AcDbEntity
  8
1
  6
CONTINUOUS
100
AcDbLine
 10
217.857
 20
235.697
 30
0.0
 11
217.857
 21
236.869
 31
0.0
  0
LINE
  5
A0F
100
AcDbEntity
  8
1
  6
CONTINUOUS
100
AcDbLine
 10
214.31
 20
241.657
 30
0.0
 11
214.217
 21
241.235
 31
0.0
  0
LINE
  5
A10
100
AcDbEntity
  8
1
  6
CONTINUOUS
100
AcDbLine
 10
214.404
 20
241.891
 30
0.0
 11
214.31
 21
241.657
 31
0.0
  0
LINE
  5
A11
100
AcDbEntity
  8
1
  6
CONTINUOUS
100
AcDbLine
 10
208.92
 20
240.11
 30
0.0
 11
208.779
 21
239.875
 31
0.0
  0
LINE
  5
A12
100
AcDbEntity
  8
1
  6
CONTINUOUS
100
AcDbLine
 10
203.107
 20
242.313
 30
0.0
 11
203.154
 21
242.36
 31
0.0
  0
LINE
  5
A13
100
AcDbEntity
  8
1
  6
CONTINUOUS
100
AcDbLine
 10
204.279
 20
242.36
 30
0.0
 11
204.045
 21
242.125
 31
0.0
  0
LINE
  5
A14
100
AcDbEntity
  8
1
  6
CONTINUOUS
100
AcDbLine
 10
194.62
 20
240.811
 30
0.0
 11
194.72
 21
240.875
 31
0.0
  0
LINE
  5
A15
100
AcDbEntity
  8
1
  6
CONTINUOUS
100
AcDbLine
 10
247.37
 20
237.06
 30
0.0
 11
247.032
 21
236.966
 31
0.0
  0
LINE
  5
A16
100
AcDbEntity
  8
1
  6
CONTINUOUS
100
AcDbLine
 10
282.501
 20
237.154
 30
0.0
 11
281.67
 21
237.082
 31
0.0
  0
LINE
  5
A17
100
AcDbEntity
  8
1
  6
CONTINUOUS
100
AcDbLine
 10
180.838
 20
237.154
 30
0.0
 11
181.67
 21
237.082
 31
0.0
  0
LINE
  5
A18
100
AcDbEntity
  8
1
  6
CONTINUOUS
100
AcDbLine
 10
192.095
 20
239.438
 30
0.0
 11
192.245
 21
239.407
 31
0.0
  0
LINE
  5
A19
100
AcDbEntity
  8
1
  6
CONTINUOUS
100
AcDbLine
 10
193.195
 20
239.438
 30
0.0
 11
193.345
 21
239.407
 31
0.0
  0
LINE
  5
A1A
100
AcDbEntity
  8
1
  6
CONTINUOUS
100
AcDbLine
 10
192.395
 20
240.875
 30
0.0
 11
192.245
 21
240.907
 31
0.0
  0
LINE
  5
A1B
100
AcDbEntity
  8
1
  6
CONTINUOUS
100
AcDbLine
 10
193.495
 20
240.875
 30
0.0
 11
193.345
 21
240.907
 31
0.0
  0
LINE
  5
A1C
100
AcDbEntity
  8
1
  6
CONTINUOUS
100
AcDbLine
 10
192.12
 20
239.598
 30
0.0
 11
192.245
 21
239.566
 31
0.0
  0
LINE
  5
A1D
100
AcDbEntity
  8
1
  6
CONTINUOUS
100
AcDbLine
 10
193.22
 20
239.598
 30
0.0
 11
193.345
 21
239.566
 31
0.0
  0
LINE
  5
A1E
100
AcDbEntity
  8
1
  6
CONTINUOUS
100
AcDbLine
 10
194.845
 20
239.407
 30
0.0
 11
194.72
 21
239.438
 31
0.0
  0
LINE
  5
A1F
100
AcDbEntity
  8
1
  6
CONTINUOUS
100
AcDbLine
 10
192.37
 20
240.715
 30
0.0
 11
192.245
 21
240.747
 31
0.0
  0
LINE
  5
A20
100
AcDbEntity
  8
1
  6
CONTINUOUS
100
AcDbLine
 10
193.47
 20
240.715
 30
0.0
 11
193.345
 21
240.747
 31
0.0
  0
LINE
  5
A21
100
AcDbEntity
  8
1
  6
CONTINUOUS
100
AcDbLine
 10
195.07
 20
240.907
 30
0.0
 11
195.195
 21
240.875
 31
0.0
  0
LINE
  5
A22
100
AcDbEntity
  8
1
  6
CONTINUOUS
100
AcDbLine
 10
195.17
 20
240.683
 30
0.0
 11
195.07
 21
240.715
 31
0.0
  0
LINE
  5
A23
100
AcDbEntity
  8
1
  6
CONTINUOUS
100
AcDbLine
 10
221.163
 20
235.588
 30
0.0
 11
221.038
 21
235.652
 31
0.0
  0
LINE
  5
A24
100
AcDbEntity
  8
1
  6
CONTINUOUS
100
AcDbLine
 10
215.57
 20
236.119
 30
0.0
 11
214.707
 21
236.588
 31
0.0
  0
LINE
  5
A25
100
AcDbEntity
  8
1
  6
CONTINUOUS
100
AcDbLine
 10
221.195
 20
235.78
 30
0.0
 11
221.101
 21
235.844
 31
0.0
  0
LINE
  5
A26
100
AcDbEntity
  8
1
  6
CONTINUOUS
100
AcDbLine
 10
213.607
 20
241.235
 30
0.0
 11
213.56
 21
241.282
 31
0.0
  0
LINE
  5
A27
100
AcDbEntity
  8
1
  6
CONTINUOUS
100
AcDbLine
 10
221.038
 20
235.652
 30
0.0
 11
220.913
 21
235.78
 31
0.0
  0
LINE
  5
A28
100
AcDbEntity
  8
1
  6
CONTINUOUS
100
AcDbLine
 10
217.857
 20
236.869
 30
0.0
 11
217.82
 21
236.916
 31
0.0
  0
LINE
  5
A29
100
AcDbEntity
  8
1
  6
CONTINUOUS
100
AcDbLine
 10
221.101
 20
235.844
 30
0.0
 11
221.038
 21
235.94
 31
0.0
  0
LINE
  5
A2A
100
AcDbEntity
  8
1
  6
CONTINUOUS
100
AcDbLine
 10
220.913
 20
235.78
 30
0.0
 11
220.851
 21
235.908
 31
0.0
  0
LINE
  5
A2B
100
AcDbEntity
  8
1
  6
CONTINUOUS
100
AcDbLine
 10
218.382
 20
235.65
 30
0.0
 11
218.382
 21
236.4
 31
0.0
  0
LINE
  5
A2C
100
AcDbEntity
  8
1
  6
CONTINUOUS
100
AcDbLine
 10
219.17
 20
255.457
 30
0.0
 11
219.17
 21
255.407
 31
0.0
  0
LINE
  5
A2D
100
AcDbEntity
  8
1
  6
CONTINUOUS
100
AcDbLine
 10
219.207
 20
235.697
 30
0.0
 11
219.207
 21
236.541
 31
0.0
  0
LINE
  5
A2E
100
AcDbEntity
  8
1
  6
CONTINUOUS
100
AcDbLine
 10
219.67
 20
255.457
 30
0.0
 11
219.67
 21
255.407
 31
0.0
  0
LINE
  5
A2F
100
AcDbEntity
  8
1
  6
CONTINUOUS
100
AcDbLine
 10
220.172
 20
248.678
 30
0.0
 11
220.172
 21
247.235
 31
0.0
  0
LINE
  5
A30
100
AcDbEntity
  8
1
  6
CONTINUOUS
100
AcDbLine
 10
220.32
 20
240.807
 30
0.0
 11
220.32
 21
239.807
 31
0.0
  0
LINE
  5
A31
100
AcDbEntity
  8
1
  6
CONTINUOUS
100
AcDbLine
 10
220.345
 20
240.707
 30
0.0
 11
220.345
 21
240.807
 31
0.0
  0
LINE
  5
A32
100
AcDbEntity
  8
1
  6
CONTINUOUS
100
AcDbLine
 10
220.378
 20
238.525
 30
0.0
 11
220.378
 21
238.684
 31
0.0
  0
LINE
  5
A33
100
AcDbEntity
  8
1
  6
CONTINUOUS
100
AcDbLine
 10
220.495
 20
240.807
 30
0.0
 11
220.495
 21
240.707
 31
0.0
  0
LINE
  5
A34
100
AcDbEntity
  8
1
  6
CONTINUOUS
100
AcDbLine
 10
220.595
 20
240.707
 30
0.0
 11
220.595
 21
240.807
 31
0.0
  0
LINE
  5
A35
100
AcDbEntity
  8
1
  6
CONTINUOUS
100
AcDbLine
 10
220.62
 20
240.807
 30
0.0
 11
220.62
 21
240.407
 31
0.0
  0
LINE
  5
A36
100
AcDbEntity
  8
1
  6
CONTINUOUS
100
AcDbLine
 10
220.638
 20
237.807
 30
0.0
 11
220.638
 21
238.525
 31
0.0
  0
LINE
  5
A37
100
AcDbEntity
  8
1
  6
CONTINUOUS
100
AcDbLine
 10
220.638
 20
238.684
 30
0.0
 11
220.638
 21
239.057
 31
0.0
  0
LINE
  5
A38
100
AcDbEntity
  8
1
  6
CONTINUOUS
100
AcDbLine
 10
220.795
 20
239.057
 30
0.0
 11
220.795
 21
238.684
 31
0.0
  0
LINE
  5
A39
100
AcDbEntity
  8
1
  6
CONTINUOUS
100
AcDbLine
 10
220.795
 20
238.019
 30
0.0
 11
220.795
 21
238.525
 31
0.0
  0
LINE
  5
A3A
100
AcDbEntity
  8
1
  6
CONTINUOUS
100
AcDbLine
 10
220.82
 20
236.067
 30
0.0
 11
220.82
 21
236.546
 31
0.0
  0
LINE
  5
A3B
100
AcDbEntity
  8
1
  6
CONTINUOUS
100
AcDbLine
 10
221.007
 20
236.067
 30
0.0
 11
221.007
 21
236.546
 31
0.0
  0
LINE
  5
A3C
100
AcDbEntity
  8
1
  6
CONTINUOUS
100
AcDbLine
 10
221.22
 20
240.807
 30
0.0
 11
221.22
 21
240.407
 31
0.0
  0
LINE
  5
A3D
100
AcDbEntity
  8
1
  6
CONTINUOUS
100
AcDbLine
 10
221.245
 20
240.807
 30
0.0
 11
221.245
 21
240.707
 31
0.0
  0
LINE
  5
A3E
100
AcDbEntity
  8
1
  6
CONTINUOUS
100
AcDbLine
 10
221.345
 20
240.707
 30
0.0
 11
221.345
 21
240.807
 31
0.0
  0
LINE
  5
A3F
100
AcDbEntity
  8
1
  6
CONTINUOUS
100
AcDbLine
 10
221.42
 20
238.684
 30
0.0
 11
221.42
 21
238.525
 31
0.0
  0
LINE
  5
A40
100
AcDbEntity
  8
1
  6
CONTINUOUS
100
AcDbLine
 10
221.495
 20
240.807
 30
0.0
 11
221.495
 21
240.707
 31
0.0
  0
LINE
  5
A41
100
AcDbEntity
  8
1
  6
CONTINUOUS
100
AcDbLine
 10
218.382
 20
236.4
 30
0.0
 11
218.42
 21
236.588
 31
0.0
  0
LINE
  5
A42
100
AcDbEntity
  8
1
  6
CONTINUOUS
100
AcDbLine
 10
216.057
 20
236.072
 30
0.0
 11
216.17
 21
236.447
 31
0.0
  0
LINE
  5
A43
100
AcDbEntity
  8
1
  6
CONTINUOUS
100
AcDbLine
 10
214.545
 20
242.125
 30
0.0
 11
214.404
 21
241.891
 31
0.0
  0
LINE
  5
A44
100
AcDbEntity
  8
1
  6
CONTINUOUS
100
AcDbLine
 10
208.31
 20
240.063
 30
0.0
 11
208.357
 21
240.11
 31
0.0
  0
LINE
  5
A45
100
AcDbEntity
  8
1
  6
CONTINUOUS
100
AcDbLine
 10
209.342
 20
239.828
 30
0.0
 11
209.623
 21
240.11
 31
0.0
  0
LINE
  5
A46
100
AcDbEntity
  8
1
  6
CONTINUOUS
100
AcDbLine
 10
209.81
 20
240.063
 30
0.0
 11
209.857
 21
240.11
 31
0.0
  0
LINE
  5
A47
100
AcDbEntity
  8
1
  6
CONTINUOUS
100
AcDbLine
 10
205.638
 20
242.078
 30
0.0
 11
205.873
 21
242.266
 31
0.0
  0
LINE
  5
A48
100
AcDbEntity
  8
1
  6
CONTINUOUS
100
AcDbLine
 10
195.295
 20
239.502
 30
0.0
 11
195.195
 21
239.438
 31
0.0
  0
LINE
  5
A49
100
AcDbEntity
  8
1
  6
CONTINUOUS
100
AcDbLine
 10
262.17
 20
243.157
 30
0.0
 11
262.295
 21
243.188
 31
0.0
  0
LINE
  5
A4A
100
AcDbEntity
  8
1
  6
CONTINUOUS
100
AcDbLine
 10
249.432
 20
237.763
 30
0.0
 11
249.657
 21
237.81
 31
0.0
  0
LINE
  5
A4B
100
AcDbEntity
  8
1
  6
CONTINUOUS
100
AcDbLine
 10
281.67
 20
233.407
 30
0.0
 11
181.67
 21
233.407
 31
0.0
  0
LINE
  5
A4C
100
AcDbEntity
  8
1
  6
CONTINUOUS
100
AcDbLine
 10
182.17
 20
233.907
 30
0.0
 11
281.17
 21
233.907
 31
0.0
  0
LINE
  5
A4D
100
AcDbEntity
  8
1
  6
CONTINUOUS
100
AcDbLine
 10
182.195
 20
234.157
 30
0.0
 11
281.145
 21
234.157
 31
0.0
  0
LINE
  5
A4E
100
AcDbEntity
  8
1
  6
CONTINUOUS
100
AcDbLine
 10
260.57
 20
234.207
 30
0.0
 11
229.02
 21
234.207
 31
0.0
  0
LINE
  5
A4F
100
AcDbEntity
  8
1
  6
CONTINUOUS
100
AcDbLine
 10
281.145
 20
234.657
 30
0.0
 11
280.645
 21
234.657
 31
0.0
  0
LINE
  5
A50
100
AcDbEntity
  8
1
  6
CONTINUOUS
100
AcDbLine
 10
182.195
 20
234.657
 30
0.0
 11
182.695
 21
234.657
 31
0.0
  0
LINE
  5
A51
100
AcDbEntity
  8
1
  6
CONTINUOUS
100
AcDbLine
 10
227.67
 20
234.657
 30
0.0
 11
228.57
 21
234.657
 31
0.0
  0
LINE
  5
A52
100
AcDbEntity
  8
1
  6
CONTINUOUS
100
AcDbLine
 10
228.42
 20
234.807
 30
0.0
 11
227.67
 21
234.807
 31
0.0
  0
LINE
  5
A53
100
AcDbEntity
  8
1
  6
CONTINUOUS
100
AcDbLine
 10
256.42
 20
235.357
 30
0.0
 11
231.92
 21
235.357
 31
0.0
  0
LINE
  5
A54
100
AcDbEntity
  8
1
  6
CONTINUOUS
100
AcDbLine
 10
224.82
 20
235.557
 30
0.0
 11
224.632
 21
235.557
 31
0.0
  0
LINE
  5
A55
100
AcDbEntity
  8
1
  6
CONTINUOUS
100
AcDbLine
 10
223.445
 20
235.557
 30
0.0
 11
222.32
 21
235.557
 31
0.0
  0
LINE
  5
A56
100
AcDbEntity
  8
1
  6
CONTINUOUS
100
AcDbLine
 10
222.07
 20
235.557
 30
0.0
 11
221.32
 21
235.557
 31
0.0
  0
LINE
  5
A57
100
AcDbEntity
  8
1
  6
CONTINUOUS
100
AcDbLine
 10
221.882
 20
235.748
 30
0.0
 11
221.32
 21
235.748
 31
0.0
  0
LINE
  5
A58
100
AcDbEntity
  8
1
  6
CONTINUOUS
100
AcDbLine
 10
222.32
 20
235.748
 30
0.0
 11
223.257
 21
235.748
 31
0.0
  0
LINE
  5
A59
100
AcDbEntity
  8
1
  6
CONTINUOUS
100
AcDbLine
 10
223.257
 20
236.163
 30
0.0
 11
222.445
 21
236.163
 31
0.0
  0
LINE
  5
A5A
100
AcDbEntity
  8
1
  6
CONTINUOUS
100
AcDbLine
 10
222.445
 20
236.354
 30
0.0
 11
223.257
 21
236.354
 31
0.0
  0
LINE
  5
A5B
100
AcDbEntity
  8
1
  6
CONTINUOUS
100
AcDbLine
 10
241.295
 20
236.45
 30
0.0
 11
240.957
 21
236.45
 31
0.0
  0
LINE
  5
A5C
100
AcDbEntity
  8
1
  6
CONTINUOUS
100
AcDbLine
 10
246.132
 20
236.591
 30
0.0
 11
245.42
 21
236.591
 31
0.0
  0
LINE
  5
A5D
100
AcDbEntity
  8
1
  6
CONTINUOUS
100
AcDbLine
 10
239.945
 20
236.591
 30
0.0
 11
239.682
 21
236.591
 31
0.0
  0
LINE
  5
A5E
100
AcDbEntity
  8
1
  6
CONTINUOUS
100
AcDbLine
 10
245.045
 20
236.638
 30
0.0
 11
244.032
 21
236.638
 31
0.0
  0
LINE
  5
A5F
100
AcDbEntity
  8
1
  6
CONTINUOUS
100
AcDbLine
 10
239.045
 20
236.638
 30
0.0
 11
237.995
 21
236.638
 31
0.0
  0
LINE
  5
A60
100
AcDbEntity
  8
1
  6
CONTINUOUS
100
AcDbLine
 10
222.075
 20
237.807
 30
0.0
 11
221.893
 21
237.833
 31
0.0
  0
LINE
  5
A61
100
AcDbEntity
  8
1
  6
CONTINUOUS
100
AcDbLine
 10
223.373
 20
237.807
 30
0.0
 11
223.217
 21
237.833
 31
0.0
  0
LINE
  5
A62
100
AcDbEntity
  8
1
  6
CONTINUOUS
100
AcDbLine
 10
221.32
 20
235.557
 30
0.0
 11
221.163
 21
235.588
 31
0.0
  0
LINE
  5
A63
100
AcDbEntity
  8
1
  6
CONTINUOUS
100
AcDbLine
 10
221.919
 20
237.966
 30
0.0
 11
222.049
 21
237.94
 31
0.0
  0
LINE
  5
A64
100
AcDbEntity
  8
1
  6
CONTINUOUS
100
AcDbLine
 10
223.269
 20
237.966
 30
0.0
 11
223.399
 21
237.94
 31
0.0
  0
LINE
  5
A65
100
AcDbEntity
  8
1
  6
CONTINUOUS
100
AcDbLine
 10
208.404
 20
240.11
 30
0.0
 11
208.592
 21
240.063
 31
0.0
  0
LINE
  5
A66
100
AcDbEntity
  8
1
  6
CONTINUOUS
100
AcDbLine
 10
221.32
 20
235.748
 30
0.0
 11
221.195
 21
235.78
 31
0.0
  0
LINE
  5
A67
100
AcDbEntity
  8
1
  6
CONTINUOUS
100
AcDbLine
 10
209.904
 20
240.11
 30
0.0
 11
210.232
 21
240.016
 31
0.0
  0
LINE
  5
A68
100
AcDbEntity
  8
1
  6
CONTINUOUS
100
AcDbLine
 10
203.201
 20
242.36
 30
0.0
 11
203.623
 21
242.219
 31
0.0
  0
LINE
  5
A69
100
AcDbEntity
  8
1
  6
CONTINUOUS
100
AcDbLine
 10
221.841
 20
238.418
 30
0.0
 11
221.71
 21
238.471
 31
0.0
  0
LINE
  5
A6A
100
AcDbEntity
  8
1
  6
CONTINUOUS
100
AcDbLine
 10
221.893
 20
237.833
 30
0.0
 11
221.788
 21
237.886
 31
0.0
  0
LINE
  5
A6B
100
AcDbEntity
  8
1
  6
CONTINUOUS
100
AcDbLine
 10
223.217
 20
237.833
 30
0.0
 11
223.112
 21
237.886
 31
0.0
  0
LINE
  5
A6C
100
AcDbEntity
  8
1
  6
CONTINUOUS
100
AcDbLine
 10
222.361
 20
238.87
 30
0.0
 11
222.309
 21
238.897
 31
0.0
  0
LINE
  5
A6D
100
AcDbEntity
  8
1
  6
CONTINUOUS
100
AcDbLine
 10
222.309
 20
239.03
 30
0.0
 11
222.413
 21
238.977
 31
0.0
  0
LINE
  5
A6E
100
AcDbEntity
  8
1
  6
CONTINUOUS
100
AcDbLine
 10
221.841
 20
238.019
 30
0.0
 11
221.919
 21
237.966
 31
0.0
  0
LINE
  5
A6F
100
AcDbEntity
  8
1
  6
CONTINUOUS
100
AcDbLine
 10
221.814
 20
238.551
 30
0.0
 11
221.893
 21
238.498
 31
0.0
  0
LINE
  5
A70
100
AcDbEntity
  8
1
  6
CONTINUOUS
100
AcDbLine
 10
223.191
 20
238.019
 30
0.0
 11
223.269
 21
237.966
 31
0.0
  0
LINE
  5
A71
100
AcDbEntity
  8
1
  6
CONTINUOUS
100
AcDbLine
 10
222.413
 20
238.977
 30
0.0
 11
222.492
 21
238.924
 31
0.0
  0
LINE
  5
A72
100
AcDbEntity
  8
1
  6
CONTINUOUS
100
AcDbLine
 10
229.02
 20
234.207
 30
0.0
 11
228.42
 21
234.807
 31
0.0
  0
LINE
  5
A73
100
AcDbEntity
  8
1
  6
CONTINUOUS
100
AcDbLine
 10
221.788
 20
237.886
 30
0.0
 11
221.684
 21
237.993
 31
0.0
  0
LINE
  5
A74
100
AcDbEntity
  8
1
  6
CONTINUOUS
100
AcDbLine
 10
223.112
 20
237.886
 30
0.0
 11
223.008
 21
237.993
 31
0.0
  0
LINE
  5
A75
100
AcDbEntity
  8
1
  6
CONTINUOUS
100
AcDbLine
 10
222.413
 20
238.817
 30
0.0
 11
222.361
 21
238.87
 31
0.0
  0
LINE
  5
A76
100
AcDbEntity
  8
1
  6
CONTINUOUS
100
AcDbLine
 10
221.788
 20
238.099
 30
0.0
 11
221.841
 21
238.019
 31
0.0
  0
LINE
  5
A77
100
AcDbEntity
  8
1
  6
CONTINUOUS
100
AcDbLine
 10
221.71
 20
238.471
 30
0.0
 11
221.658
 21
238.551
 31
0.0
  0
LINE
  5
A78
100
AcDbEntity
  8
1
  6
CONTINUOUS
100
AcDbLine
 10
222.492
 20
238.924
 30
0.0
 11
222.544
 21
238.844
 31
0.0
  0
LINE
  5
A79
100
AcDbEntity
  8
1
  6
CONTINUOUS
100
AcDbLine
 10
223.138
 20
238.099
 30
0.0
 11
223.191
 21
238.019
 31
0.0
  0
LINE
  5
A7A
100
AcDbEntity
  8
1
  6
CONTINUOUS
100
AcDbLine
 10
221.762
 20
238.658
 30
0.0
 11
221.814
 21
238.551
 31
0.0
  0
LINE
  5
A7B
100
AcDbEntity
  8
1
  6
CONTINUOUS
100
AcDbLine
 10
222.439
 20
238.764
 30
0.0
 11
222.413
 21
238.817
 31
0.0
  0
LINE
  5
A7C
100
AcDbEntity
  8
1
  6
CONTINUOUS
100
AcDbLine
 10
222.544
 20
238.844
 30
0.0
 11
222.57
 21
238.764
 31
0.0
  0
LINE
  5
A7D
100
AcDbEntity
  8
1
  6
CONTINUOUS
100
AcDbLine
 10
221.038
 20
235.94
 30
0.0
 11
221.007
 21
236.067
 31
0.0
  0
LINE
  5
A7E
100
AcDbEntity
  8
1
  6
CONTINUOUS
100
AcDbLine
 10
221.684
 20
237.993
 30
0.0
 11
221.658
 21
238.099
 31
0.0
  0
LINE
  5
A7F
100
AcDbEntity
  8
1
  6
CONTINUOUS
100
AcDbLine
 10
221.658
 20
238.551
 30
0.0
 11
221.632
 21
238.658
 31
0.0
  0
LINE
  5
A80
100
AcDbEntity
  8
1
  6
CONTINUOUS
100
AcDbLine
 10
223.008
 20
237.993
 30
0.0
 11
222.982
 21
238.099
 31
0.0
  0
LINE
  5
A81
100
AcDbEntity
  8
1
  6
CONTINUOUS
100
AcDbLine
 10
220.851
 20
235.908
 30
0.0
 11
220.82
 21
236.067
 31
0.0
  0
LINE
  5
A82
100
AcDbEntity
  8
1
  6
CONTINUOUS
100
AcDbLine
 10
221.595
 20
240.707
 30
0.0
 11
221.595
 21
240.807
 31
0.0
  0
LINE
  5
A83
100
AcDbEntity
  8
1
  6
CONTINUOUS
100
AcDbLine
 10
221.632
 20
238.658
 30
0.0
 11
221.632
 21
238.764
 31
0.0
  0
LINE
  5
A84
100
AcDbEntity
  8
1
  6
CONTINUOUS
100
AcDbLine
 10
221.658
 20
238.099
 30
0.0
 11
221.658
 21
238.152
 31
0.0
  0
LINE
  5
A85
100
AcDbEntity
  8
1
  6
CONTINUOUS
100
AcDbLine
 10
221.745
 20
240.807
 30
0.0
 11
221.745
 21
240.707
 31
0.0
  0
LINE
  5
A86
100
AcDbEntity
  8
1
  6
CONTINUOUS
100
AcDbLine
 10
221.762
 20
238.764
 30
0.0
 11
221.762
 21
238.658
 31
0.0
  0
LINE
  5
A87
100
AcDbEntity
  8
1
  6
CONTINUOUS
100
AcDbLine
 10
221.788
 20
238.152
 30
0.0
 11
221.788
 21
238.099
 31
0.0
  0
LINE
  5
A88
100
AcDbEntity
  8
1
  6
CONTINUOUS
100
AcDbLine
 10
221.845
 20
240.707
 30
0.0
 11
221.845
 21
240.807
 31
0.0
  0
LINE
  5
A89
100
AcDbEntity
  8
1
  6
CONTINUOUS
100
AcDbLine
 10
221.87
 20
240.807
 30
0.0
 11
221.87
 21
240.407
 31
0.0
  0
LINE
  5
A8A
100
AcDbEntity
  8
1
  6
CONTINUOUS
100
AcDbLine
 10
221.882
 20
236.865
 30
0.0
 11
221.882
 21
235.748
 31
0.0
  0
LINE
  5
A8B
100
AcDbEntity
  8
1
  6
CONTINUOUS
100
AcDbLine
 10
222.07
 20
237.057
 30
0.0
 11
222.07
 21
235.557
 31
0.0
  0
LINE
  5
A8C
100
AcDbEntity
  8
1
  6
CONTINUOUS
100
AcDbLine
 10
222.153
 20
238.471
 30
0.0
 11
222.153
 21
238.365
 31
0.0
  0
LINE
  5
A8D
100
AcDbEntity
  8
1
  6
CONTINUOUS
100
AcDbLine
 10
222.32
 20
235.557
 30
0.0
 11
222.32
 21
235.748
 31
0.0
  0
LINE
  5
A8E
100
AcDbEntity
  8
1
  6
CONTINUOUS
100
AcDbLine
 10
222.32
 20
236.865
 30
0.0
 11
222.32
 21
237.057
 31
0.0
  0
LINE
  5
A8F
100
AcDbEntity
  8
1
  6
CONTINUOUS
100
AcDbLine
 10
222.445
 20
236.163
 30
0.0
 11
222.445
 21
236.354
 31
0.0
  0
LINE
  5
A90
100
AcDbEntity
  8
1
  6
CONTINUOUS
100
AcDbLine
 10
222.47
 20
240.807
 30
0.0
 11
222.47
 21
240.407
 31
0.0
  0
LINE
  5
A91
100
AcDbEntity
  8
1
  6
CONTINUOUS
100
AcDbLine
 10
222.495
 20
240.807
 30
0.0
 11
222.495
 21
240.707
 31
0.0
  0
LINE
  5
A92
100
AcDbEntity
  8
1
  6
CONTINUOUS
100
AcDbLine
 10
222.595
 20
240.707
 30
0.0
 11
222.595
 21
240.807
 31
0.0
  0
LINE
  5
A93
100
AcDbEntity
  8
1
  6
CONTINUOUS
100
AcDbLine
 10
222.672
 20
247.235
 30
0.0
 11
222.672
 21
248.678
 31
0.0
  0
LINE
  5
A94
100
AcDbEntity
  8
1
  6
CONTINUOUS
100
AcDbLine
 10
222.745
 20
240.807
 30
0.0
 11
222.745
 21
240.707
 31
0.0
  0
LINE
  5
A95
100
AcDbEntity
  8
1
  6
CONTINUOUS
100
AcDbLine
 10
222.845
 20
240.707
 30
0.0
 11
222.845
 21
240.807
 31
0.0
  0
LINE
  5
A96
100
AcDbEntity
  8
1
  6
CONTINUOUS
100
AcDbLine
 10
222.92
 20
245.357
 30
0.0
 11
222.92
 21
250.607
 31
0.0
  0
LINE
  5
A97
100
AcDbEntity
  8
1
  6
CONTINUOUS
100
AcDbLine
 10
222.982
 20
238.099
 30
0.0
 11
222.982
 21
238.152
 31
0.0
  0
LINE
  5
A98
100
AcDbEntity
  8
1
  6
CONTINUOUS
100
AcDbLine
 10
222.982
 20
238.924
 30
0.0
 11
222.982
 21
239.057
 31
0.0
  0
LINE
  5
A99
100
AcDbEntity
  8
1
  6
CONTINUOUS
100
AcDbLine
 10
222.995
 20
240.807
 30
0.0
 11
222.995
 21
240.707
 31
0.0
  0
LINE
  5
A9A
100
AcDbEntity
  8
1
  6
CONTINUOUS
100
AcDbLine
 10
223.095
 20
240.707
 30
0.0
 11
223.095
 21
240.807
 31
0.0
  0
LINE
  5
A9B
100
AcDbEntity
  8
1
  6
CONTINUOUS
100
AcDbLine
 10
223.12
 20
240.807
 30
0.0
 11
223.12
 21
240.407
 31
0.0
  0
LINE
  5
A9C
100
AcDbEntity
  8
1
  6
CONTINUOUS
100
AcDbLine
 10
223.138
 20
238.152
 30
0.0
 11
223.138
 21
238.099
 31
0.0
  0
LINE
  5
A9D
100
AcDbEntity
  8
1
  6
CONTINUOUS
100
AcDbLine
 10
223.257
 20
235.748
 30
0.0
 11
223.257
 21
236.163
 31
0.0
  0
LINE
  5
A9E
100
AcDbEntity
  8
1
  6
CONTINUOUS
100
AcDbLine
 10
223.257
 20
236.354
 30
0.0
 11
223.257
 21
236.865
 31
0.0
  0
LINE
  5
A9F
100
AcDbEntity
  8
1
  6
CONTINUOUS
100
AcDbLine
 10
223.445
 20
237.057
 30
0.0
 11
223.445
 21
235.557
 31
0.0
  0
LINE
  5
AA0
100
AcDbEntity
  8
1
  6
CONTINUOUS
100
AcDbLine
 10
223.695
 20
236.865
 30
0.0
 11
223.695
 21
237.057
 31
0.0
  0
LINE
  5
AA1
100
AcDbEntity
  8
1
  6
CONTINUOUS
100
AcDbLine
 10
223.72
 20
240.807
 30
0.0
 11
223.72
 21
240.407
 31
0.0
  0
LINE
  5
AA2
100
AcDbEntity
  8
1
  6
CONTINUOUS
100
AcDbLine
 10
223.745
 20
240.807
 30
0.0
 11
223.745
 21
240.707
 31
0.0
  0
LINE
  5
AA3
100
AcDbEntity
  8
1
  6
CONTINUOUS
100
AcDbLine
 10
223.845
 20
240.707
 30
0.0
 11
223.845
 21
240.807
 31
0.0
  0
LINE
  5
AA4
100
AcDbEntity
  8
1
  6
CONTINUOUS
100
AcDbLine
 10
223.92
 20
239.057
 30
0.0
 11
223.92
 21
238.924
 31
0.0
  0
LINE
  5
AA5
100
AcDbEntity
  8
1
  6
CONTINUOUS
100
AcDbLine
 10
223.995
 20
240.807
 30
0.0
 11
223.995
 21
240.707
 31
0.0
  0
LINE
  5
AA6
100
AcDbEntity
  8
1
  6
CONTINUOUS
100
AcDbLine
 10
224.095
 20
240.707
 30
0.0
 11
224.095
 21
240.807
 31
0.0
  0
LINE
  5
AA7
100
AcDbEntity
  8
1
  6
CONTINUOUS
100
AcDbLine
 10
224.245
 20
240.807
 30
0.0
 11
224.245
 21
240.707
 31
0.0
  0
LINE
  5
AA8
100
AcDbEntity
  8
1
  6
CONTINUOUS
100
AcDbLine
 10
224.345
 20
240.707
 30
0.0
 11
224.345
 21
240.807
 31
0.0
  0
LINE
  5
AA9
100
AcDbEntity
  8
1
  6
CONTINUOUS
100
AcDbLine
 10
224.37
 20
240.807
 30
0.0
 11
224.37
 21
240.407
 31
0.0
  0
LINE
  5
AAA
100
AcDbEntity
  8
1
  6
CONTINUOUS
100
AcDbLine
 10
224.607
 20
237.807
 30
0.0
 11
224.607
 21
239.057
 31
0.0
  0
LINE
  5
AAB
100
AcDbEntity
  8
1
  6
CONTINUOUS
100
AcDbLine
 10
224.632
 20
235.557
 30
0.0
 11
224.632
 21
236.865
 31
0.0
  0
LINE
  5
AAC
100
AcDbEntity
  8
1
  6
CONTINUOUS
100
AcDbLine
 10
224.763
 20
239.057
 30
0.0
 11
224.763
 21
238.019
 31
0.0
  0
LINE
  5
AAD
100
AcDbEntity
  8
1
  6
CONTINUOUS
100
AcDbLine
 10
224.82
 20
237.057
 30
0.0
 11
224.82
 21
235.557
 31
0.0
  0
LINE
  5
AAE
100
AcDbEntity
  8
1
  6
CONTINUOUS
100
AcDbLine
 10
224.92
 20
238.205
 30
0.0
 11
224.92
 21
237.993
 31
0.0
  0
LINE
  5
AAF
100
AcDbEntity
  8
1
  6
CONTINUOUS
100
AcDbLine
 10
224.97
 20
240.807
 30
0.0
 11
224.97
 21
240.407
 31
0.0
  0
LINE
  5
AB0
100
AcDbEntity
  8
1
  6
CONTINUOUS
100
AcDbLine
 10
224.995
 20
240.807
 30
0.0
 11
224.995
 21
240.707
 31
0.0
  0
LINE
  5
AB1
100
AcDbEntity
  8
1
  6
CONTINUOUS
100
AcDbLine
 10
223.859
 20
248.899
 30
0.0
 11
223.603
 21
247.449
 31
0.0
  0
LINE
  5
AB2
100
AcDbEntity
  8
1
  6
CONTINUOUS
100
AcDbLine
 10
224.105
 20
248.855
 30
0.0
 11
223.85
 21
247.405
 31
0.0
  0
LINE
  5
AB3
100
AcDbEntity
  8
1
  6
CONTINUOUS
100
AcDbLine
 10
220.82
 20
236.546
 30
0.0
 11
220.851
 21
236.705
 31
0.0
  0
LINE
  5
AB4
100
AcDbEntity
  8
1
  6
CONTINUOUS
100
AcDbLine
 10
221.007
 20
236.546
 30
0.0
 11
221.038
 21
236.674
 31
0.0
  0
LINE
  5
AB5
100
AcDbEntity
  8
1
  6
CONTINUOUS
100
AcDbLine
 10
221.658
 20
238.152
 30
0.0
 11
221.684
 21
238.259
 31
0.0
  0
LINE
  5
AB6
100
AcDbEntity
  8
1
  6
CONTINUOUS
100
AcDbLine
 10
222.544
 20
238.099
 30
0.0
 11
222.518
 21
237.993
 31
0.0
  0
LINE
  5
AB7
100
AcDbEntity
  8
1
  6
CONTINUOUS
100
AcDbLine
 10
221.632
 20
238.764
 30
0.0
 11
221.658
 21
238.844
 31
0.0
  0
LINE
  5
AB8
100
AcDbEntity
  8
1
  6
CONTINUOUS
100
AcDbLine
 10
216.17
 20
236.447
 30
0.0
 11
216.282
 21
236.682
 31
0.0
  0
LINE
  5
AB9
100
AcDbEntity
  8
1
  6
CONTINUOUS
100
AcDbLine
 10
217.07
 20
235.978
 30
0.0
 11
217.182
 21
236.213
 31
0.0
  0
LINE
  5
ABA
100
AcDbEntity
  8
1
  6
CONTINUOUS
100
AcDbLine
 10
218.42
 20
236.588
 30
0.0
 11
218.495
 21
236.728
 31
0.0
  0
LINE
  5
ABB
100
AcDbEntity
  8
1
  6
CONTINUOUS
100
AcDbLine
 10
213.607
 20
242.313
 30
0.0
 11
213.654
 21
242.36
 31
0.0
  0
LINE
  5
ABC
100
AcDbEntity
  8
1
  6
CONTINUOUS
100
AcDbLine
 10
214.779
 20
242.36
 30
0.0
 11
214.545
 21
242.125
 31
0.0
  0
LINE
  5
ABD
100
AcDbEntity
  8
1
  6
CONTINUOUS
100
AcDbLine
 10
221.422
 20
249.4
 30
0.0
 11
220.172
 21
248.678
 31
0.0
  0
LINE
  5
ABE
100
AcDbEntity
  8
1
  6
CONTINUOUS
100
AcDbLine
 10
239.307
 20
239.138
 30
0.0
 11
239.645
 21
239.232
 31
0.0
  0
LINE
  5
ABF
100
AcDbEntity
  8
1
  6
CONTINUOUS
100
AcDbLine
 10
261.857
 20
244.433
 30
0.0
 11
261.982
 21
244.465
 31
0.0
  0
LINE
  5
AC0
100
AcDbEntity
  8
1
  6
CONTINUOUS
100
AcDbLine
 10
260.343
 20
246.63
 30
0.0
 11
260.447
 21
246.657
 31
0.0
  0
LINE
  5
AC1
100
AcDbEntity
  8
1
  6
CONTINUOUS
100
AcDbLine
 10
221.195
 20
236.833
 30
0.0
 11
221.32
 21
236.865
 31
0.0
  0
LINE
  5
AC2
100
AcDbEntity
  8
1
  6
CONTINUOUS
100
AcDbLine
 10
236.082
 20
239.325
 30
0.0
 11
235.707
 21
239.232
 31
0.0
  0
LINE
  5
AC3
100
AcDbEntity
  8
1
  6
CONTINUOUS
100
AcDbLine
 10
236.27
 20
239.653
 30
0.0
 11
236.457
 21
239.7
 31
0.0
  0
LINE
  5
AC4
100
AcDbEntity
  8
1
  6
CONTINUOUS
100
AcDbLine
 10
261.982
 20
244.657
 30
0.0
 11
261.826
 21
244.625
 31
0.0
  0
LINE
  5
AC5
100
AcDbEntity
  8
1
  6
CONTINUOUS
100
AcDbLine
 10
221.163
 20
237.025
 30
0.0
 11
221.32
 21
237.057
 31
0.0
  0
LINE
  5
AC6
100
AcDbEntity
  8
1
  6
CONTINUOUS
100
AcDbLine
 10
261.903
 20
245.54
 30
0.0
 11
262.033
 21
245.566
 31
0.0
  0
LINE
  5
AC7
100
AcDbEntity
  8
1
  6
CONTINUOUS
100
AcDbLine
 10
223.503
 20
237.94
 30
0.0
 11
223.633
 21
237.966
 31
0.0
  0
LINE
  5
AC8
100
AcDbEntity
  8
1
  6
CONTINUOUS
100
AcDbLine
 10
260.603
 20
245.54
 30
0.0
 11
260.733
 21
245.566
 31
0.0
  0
LINE
  5
AC9
100
AcDbEntity
  8
1
  6
CONTINUOUS
100
AcDbLine
 10
222.153
 20
237.94
 30
0.0
 11
222.283
 21
237.966
 31
0.0
  0
LINE
  5
ACA
100
AcDbEntity
  8
1
  6
CONTINUOUS
100
AcDbLine
 10
237.057
 20
240.31
 30
0.0
 11
236.795
 21
240.263
 31
0.0
  0
LINE
  5
ACB
100
AcDbEntity
  8
1
  6
CONTINUOUS
100
AcDbLine
 10
223.659
 20
237.833
 30
0.0
 11
223.477
 21
237.807
 31
0.0
  0
LINE
  5
ACC
100
AcDbEntity
  8
1
  6
CONTINUOUS
100
AcDbLine
 10
222.309
 20
237.833
 30
0.0
 11
222.127
 21
237.807
 31
0.0
  0
LINE
  5
ACD
100
AcDbEntity
  8
1
  6
CONTINUOUS
100
AcDbLine
 10
218.12
 20
236.119
 30
0.0
 11
217.07
 21
235.978
 31
0.0
  0
LINE
  5
ACE
100
AcDbEntity
  8
1
  6
CONTINUOUS
100
AcDbLine
 10
236.645
 20
239.372
 30
0.0
 11
236.082
 21
239.325
 31
0.0
  0
LINE
  5
ACF
100
AcDbEntity
  8
1
  6
CONTINUOUS
100
AcDbLine
 10
237.582
 20
236.825
 30
0.0
 11
236.832
 21
236.825
 31
0.0
  0
LINE
  5
AD0
100
AcDbEntity
  8
1
  6
CONTINUOUS
100
AcDbLine
 10
271.67
 20
236.857
 30
0.0
 11
271.482
 21
236.857
 31
0.0
  0
LINE
  5
AD1
100
AcDbEntity
  8
1
  6
CONTINUOUS
100
AcDbLine
 10
269.795
 20
236.857
 30
0.0
 11
269.545
 21
236.857
 31
0.0
  0
LINE
  5
AD2
100
AcDbEntity
  8
1
  6
CONTINUOUS
100
AcDbLine
 10
268.795
 20
236.857
 30
0.0
 11
268.513
 21
236.857
 31
0.0
  0
LINE
  5
AD3
100
AcDbEntity
  8
1
  6
CONTINUOUS
100
AcDbLine
 10
267.732
 20
236.857
 30
0.0
 11
267.545
 21
236.857
 31
0.0
  0
LINE
  5
AD4
100
AcDbEntity
  8
1
  6
CONTINUOUS
100
AcDbLine
 10
224.632
 20
236.865
 30
0.0
 11
223.695
 21
236.865
 31
0.0
  0
LINE
  5
AD5
100
AcDbEntity
  8
1
  6
CONTINUOUS
100
AcDbLine
 10
223.257
 20
236.865
 30
0.0
 11
222.32
 21
236.865
 31
0.0
  0
LINE
  5
AD6
100
AcDbEntity
  8
1
  6
CONTINUOUS
100
AcDbLine
 10
221.32
 20
236.865
 30
0.0
 11
221.882
 21
236.865
 31
0.0
  0
LINE
  5
AD7
100
AcDbEntity
  8
1
  6
CONTINUOUS
100
AcDbLine
 10
249.882
 20
236.872
 30
0.0
 11
248.795
 21
236.872
 31
0.0
  0
LINE
  5
AD8
100
AcDbEntity
  8
1
  6
CONTINUOUS
100
AcDbLine
 10
217.82
 20
236.916
 30
0.0
 11
217.107
 21
236.916
 31
0.0
  0
LINE
  5
AD9
100
AcDbEntity
  8
1
  6
CONTINUOUS
100
AcDbLine
 10
238.782
 20
236.966
 30
0.0
 11
238.182
 21
236.966
 31
0.0
  0
LINE
  5
ADA
100
AcDbEntity
  8
1
  6
CONTINUOUS
100
AcDbLine
 10
221.32
 20
237.057
 30
0.0
 11
222.07
 21
237.057
 31
0.0
  0
LINE
  5
ADB
100
AcDbEntity
  8
1
  6
CONTINUOUS
100
AcDbLine
 10
222.32
 20
237.057
 30
0.0
 11
223.445
 21
237.057
 31
0.0
  0
LINE
  5
ADC
100
AcDbEntity
  8
1
  6
CONTINUOUS
100
AcDbLine
 10
223.695
 20
237.057
 30
0.0
 11
224.82
 21
237.057
 31
0.0
  0
LINE
  5
ADD
100
AcDbEntity
  8
1
  6
CONTINUOUS
100
AcDbLine
 10
248.645
 20
237.06
 30
0.0
 11
247.632
 21
237.06
 31
0.0
  0
LINE
  5
ADE
100
AcDbEntity
  8
1
  6
CONTINUOUS
100
AcDbLine
 10
237.47
 20
237.341
 30
0.0
 11
237.32
 21
237.341
 31
0.0
  0
LINE
  5
ADF
100
AcDbEntity
  8
1
  6
CONTINUOUS
100
AcDbLine
 10
266.92
 20
237.607
 30
0.0
 11
265.42
 21
237.607
 31
0.0
  0
LINE
  5
AE0
100
AcDbEntity
  8
1
  6
CONTINUOUS
100
AcDbLine
 10
272.42
 20
237.607
 30
0.0
 11
273.92
 21
237.607
 31
0.0
  0
LINE
  5
AE1
100
AcDbEntity
  8
1
  6
CONTINUOUS
100
AcDbLine
 10
259.92
 20
237.657
 30
0.0
 11
259.42
 21
237.657
 31
0.0
  0
LINE
  5
AE2
100
AcDbEntity
  8
1
  6
CONTINUOUS
100
AcDbLine
 10
247.332
 20
237.716
 30
0.0
 11
246.47
 21
237.716
 31
0.0
  0
LINE
  5
AE3
100
AcDbEntity
  8
1
  6
CONTINUOUS
100
AcDbLine
 10
239.945
 20
237.763
 30
0.0
 11
240.02
 21
237.763
 31
0.0
  0
LINE
  5
AE4
100
AcDbEntity
  8
1
  6
CONTINUOUS
100
AcDbLine
 10
224.763
 20
237.807
 30
0.0
 11
224.607
 21
237.807
 31
0.0
  0
LINE
  5
AE5
100
AcDbEntity
  8
1
  6
CONTINUOUS
100
AcDbLine
 10
223.477
 20
237.807
 30
0.0
 11
223.373
 21
237.807
 31
0.0
  0
LINE
  5
AE6
100
AcDbEntity
  8
1
  6
CONTINUOUS
100
AcDbLine
 10
222.127
 20
237.807
 30
0.0
 11
222.075
 21
237.807
 31
0.0
  0
LINE
  5
AE7
100
AcDbEntity
  8
1
  6
CONTINUOUS
100
AcDbLine
 10
220.795
 20
237.807
 30
0.0
 11
220.638
 21
237.807
 31
0.0
  0
LINE
  5
AE8
100
AcDbEntity
  8
1
  6
CONTINUOUS
100
AcDbLine
 10
237.207
 20
237.81
 30
0.0
 11
237.357
 21
237.81
 31
0.0
  0
LINE
  5
AE9
100
AcDbEntity
  8
1
  6
CONTINUOUS
100
AcDbLine
 10
238.22
 20
237.81
 30
0.0
 11
238.257
 21
237.81
 31
0.0
  0
LINE
  5
AEA
100
AcDbEntity
  8
1
  6
CONTINUOUS
100
AcDbLine
 10
269.388
 20
237.846
 30
0.0
 11
269.951
 21
237.846
 31
0.0
  0
LINE
  5
AEB
100
AcDbEntity
  8
1
  6
CONTINUOUS
100
AcDbLine
 10
222.049
 20
237.94
 30
0.0
 11
222.153
 21
237.94
 31
0.0
  0
LINE
  5
AEC
100
AcDbEntity
  8
1
  6
CONTINUOUS
100
AcDbLine
 10
223.399
 20
237.94
 30
0.0
 11
223.503
 21
237.94
 31
0.0
  0
LINE
  5
AED
100
AcDbEntity
  8
1
  6
CONTINUOUS
100
AcDbLine
 10
269.357
 20
237.974
 30
0.0
 11
269.982
 21
237.974
 31
0.0
  0
LINE
  5
AEE
100
AcDbEntity
  8
1
  6
CONTINUOUS
100
AcDbLine
 10
282.791
 20
238.032
 30
0.0
 11
282.777
 21
238.032
 31
0.0
  0
LINE
  5
AEF
100
AcDbEntity
  8
1
  6
CONTINUOUS
100
AcDbLine
 10
180.562
 20
238.032
 30
0.0
 11
180.548
 21
238.032
 31
0.0
  0
LINE
  5
AF0
100
AcDbEntity
  8
1
  6
CONTINUOUS
100
AcDbLine
 10
222.413
 20
238.099
 30
0.0
 11
222.544
 21
238.099
 31
0.0
  0
LINE
  5
AF1
100
AcDbEntity
  8
1
  6
CONTINUOUS
100
AcDbLine
 10
223.763
 20
238.099
 30
0.0
 11
223.894
 21
238.099
 31
0.0
  0
LINE
  5
AF2
100
AcDbEntity
  8
1
  6
CONTINUOUS
100
AcDbLine
 10
260.42
 20
238.157
 30
0.0
 11
260.07
 21
238.157
 31
0.0
  0
LINE
  5
AF3
100
AcDbEntity
  8
1
  6
CONTINUOUS
100
AcDbLine
 10
259.27
 20
238.157
 30
0.0
 11
258.92
 21
238.157
 31
0.0
  0
LINE
  5
AF4
100
AcDbEntity
  8
1
  6
CONTINUOUS
100
AcDbLine
 10
271.482
 20
238.165
 30
0.0
 11
270.545
 21
238.165
 31
0.0
  0
LINE
  5
AF5
100
AcDbEntity
  8
1
  6
CONTINUOUS
100
AcDbLine
 10
267.545
 20
238.357
 30
0.0
 11
267.826
 21
238.357
 31
0.0
  0
LINE
  5
AF6
100
AcDbEntity
  8
1
  6
CONTINUOUS
100
AcDbLine
 10
268.607
 20
238.357
 30
0.0
 11
268.795
 21
238.357
 31
0.0
  0
LINE
  5
AF7
100
AcDbEntity
  8
1
  6
CONTINUOUS
100
AcDbLine
 10
269.045
 20
238.357
 30
0.0
 11
269.232
 21
238.357
 31
0.0
  0
LINE
  5
AF8
100
AcDbEntity
  8
1
  6
CONTINUOUS
100
AcDbLine
 10
270.107
 20
238.357
 30
0.0
 11
270.295
 21
238.357
 31
0.0
  0
LINE
  5
AF9
100
AcDbEntity
  8
1
  6
CONTINUOUS
100
AcDbLine
 10
270.545
 20
238.357
 30
0.0
 11
271.67
 21
238.357
 31
0.0
  0
LINE
  5
AFA
100
AcDbEntity
  8
1
  6
CONTINUOUS
100
AcDbLine
 10
222.153
 20
238.365
 30
0.0
 11
222.049
 21
238.365
 31
0.0
  0
LINE
  5
AFB
100
AcDbEntity
  8
1
  6
CONTINUOUS
100
AcDbLine
 10
222.049
 20
238.471
 30
0.0
 11
222.153
 21
238.471
 31
0.0
  0
LINE
  5
AFC
100
AcDbEntity
  8
1
  6
CONTINUOUS
100
AcDbLine
 10
220.638
 20
238.525
 30
0.0
 11
220.378
 21
238.525
 31
0.0
  0
LINE
  5
AFD
100
AcDbEntity
  8
1
  6
CONTINUOUS
100
AcDbLine
 10
220.795
 20
238.525
 30
0.0
 11
221.237
 21
238.525
 31
0.0
  0
LINE
  5
AFE
100
AcDbEntity
  8
1
  6
CONTINUOUS
100
AcDbLine
 10
255.42
 20
238.607
 30
0.0
 11
252.419
 21
238.607
 31
0.0
  0
LINE
  5
AFF
100
AcDbEntity
  8
1
  6
CONTINUOUS
100
AcDbLine
 10
258.92
 20
238.657
 30
0.0
 11
259.27
 21
238.657
 31
0.0
  0
LINE
  5
B00
100
AcDbEntity
  8
1
  6
CONTINUOUS
100
AcDbLine
 10
260.07
 20
238.657
 30
0.0
 11
260.42
 21
238.657
 31
0.0
  0
LINE
  5
B01
100
AcDbEntity
  8
1
  6
CONTINUOUS
100
AcDbLine
 10
220.378
 20
238.684
 30
0.0
 11
220.638
 21
238.684
 31
0.0
  0
LINE
  5
B02
100
AcDbEntity
  8
1
  6
CONTINUOUS
100
AcDbLine
 10
220.795
 20
238.684
 30
0.0
 11
221.42
 21
238.684
 31
0.0
  0
LINE
  5
B03
100
AcDbEntity
  8
1
  6
CONTINUOUS
100
AcDbLine
 10
222.57
 20
238.764
 30
0.0
 11
222.439
 21
238.764
 31
0.0
  0
LINE
  5
B04
100
AcDbEntity
  8
1
  6
CONTINUOUS
100
AcDbLine
 10
282.878
 20
238.782
 30
0.0
 11
282.777
 21
238.782
 31
0.0
  0
LINE
  5
B05
100
AcDbEntity
  8
1
  6
CONTINUOUS
100
AcDbLine
 10
180.562
 20
238.782
 30
0.0
 11
180.461
 21
238.782
 31
0.0
  0
LINE
  5
B06
100
AcDbEntity
  8
1
  6
CONTINUOUS
100
AcDbLine
 10
211.029
 20
238.797
 30
0.0
 11
209.857
 21
238.797
 31
0.0
  0
LINE
  5
B07
100
AcDbEntity
  8
1
  6
CONTINUOUS
100
AcDbLine
 10
208.732
 20
238.797
 30
0.0
 11
208.357
 21
238.797
 31
0.0
  0
LINE
  5
B08
100
AcDbEntity
  8
1
  6
CONTINUOUS
100
AcDbLine
 10
209.576
 20
238.891
 30
0.0
 11
208.826
 21
238.891
 31
0.0
  0
LINE
  5
B09
100
AcDbEntity
  8
1
  6
CONTINUOUS
100
AcDbLine
 10
223.711
 20
238.924
 30
0.0
 11
222.982
 21
238.924
 31
0.0
  0
LINE
  5
B0A
100
AcDbEntity
  8
1
  6
CONTINUOUS
100
AcDbLine
 10
222.179
 20
238.924
 30
0.0
 11
222.023
 21
238.924
 31
0.0
  0
LINE
  5
B0B
100
AcDbEntity
  8
1
  6
CONTINUOUS
100
AcDbLine
 10
245.045
 20
238.95
 30
0.0
 11
244.632
 21
238.95
 31
0.0
  0
LINE
  5
B0C
100
AcDbEntity
  8
1
  6
CONTINUOUS
100
AcDbLine
 10
244.445
 20
238.95
 30
0.0
 11
244.032
 21
238.95
 31
0.0
  0
LINE
  5
B0D
100
AcDbEntity
  8
1
  6
CONTINUOUS
100
AcDbLine
 10
210.842
 20
239.032
 30
0.0
 11
209.998
 21
239.032
 31
0.0
  0
LINE
  5
B0E
100
AcDbEntity
  8
1
  6
CONTINUOUS
100
AcDbLine
 10
220.638
 20
239.057
 30
0.0
 11
220.795
 21
239.057
 31
0.0
  0
LINE
  5
B0F
100
AcDbEntity
  8
1
  6
CONTINUOUS
100
AcDbLine
 10
221.997
 20
239.057
 30
0.0
 11
222.205
 21
239.057
 31
0.0
  0
LINE
  5
B10
100
AcDbEntity
  8
1
  6
CONTINUOUS
100
AcDbLine
 10
222.982
 20
239.057
 30
0.0
 11
223.92
 21
239.057
 31
0.0
  0
LINE
  5
B11
100
AcDbEntity
  8
1
  6
CONTINUOUS
100
AcDbLine
 10
224.607
 20
239.057
 30
0.0
 11
224.763
 21
239.057
 31
0.0
  0
LINE
  5
B12
100
AcDbEntity
  8
1
  6
CONTINUOUS
100
AcDbLine
 10
240.282
 20
239.138
 30
0.0
 11
239.27
 21
239.138
 31
0.0
  0
LINE
  5
B13
100
AcDbEntity
  8
1
  6
CONTINUOUS
100
AcDbLine
 10
259.42
 20
239.157
 30
0.0
 11
259.92
 21
239.157
 31
0.0
  0
LINE
  5
B14
100
AcDbEntity
  8
1
  6
CONTINUOUS
100
AcDbLine
 10
209.435
 20
239.172
 30
0.0
 11
208.967
 21
239.172
 31
0.0
  0
LINE
  5
B15
100
AcDbEntity
  8
1
  6
CONTINUOUS
100
AcDbLine
 10
246.207
 20
239.185
 30
0.0
 11
245.232
 21
239.185
 31
0.0
  0
LINE
  5
B16
100
AcDbEntity
  8
1
  6
CONTINUOUS
100
AcDbLine
 10
245.045
 20
239.185
 30
0.0
 11
244.632
 21
239.185
 31
0.0
  0
LINE
  5
B17
100
AcDbEntity
  8
1
  6
CONTINUOUS
100
AcDbLine
 10
244.445
 20
239.185
 30
0.0
 11
243.995
 21
239.185
 31
0.0
  0
LINE
  5
B18
100
AcDbEntity
  8
1
  6
CONTINUOUS
100
AcDbLine
 10
242.607
 20
239.185
 30
0.0
 11
241.97
 21
239.185
 31
0.0
  0
LINE
  5
B19
100
AcDbEntity
  8
1
  6
CONTINUOUS
100
AcDbLine
 10
208.732
 20
239.219
 30
0.0
 11
208.31
 21
239.219
 31
0.0
  0
LINE
  5
B1A
100
AcDbEntity
  8
1
  6
CONTINUOUS
100
AcDbLine
 10
237.845
 20
239.232
 30
0.0
 11
236.832
 21
239.232
 31
0.0
  0
LINE
  5
B1B
100
AcDbEntity
  8
1
  6
CONTINUOUS
100
AcDbLine
 10
210.045
 20
239.266
 30
0.0
 11
210.795
 21
239.266
 31
0.0
  0
LINE
  5
B1C
100
AcDbEntity
  8
1
  6
CONTINUOUS
100
AcDbLine
 10
249.807
 20
239.278
 30
0.0
 11
248.907
 21
239.278
 31
0.0
  0
LINE
  5
B1D
100
AcDbEntity
  8
1
  6
CONTINUOUS
100
AcDbLine
 10
275.145
 20
239.357
 30
0.0
 11
275.02
 21
239.357
 31
0.0
  0
LINE
  5
B1E
100
AcDbEntity
  8
1
  6
CONTINUOUS
100
AcDbLine
 10
274.228
 20
239.357
 30
0.0
 11
274.103
 21
239.357
 31
0.0
  0
LINE
  5
B1F
100
AcDbEntity
  8
1
  6
CONTINUOUS
100
AcDbLine
 10
273.936
 20
239.357
 30
0.0
 11
273.749
 21
239.357
 31
0.0
  0
LINE
  5
B20
100
AcDbEntity
  8
1
  6
CONTINUOUS
100
AcDbLine
 10
273.228
 20
239.357
 30
0.0
 11
273.103
 21
239.357
 31
0.0
  0
LINE
  5
B21
100
AcDbEntity
  8
1
  6
CONTINUOUS
100
AcDbLine
 10
272.936
 20
239.357
 30
0.0
 11
272.811
 21
239.357
 31
0.0
  0
LINE
  5
B22
100
AcDbEntity
  8
1
  6
CONTINUOUS
100
AcDbLine
 10
272.353
 20
239.357
 30
0.0
 11
272.186
 21
239.357
 31
0.0
  0
LINE
  5
B23
100
AcDbEntity
  8
1
  6
CONTINUOUS
100
AcDbLine
 10
265.186
 20
239.357
 30
0.0
 11
265.061
 21
239.357
 31
0.0
  0
LINE
  5
B24
100
AcDbEntity
  8
1
  6
CONTINUOUS
100
AcDbLine
 10
266.145
 20
239.357
 30
0.0
 11
265.353
 21
239.357
 31
0.0
  0
LINE
  5
B25
100
AcDbEntity
  8
1
  6
CONTINUOUS
100
AcDbLine
 10
264.478
 20
239.357
 30
0.0
 11
264.353
 21
239.357
 31
0.0
  0
LINE
  5
B26
100
AcDbEntity
  8
1
  6
CONTINUOUS
100
AcDbLine
 10
214.92
 20
239.357
 30
0.0
 11
212.42
 21
239.357
 31
0.0
  0
LINE
  5
B27
100
AcDbEntity
  8
1
  6
CONTINUOUS
100
AcDbLine
 10
206.92
 20
239.357
 30
0.0
 11
204.42
 21
239.357
 31
0.0
  0
LINE
  5
B28
100
AcDbEntity
  8
1
  6
CONTINUOUS
100
AcDbLine
 10
243.657
 20
239.372
 30
0.0
 11
242.832
 21
239.372
 31
0.0
  0
LINE
  5
B29
100
AcDbEntity
  8
1
  6
CONTINUOUS
100
AcDbLine
 10
196.27
 20
239.407
 30
0.0
 11
196.07
 21
239.407
 31
0.0
  0
LINE
  5
B2A
100
AcDbEntity
  8
1
  6
CONTINUOUS
100
AcDbLine
 10
195.07
 20
239.407
 30
0.0
 11
194.845
 21
239.407
 31
0.0
  0
LINE
  5
B2B
100
AcDbEntity
  8
1
  6
CONTINUOUS
100
AcDbLine
 10
194.145
 20
239.407
 30
0.0
 11
193.995
 21
239.407
 31
0.0
  0
LINE
  5
B2C
100
AcDbEntity
  8
1
  6
CONTINUOUS
100
AcDbLine
 10
191.595
 20
239.407
 30
0.0
 11
191.445
 21
239.407
 31
0.0
  0
LINE
  5
B2D
100
AcDbEntity
  8
1
  6
CONTINUOUS
100
AcDbLine
 10
190.745
 20
239.407
 30
0.0
 11
190.595
 21
239.407
 31
0.0
  0
LINE
  5
B2E
100
AcDbEntity
  8
1
  6
CONTINUOUS
100
AcDbLine
 10
245.72
 20
239.419
 30
0.0
 11
245.607
 21
239.419
 31
0.0
  0
LINE
  5
B2F
100
AcDbEntity
  8
1
  6
CONTINUOUS
100
AcDbLine
 10
244.445
 20
239.419
 30
0.0
 11
243.995
 21
239.419
 31
0.0
  0
LINE
  5
B30
100
AcDbEntity
  8
1
  6
CONTINUOUS
100
AcDbLine
 10
244.632
 20
239.419
 30
0.0
 11
245.045
 21
239.419
 31
0.0
  0
LINE
  5
B31
100
AcDbEntity
  8
1
  6
CONTINUOUS
100
AcDbLine
 10
209.435
 20
239.453
 30
0.0
 11
208.967
 21
239.453
 31
0.0
  0
LINE
  5
B32
100
AcDbEntity
  8
1
  6
CONTINUOUS
100
AcDbLine
 10
237.282
 20
239.466
 30
0.0
 11
236.982
 21
239.466
 31
0.0
  0
LINE
  5
B33
100
AcDbEntity
  8
1
  6
CONTINUOUS
100
AcDbLine
 10
265.353
 20
239.49
 30
0.0
 11
265.686
 21
239.49
 31
0.0
  0
LINE
  5
B34
100
AcDbEntity
  8
1
  6
CONTINUOUS
100
AcDbLine
 10
265.811
 20
239.49
 30
0.0
 11
266.145
 21
239.49
 31
0.0
  0
LINE
  5
B35
100
AcDbEntity
  8
1
  6
CONTINUOUS
100
AcDbLine
 10
180.461
 20
239.532
 30
0.0
 11
180.562
 21
239.532
 31
0.0
  0
LINE
  5
B36
100
AcDbEntity
  8
1
  6
CONTINUOUS
100
AcDbLine
 10
282.777
 20
239.532
 30
0.0
 11
282.878
 21
239.532
 31
0.0
  0
LINE
  5
B37
100
AcDbEntity
  8
1
  6
CONTINUOUS
100
AcDbLine
 10
247.445
 20
239.56
 30
0.0
 11
246.432
 21
239.56
 31
0.0
  0
LINE
  5
B38
100
AcDbEntity
  8
1
  6
CONTINUOUS
100
AcDbLine
 10
253.779
 20
239.591
 30
0.0
 11
252.607
 21
239.591
 31
0.0
  0
LINE
  5
B39
100
AcDbEntity
  8
1
  6
CONTINUOUS
100
AcDbLine
 10
194.845
 20
239.598
 30
0.0
 11
195.07
 21
239.598
 31
0.0
  0
LINE
  5
B3A
100
AcDbEntity
  8
1
  6
CONTINUOUS
100
AcDbLine
 10
244.895
 20
239.607
 30
0.0
 11
244.145
 21
239.607
 31
0.0
  0
LINE
  5
B3B
100
AcDbEntity
  8
1
  6
CONTINUOUS
100
AcDbLine
 10
208.31
 20
239.641
 30
0.0
 11
208.732
 21
239.641
 31
0.0
  0
LINE
  5
B3C
100
AcDbEntity
  8
1
  6
CONTINUOUS
100
AcDbLine
 10
236.082
 20
239.653
 30
0.0
 11
236.27
 21
239.653
 31
0.0
  0
LINE
  5
B3D
100
AcDbEntity
  8
1
  6
CONTINUOUS
100
AcDbLine
 10
254.951
 20
239.685
 30
0.0
 11
254.107
 21
239.685
 31
0.0
  0
LINE
  5
B3E
100
AcDbEntity
  8
1
  6
CONTINUOUS
100
AcDbLine
 10
209.576
 20
239.735
 30
0.0
 11
208.826
 21
239.735
 31
0.0
  0
LINE
  5
B3F
100
AcDbEntity
  8
1
  6
CONTINUOUS
100
AcDbLine
 10
242.27
 20
239.747
 30
0.0
 11
242.082
 21
239.747
 31
0.0
  0
LINE
  5
B40
100
AcDbEntity
  8
1
  6
CONTINUOUS
100
AcDbLine
 10
210.795
 20
239.782
 30
0.0
 11
210.045
 21
239.782
 31
0.0
  0
LINE
  5
B41
100
AcDbEntity
  8
1
  6
CONTINUOUS
100
AcDbLine
 10
194.495
 20
239.79
 30
0.0
 11
194.645
 21
239.79
 31
0.0
  0
LINE
  5
B42
100
AcDbEntity
  8
1
  6
CONTINUOUS
100
AcDbLine
 10
220.32
 20
239.807
 30
0.0
 11
225.32
 21
239.807
 31
0.0
  0
LINE
  5
B43
100
AcDbEntity
  8
1
  6
CONTINUOUS
100
AcDbLine
 10
252.513
 20
239.825
 30
0.0
 11
253.873
 21
239.825
 31
0.0
  0
LINE
  5
B44
100
AcDbEntity
  8
1
  6
CONTINUOUS
100
AcDbLine
 10
244.107
 20
239.841
 30
0.0
 11
244.932
 21
239.841
 31
0.0
  0
LINE
  5
B45
100
AcDbEntity
  8
1
  6
CONTINUOUS
100
AcDbLine
 10
252.748
 20
240.013
 30
0.0
 11
253.638
 21
240.013
 31
0.0
  0
LINE
  5
B46
100
AcDbEntity
  8
1
  6
CONTINUOUS
100
AcDbLine
 10
208.357
 20
240.11
 30
0.0
 11
208.404
 21
240.11
 31
0.0
  0
LINE
  5
B47
100
AcDbEntity
  8
1
  6
CONTINUOUS
100
AcDbLine
 10
209.857
 20
240.11
 30
0.0
 11
209.904
 21
240.11
 31
0.0
  0
LINE
  5
B48
100
AcDbEntity
  8
1
  6
CONTINUOUS
100
AcDbLine
 10
254.904
 20
240.2
 30
0.0
 11
254.154
 21
240.2
 31
0.0
  0
LINE
  5
B49
100
AcDbEntity
  8
1
  6
CONTINUOUS
100
AcDbLine
 10
253.638
 20
240.2
 30
0.0
 11
252.748
 21
240.2
 31
0.0
  0
LINE
  5
B4A
100
AcDbEntity
  8
1
  6
CONTINUOUS
100
AcDbLine
 10
241.257
 20
240.263
 30
0.0
 11
241.22
 21
240.263
 31
0.0
  0
LINE
  5
B4B
100
AcDbEntity
  8
1
  6
CONTINUOUS
100
AcDbLine
 10
235.257
 20
240.263
 30
0.0
 11
235.22
 21
240.263
 31
0.0
  0
LINE
  5
B4C
100
AcDbEntity
  8
1
  6
CONTINUOUS
100
AcDbLine
 10
242.007
 20
240.263
 30
0.0
 11
242.157
 21
240.263
 31
0.0
  0
LINE
  5
B4D
100
AcDbEntity
  8
1
  6
CONTINUOUS
100
AcDbLine
 10
180.548
 20
240.282
 30
0.0
 11
180.562
 21
240.282
 31
0.0
  0
LINE
  5
B4E
100
AcDbEntity
  8
1
  6
CONTINUOUS
100
AcDbLine
 10
282.777
 20
240.282
 30
0.0
 11
282.791
 21
240.282
 31
0.0
  0
LINE
  5
B4F
100
AcDbEntity
  8
1
  6
CONTINUOUS
100
AcDbLine
 10
245.57
 20
240.31
 30
0.0
 11
245.27
 21
240.31
 31
0.0
  0
LINE
  5
B50
100
AcDbEntity
  8
1
  6
CONTINUOUS
100
AcDbLine
 10
237.432
 20
240.31
 30
0.0
 11
237.057
 21
240.31
 31
0.0
  0
LINE
  5
B51
100
AcDbEntity
  8
1
  6
CONTINUOUS
100
AcDbLine
 10
236.157
 20
240.31
 30
0.0
 11
235.857
 21
240.31
 31
0.0
  0
LINE
  5
B52
100
AcDbEntity
  8
1
  6
CONTINUOUS
100
AcDbLine
 10
244.032
 20
240.31
 30
0.0
 11
244.145
 21
240.31
 31
0.0
  0
LINE
  5
B53
100
AcDbEntity
  8
1
  6
CONTINUOUS
100
AcDbLine
 10
249.132
 20
240.31
 30
0.0
 11
249.207
 21
240.31
 31
0.0
  0
LINE
  5
B54
100
AcDbEntity
  8
1
  6
CONTINUOUS
100
AcDbLine
 10
221.893
 20
238.498
 30
0.0
 11
222.049
 21
238.471
 31
0.0
  0
LINE
  5
B55
100
AcDbEntity
  8
1
  6
CONTINUOUS
100
AcDbLine
 10
222.309
 20
238.897
 30
0.0
 11
222.179
 21
238.924
 31
0.0
  0
LINE
  5
B56
100
AcDbEntity
  8
1
  6
CONTINUOUS
100
AcDbLine
 10
196.57
 20
245.501
 30
0.0
 11
196.817
 21
245.445
 31
0.0
  0
LINE
  5
B57
100
AcDbEntity
  8
1
  6
CONTINUOUS
100
AcDbLine
 10
196.817
 20
245.445
 30
0.0
 11
197.07
 21
245.39
 31
0.0
  0
LINE
  5
B58
100
AcDbEntity
  8
1
  6
CONTINUOUS
100
AcDbLine
 10
190.82
 20
248.312
 30
0.0
 11
190.573
 21
248.368
 31
0.0
  0
LINE
  5
B59
100
AcDbEntity
  8
1
  6
CONTINUOUS
100
AcDbLine
 10
190.573
 20
248.368
 30
0.0
 11
190.32
 21
248.423
 31
0.0
  0
LINE
  5
B5A
100
AcDbEntity
  8
1
  6
CONTINUOUS
100
AcDbLine
 10
239.682
 20
236.591
 30
0.0
 11
239.495
 21
236.638
 31
0.0
  0
LINE
  5
B5B
100
AcDbEntity
  8
1
  6
CONTINUOUS
100
AcDbLine
 10
222.205
 20
239.057
 30
0.0
 11
222.309
 21
239.03
 31
0.0
  0
LINE
  5
B5C
100
AcDbEntity
  8
1
  6
CONTINUOUS
100
AcDbLine
 10
213.701
 20
242.36
 30
0.0
 11
214.123
 21
242.219
 31
0.0
  0
LINE
  5
B5D
100
AcDbEntity
  8
1
  6
CONTINUOUS
100
AcDbLine
 10
237.32
 20
237.341
 30
0.0
 11
237.095
 21
237.435
 31
0.0
  0
LINE
  5
B5E
100
AcDbEntity
  8
1
  6
CONTINUOUS
100
AcDbLine
 10
225.095
 20
240.707
 30
0.0
 11
225.095
 21
240.807
 31
0.0
  0
LINE
  5
B5F
100
AcDbEntity
  8
1
  6
CONTINUOUS
100
AcDbLine
 10
225.245
 20
240.807
 30
0.0
 11
225.245
 21
240.707
 31
0.0
  0
LINE
  5
B60
100
AcDbEntity
  8
1
  6
CONTINUOUS
100
AcDbLine
 10
225.32
 20
239.807
 30
0.0
 11
225.32
 21
240.807
 31
0.0
  0
LINE
  5
B61
100
AcDbEntity
  8
1
  6
CONTINUOUS
100
AcDbLine
 10
226.107
 20
244.56
 30
0.0
 11
226.107
 21
243.435
 31
0.0
  0
LINE
  5
B62
100
AcDbEntity
  8
1
  6
CONTINUOUS
100
AcDbLine
 10
226.342
 20
243.575
 30
0.0
 11
226.342
 21
244.278
 31
0.0
  0
LINE
  5
B63
100
AcDbEntity
  8
1
  6
CONTINUOUS
100
AcDbLine
 10
226.717
 20
243.247
 30
0.0
 11
226.717
 21
244.278
 31
0.0
  0
LINE
  5
B64
100
AcDbEntity
  8
1
  6
CONTINUOUS
100
AcDbLine
 10
227.092
 20
244.278
 30
0.0
 11
227.092
 21
243.528
 31
0.0
  0
LINE
  5
B65
100
AcDbEntity
  8
1
  6
CONTINUOUS
100
AcDbLine
 10
227.326
 20
243.435
 30
0.0
 11
227.326
 21
244.56
 31
0.0
  0
LINE
  5
B66
100
AcDbEntity
  8
1
  6
CONTINUOUS
100
AcDbLine
 10
227.67
 20
242.157
 30
0.0
 11
227.67
 21
234.157
 31
0.0
  0
LINE
  5
B67
100
AcDbEntity
  8
1
  6
CONTINUOUS
100
AcDbLine
 10
227.92
 20
242.007
 30
0.0
 11
227.92
 21
234.807
 31
0.0
  0
LINE
  5
B68
100
AcDbEntity
  8
1
  6
CONTINUOUS
100
AcDbLine
 10
228.17
 20
243.716
 30
0.0
 11
228.17
 21
244.56
 31
0.0
  0
LINE
  5
B69
100
AcDbEntity
  8
1
  6
CONTINUOUS
100
AcDbLine
 10
222.982
 20
238.152
 30
0.0
 11
223.008
 21
238.259
 31
0.0
  0
LINE
  5
B6A
100
AcDbEntity
  8
1
  6
CONTINUOUS
100
AcDbLine
 10
223.894
 20
238.099
 30
0.0
 11
223.868
 21
237.993
 31
0.0
  0
LINE
  5
B6B
100
AcDbEntity
  8
1
  6
CONTINUOUS
100
AcDbLine
 10
221.788
 20
238.817
 30
0.0
 11
221.762
 21
238.764
 31
0.0
  0
LINE
  5
B6C
100
AcDbEntity
  8
1
  6
CONTINUOUS
100
AcDbLine
 10
220.851
 20
236.705
 30
0.0
 11
220.913
 21
236.833
 31
0.0
  0
LINE
  5
B6D
100
AcDbEntity
  8
1
  6
CONTINUOUS
100
AcDbLine
 10
221.841
 20
238.259
 30
0.0
 11
221.788
 21
238.152
 31
0.0
  0
LINE
  5
B6E
100
AcDbEntity
  8
1
  6
CONTINUOUS
100
AcDbLine
 10
223.191
 20
238.259
 30
0.0
 11
223.138
 21
238.152
 31
0.0
  0
LINE
  5
B6F
100
AcDbEntity
  8
1
  6
CONTINUOUS
100
AcDbLine
 10
221.658
 20
238.844
 30
0.0
 11
221.71
 21
238.924
 31
0.0
  0
LINE
  5
B70
100
AcDbEntity
  8
1
  6
CONTINUOUS
100
AcDbLine
 10
221.684
 20
238.259
 30
0.0
 11
221.736
 21
238.338
 31
0.0
  0
LINE
  5
B71
100
AcDbEntity
  8
1
  6
CONTINUOUS
100
AcDbLine
 10
221.038
 20
236.674
 30
0.0
 11
221.101
 21
236.769
 31
0.0
  0
LINE
  5
B72
100
AcDbEntity
  8
1
  6
CONTINUOUS
100
AcDbLine
 10
216.282
 20
236.682
 30
0.0
 11
216.432
 21
236.869
 31
0.0
  0
LINE
  5
B73
100
AcDbEntity
  8
1
  6
CONTINUOUS
100
AcDbLine
 10
217.182
 20
236.213
 30
0.0
 11
217.295
 21
236.353
 31
0.0
  0
LINE
  5
B74
100
AcDbEntity
  8
1
  6
CONTINUOUS
100
AcDbLine
 10
221.422
 20
246.513
 30
0.0
 11
222.672
 21
247.235
 31
0.0
  0
LINE
  5
B75
100
AcDbEntity
  8
1
  6
CONTINUOUS
100
AcDbLine
 10
194.845
 20
240.715
 30
0.0
 11
194.745
 21
240.683
 31
0.0
  0
LINE
  5
B76
100
AcDbEntity
  8
1
  6
CONTINUOUS
100
AcDbLine
 10
195.07
 20
239.598
 30
0.0
 11
195.17
 21
239.63
 31
0.0
  0
LINE
  5
B77
100
AcDbEntity
  8
1
  6
CONTINUOUS
100
AcDbLine
 10
221.893
 20
239.03
 30
0.0
 11
221.997
 21
239.057
 31
0.0
  0
LINE
  5
B78
100
AcDbEntity
  8
1
  6
CONTINUOUS
100
AcDbLine
 10
260.473
 20
246.524
 30
0.0
 11
260.343
 21
246.497
 31
0.0
  0
LINE
  5
B79
100
AcDbEntity
  8
1
  6
CONTINUOUS
100
AcDbLine
 10
222.023
 20
238.924
 30
0.0
 11
221.893
 21
238.897
 31
0.0
  0
LINE
  5
B7A
100
AcDbEntity
  8
1
  6
CONTINUOUS
100
AcDbLine
 10
262.059
 20
245.433
 30
0.0
 11
261.877
 21
245.407
 31
0.0
  0
LINE
  5
B7B
100
AcDbEntity
  8
1
  6
CONTINUOUS
100
AcDbLine
 10
260.759
 20
245.433
 30
0.0
 11
260.577
 21
245.407
 31
0.0
  0
LINE
  5
B7C
100
AcDbEntity
  8
1
  6
CONTINUOUS
100
AcDbLine
 10
282.501
 20
247.654
 30
0.0
 11
281.67
 21
247.582
 31
0.0
  0
LINE
  5
B7D
100
AcDbEntity
  8
1
  6
CONTINUOUS
100
AcDbLine
 10
253.638
 20
240.388
 30
0.0
 11
252.748
 21
240.388
 31
0.0
  0
LINE
  5
B7E
100
AcDbEntity
  8
1
  6
CONTINUOUS
100
AcDbLine
 10
195.945
 20
240.396
 30
0.0
 11
196.395
 21
240.396
 31
0.0
  0
LINE
  5
B7F
100
AcDbEntity
  8
1
  6
CONTINUOUS
100
AcDbLine
 10
224.97
 20
240.407
 30
0.0
 11
224.37
 21
240.407
 31
0.0
  0
LINE
  5
B80
100
AcDbEntity
  8
1
  6
CONTINUOUS
100
AcDbLine
 10
223.72
 20
240.407
 30
0.0
 11
223.12
 21
240.407
 31
0.0
  0
LINE
  5
B81
100
AcDbEntity
  8
1
  6
CONTINUOUS
100
AcDbLine
 10
222.47
 20
240.407
 30
0.0
 11
221.87
 21
240.407
 31
0.0
  0
LINE
  5
B82
100
AcDbEntity
  8
1
  6
CONTINUOUS
100
AcDbLine
 10
221.22
 20
240.407
 30
0.0
 11
220.62
 21
240.407
 31
0.0
  0
LINE
  5
B83
100
AcDbEntity
  8
1
  6
CONTINUOUS
100
AcDbLine
 10
275.02
 20
240.447
 30
0.0
 11
274.395
 21
240.447
 31
0.0
  0
LINE
  5
B84
100
AcDbEntity
  8
1
  6
CONTINUOUS
100
AcDbLine
 10
194.645
 20
240.524
 30
0.0
 11
194.495
 21
240.524
 31
0.0
  0
LINE
  5
B85
100
AcDbEntity
  8
1
  6
CONTINUOUS
100
AcDbLine
 10
195.92
 20
240.524
 30
0.0
 11
196.42
 21
240.524
 31
0.0
  0
LINE
  5
B86
100
AcDbEntity
  8
1
  6
CONTINUOUS
100
AcDbLine
 10
264.353
 20
240.607
 30
0.0
 11
264.478
 21
240.607
 31
0.0
  0
LINE
  5
B87
100
AcDbEntity
  8
1
  6
CONTINUOUS
100
AcDbLine
 10
265.061
 20
240.607
 30
0.0
 11
265.186
 21
240.607
 31
0.0
  0
LINE
  5
B88
100
AcDbEntity
  8
1
  6
CONTINUOUS
100
AcDbLine
 10
265.686
 20
240.607
 30
0.0
 11
265.811
 21
240.607
 31
0.0
  0
LINE
  5
B89
100
AcDbEntity
  8
1
  6
CONTINUOUS
100
AcDbLine
 10
272.186
 20
240.607
 30
0.0
 11
272.353
 21
240.607
 31
0.0
  0
LINE
  5
B8A
100
AcDbEntity
  8
1
  6
CONTINUOUS
100
AcDbLine
 10
272.811
 20
240.607
 30
0.0
 11
272.936
 21
240.607
 31
0.0
  0
LINE
  5
B8B
100
AcDbEntity
  8
1
  6
CONTINUOUS
100
AcDbLine
 10
273.103
 20
240.607
 30
0.0
 11
273.291
 21
240.607
 31
0.0
  0
LINE
  5
B8C
100
AcDbEntity
  8
1
  6
CONTINUOUS
100
AcDbLine
 10
273.811
 20
240.607
 30
0.0
 11
273.936
 21
240.607
 31
0.0
  0
LINE
  5
B8D
100
AcDbEntity
  8
1
  6
CONTINUOUS
100
AcDbLine
 10
274.103
 20
240.607
 30
0.0
 11
274.228
 21
240.607
 31
0.0
  0
LINE
  5
B8E
100
AcDbEntity
  8
1
  6
CONTINUOUS
100
AcDbLine
 10
274.395
 20
240.607
 30
0.0
 11
275.145
 21
240.607
 31
0.0
  0
LINE
  5
B8F
100
AcDbEntity
  8
1
  6
CONTINUOUS
100
AcDbLine
 10
224.97
 20
240.682
 30
0.0
 11
224.37
 21
240.682
 31
0.0
  0
LINE
  5
B90
100
AcDbEntity
  8
1
  6
CONTINUOUS
100
AcDbLine
 10
223.72
 20
240.682
 30
0.0
 11
223.12
 21
240.682
 31
0.0
  0
LINE
  5
B91
100
AcDbEntity
  8
1
  6
CONTINUOUS
100
AcDbLine
 10
222.47
 20
240.682
 30
0.0
 11
221.87
 21
240.682
 31
0.0
  0
LINE
  5
B92
100
AcDbEntity
  8
1
  6
CONTINUOUS
100
AcDbLine
 10
221.22
 20
240.682
 30
0.0
 11
220.62
 21
240.682
 31
0.0
  0
LINE
  5
B93
100
AcDbEntity
  8
1
  6
CONTINUOUS
100
AcDbLine
 10
220.495
 20
240.707
 30
0.0
 11
220.595
 21
240.707
 31
0.0
  0
LINE
  5
B94
100
AcDbEntity
  8
1
  6
CONTINUOUS
100
AcDbLine
 10
220.32
 20
240.707
 30
0.0
 11
220.345
 21
240.707
 31
0.0
  0
LINE
  5
B95
100
AcDbEntity
  8
1
  6
CONTINUOUS
100
AcDbLine
 10
221.245
 20
240.707
 30
0.0
 11
221.345
 21
240.707
 31
0.0
  0
LINE
  5
B96
100
AcDbEntity
  8
1
  6
CONTINUOUS
100
AcDbLine
 10
221.745
 20
240.707
 30
0.0
 11
221.845
 21
240.707
 31
0.0
  0
LINE
  5
B97
100
AcDbEntity
  8
1
  6
CONTINUOUS
100
AcDbLine
 10
221.495
 20
240.707
 30
0.0
 11
221.595
 21
240.707
 31
0.0
  0
LINE
  5
B98
100
AcDbEntity
  8
1
  6
CONTINUOUS
100
AcDbLine
 10
222.495
 20
240.707
 30
0.0
 11
222.595
 21
240.707
 31
0.0
  0
LINE
  5
B99
100
AcDbEntity
  8
1
  6
CONTINUOUS
100
AcDbLine
 10
222.995
 20
240.707
 30
0.0
 11
223.095
 21
240.707
 31
0.0
  0
LINE
  5
B9A
100
AcDbEntity
  8
1
  6
CONTINUOUS
100
AcDbLine
 10
222.745
 20
240.707
 30
0.0
 11
222.845
 21
240.707
 31
0.0
  0
LINE
  5
B9B
100
AcDbEntity
  8
1
  6
CONTINUOUS
100
AcDbLine
 10
223.745
 20
240.707
 30
0.0
 11
223.845
 21
240.707
 31
0.0
  0
LINE
  5
B9C
100
AcDbEntity
  8
1
  6
CONTINUOUS
100
AcDbLine
 10
224.245
 20
240.707
 30
0.0
 11
224.345
 21
240.707
 31
0.0
  0
LINE
  5
B9D
100
AcDbEntity
  8
1
  6
CONTINUOUS
100
AcDbLine
 10
223.995
 20
240.707
 30
0.0
 11
224.095
 21
240.707
 31
0.0
  0
LINE
  5
B9E
100
AcDbEntity
  8
1
  6
CONTINUOUS
100
AcDbLine
 10
224.995
 20
240.707
 30
0.0
 11
225.095
 21
240.707
 31
0.0
  0
LINE
  5
B9F
100
AcDbEntity
  8
1
  6
CONTINUOUS
100
AcDbLine
 10
225.245
 20
240.707
 30
0.0
 11
225.32
 21
240.707
 31
0.0
  0
LINE
  5
BA0
100
AcDbEntity
  8
1
  6
CONTINUOUS
100
AcDbLine
 10
195.07
 20
240.715
 30
0.0
 11
194.845
 21
240.715
 31
0.0
  0
LINE
  5
BA1
100
AcDbEntity
  8
1
  6
CONTINUOUS
100
AcDbLine
 10
254.013
 20
240.763
 30
0.0
 11
255.045
 21
240.763
 31
0.0
  0
LINE
  5
BA2
100
AcDbEntity
  8
1
  6
CONTINUOUS
100
AcDbLine
 10
225.32
 20
240.807
 30
0.0
 11
220.32
 21
240.807
 31
0.0
  0
LINE
  5
BA3
100
AcDbEntity
  8
1
  6
CONTINUOUS
100
AcDbLine
 10
253.404
 20
240.81
 30
0.0
 11
252.888
 21
240.81
 31
0.0
  0
LINE
  5
BA4
100
AcDbEntity
  8
1
  6
CONTINUOUS
100
AcDbLine
 10
190.995
 20
240.907
 30
0.0
 11
191.195
 21
240.907
 31
0.0
  0
LINE
  5
BA5
100
AcDbEntity
  8
1
  6
CONTINUOUS
100
AcDbLine
 10
193.995
 20
240.907
 30
0.0
 11
194.145
 21
240.907
 31
0.0
  0
LINE
  5
BA6
100
AcDbEntity
  8
1
  6
CONTINUOUS
100
AcDbLine
 10
194.845
 20
240.907
 30
0.0
 11
195.07
 21
240.907
 31
0.0
  0
LINE
  5
BA7
100
AcDbEntity
  8
1
  6
CONTINUOUS
100
AcDbLine
 10
195.67
 20
240.907
 30
0.0
 11
195.82
 21
240.907
 31
0.0
  0
LINE
  5
BA8
100
AcDbEntity
  8
1
  6
CONTINUOUS
100
AcDbLine
 10
196.52
 20
240.907
 30
0.0
 11
196.67
 21
240.907
 31
0.0
  0
LINE
  5
BA9
100
AcDbEntity
  8
1
  6
CONTINUOUS
100
AcDbLine
 10
205.638
 20
241.047
 30
0.0
 11
205.123
 21
241.047
 31
0.0
  0
LINE
  5
BAA
100
AcDbEntity
  8
1
  6
CONTINUOUS
100
AcDbLine
 10
214.826
 20
241.235
 30
0.0
 11
213.607
 21
241.235
 31
0.0
  0
LINE
  5
BAB
100
AcDbEntity
  8
1
  6
CONTINUOUS
100
AcDbLine
 10
204.326
 20
241.235
 30
0.0
 11
203.107
 21
241.235
 31
0.0
  0
LINE
  5
BAC
100
AcDbEntity
  8
1
  6
CONTINUOUS
100
AcDbLine
 10
231.92
 20
241.357
 30
0.0
 11
256.42
 21
241.357
 31
0.0
  0
LINE
  5
BAD
100
AcDbEntity
  8
1
  6
CONTINUOUS
100
AcDbLine
 10
265.42
 20
241.357
 30
0.0
 11
273.92
 21
241.357
 31
0.0
  0
LINE
  5
BAE
100
AcDbEntity
  8
1
  6
CONTINUOUS
100
AcDbLine
 10
216.232
 20
241.563
 30
0.0
 11
215.201
 21
241.563
 31
0.0
  0
LINE
  5
BAF
100
AcDbEntity
  8
1
  6
CONTINUOUS
100
AcDbLine
 10
265.42
 20
241.607
 30
0.0
 11
273.92
 21
241.607
 31
0.0
  0
LINE
  5
BB0
100
AcDbEntity
  8
1
  6
CONTINUOUS
100
AcDbLine
 10
268.47
 20
241.807
 30
0.0
 11
270.87
 21
241.807
 31
0.0
  0
LINE
  5
BB1
100
AcDbEntity
  8
1
  6
CONTINUOUS
100
AcDbLine
 10
228.42
 20
242.007
 30
0.0
 11
227.67
 21
242.007
 31
0.0
  0
LINE
  5
BB2
100
AcDbEntity
  8
1
  6
CONTINUOUS
100
AcDbLine
 10
228.57
 20
242.157
 30
0.0
 11
227.67
 21
242.157
 31
0.0
  0
LINE
  5
BB3
100
AcDbEntity
  8
1
  6
CONTINUOUS
100
AcDbLine
 10
216.326
 20
242.36
 30
0.0
 11
215.107
 21
242.36
 31
0.0
  0
LINE
  5
BB4
100
AcDbEntity
  8
1
  6
CONTINUOUS
100
AcDbLine
 10
203.154
 20
242.36
 30
0.0
 11
203.201
 21
242.36
 31
0.0
  0
LINE
  5
BB5
100
AcDbEntity
  8
1
  6
CONTINUOUS
100
AcDbLine
 10
213.654
 20
242.36
 30
0.0
 11
213.701
 21
242.36
 31
0.0
  0
LINE
  5
BB6
100
AcDbEntity
  8
1
  6
CONTINUOUS
100
AcDbLine
 10
260.57
 20
242.607
 30
0.0
 11
229.02
 21
242.607
 31
0.0
  0
LINE
  5
BB7
100
AcDbEntity
  8
1
  6
CONTINUOUS
100
AcDbLine
 10
272.795
 20
242.707
 30
0.0
 11
270.87
 21
242.707
 31
0.0
  0
LINE
  5
BB8
100
AcDbEntity
  8
1
  6
CONTINUOUS
100
AcDbLine
 10
268.47
 20
242.707
 30
0.0
 11
266.545
 21
242.707
 31
0.0
  0
LINE
  5
BB9
100
AcDbEntity
  8
1
  6
CONTINUOUS
100
AcDbLine
 10
251.17
 20
243.107
 30
0.0
 11
250.982
 21
243.107
 31
0.0
  0
LINE
  5
BBA
100
AcDbEntity
  8
1
  6
CONTINUOUS
100
AcDbLine
 10
202.92
 20
243.107
 30
0.0
 11
216.42
 21
243.107
 31
0.0
  0
LINE
  5
BBB
100
AcDbEntity
  8
1
  6
CONTINUOUS
100
AcDbLine
 10
261.263
 20
243.157
 30
0.0
 11
261.076
 21
243.157
 31
0.0
  0
LINE
  5
BBC
100
AcDbEntity
  8
1
  6
CONTINUOUS
100
AcDbLine
 10
260.638
 20
243.157
 30
0.0
 11
260.388
 21
243.157
 31
0.0
  0
LINE
  5
BBD
100
AcDbEntity
  8
1
  6
CONTINUOUS
100
AcDbLine
 10
259.951
 20
243.157
 30
0.0
 11
259.763
 21
243.157
 31
0.0
  0
LINE
  5
BBE
100
AcDbEntity
  8
1
  6
CONTINUOUS
100
AcDbLine
 10
262.013
 20
243.157
 30
0.0
 11
262.17
 21
243.157
 31
0.0
  0
LINE
  5
BBF
100
AcDbEntity
  8
1
  6
CONTINUOUS
100
AcDbLine
 10
250.373
 20
243.247
 30
0.0
 11
249.06
 21
243.247
 31
0.0
  0
LINE
  5
BC0
100
AcDbEntity
  8
1
  6
CONTINUOUS
100
AcDbLine
 10
246.623
 20
243.247
 30
0.0
 11
245.31
 21
243.247
 31
0.0
  0
LINE
  5
BC1
100
AcDbEntity
  8
1
  6
CONTINUOUS
100
AcDbLine
 10
227.373
 20
243.247
 30
0.0
 11
226.06
 21
243.247
 31
0.0
  0
LINE
  5
BC2
100
AcDbEntity
  8
1
  6
CONTINUOUS
100
AcDbLine
 10
238.763
 20
243.294
 30
0.0
 11
238.248
 21
243.294
 31
0.0
  0
LINE
  5
BC3
100
AcDbEntity
  8
1
  6
CONTINUOUS
100
AcDbLine
 10
240.545
 20
243.294
 30
0.0
 11
240.826
 21
243.294
 31
0.0
  0
LINE
  5
BC4
100
AcDbEntity
  8
1
  6
CONTINUOUS
100
AcDbLine
 10
262.17
 20
243.348
 30
0.0
 11
261.982
 21
243.348
 31
0.0
  0
LINE
  5
BC5
100
AcDbEntity
  8
1
  6
CONTINUOUS
100
AcDbLine
 10
240.357
 20
243.388
 30
0.0
 11
239.701
 21
243.388
 31
0.0
  0
LINE
  5
BC6
100
AcDbEntity
  8
1
  6
CONTINUOUS
100
AcDbLine
 10
202.92
 20
243.407
 30
0.0
 11
216.42
 21
243.407
 31
0.0
  0
LINE
  5
BC7
100
AcDbEntity
  8
1
  6
CONTINUOUS
100
AcDbLine
 10
236.326
 20
243.435
 30
0.0
 11
235.107
 21
243.435
 31
0.0
  0
LINE
  5
BC8
100
AcDbEntity
  8
1
  6
CONTINUOUS
100
AcDbLine
 10
266.545
 20
243.457
 30
0.0
 11
268.045
 21
243.457
 31
0.0
  0
LINE
  5
BC9
100
AcDbEntity
  8
1
  6
CONTINUOUS
100
AcDbLine
 10
271.295
 20
243.457
 30
0.0
 11
272.795
 21
243.457
 31
0.0
  0
LINE
  5
BCA
100
AcDbEntity
  8
1
  6
CONTINUOUS
100
AcDbLine
 10
261.795
 20
243.508
 30
0.0
 11
261.607
 21
243.508
 31
0.0
  0
LINE
  5
BCB
100
AcDbEntity
  8
1
  6
CONTINUOUS
100
AcDbLine
 10
250.092
 20
243.528
 30
0.0
 11
249.388
 21
243.528
 31
0.0
  0
LINE
  5
BCC
100
AcDbEntity
  8
1
  6
CONTINUOUS
100
AcDbLine
 10
246.342
 20
243.528
 30
0.0
 11
245.638
 21
243.528
 31
0.0
  0
LINE
  5
BCD
100
AcDbEntity
  8
1
  6
CONTINUOUS
100
AcDbLine
 10
238.998
 20
243.528
 30
0.0
 11
238.06
 21
243.528
 31
0.0
  0
LINE
  5
BCE
100
AcDbEntity
  8
1
  6
CONTINUOUS
100
AcDbLine
 10
227.092
 20
243.528
 30
0.0
 11
226.388
 21
243.528
 31
0.0
  0
LINE
  5
BCF
100
AcDbEntity
  8
1
  6
CONTINUOUS
100
AcDbLine
 10
247.888
 20
243.716
 30
0.0
 11
246.951
 21
243.716
 31
0.0
  0
LINE
  5
BD0
100
AcDbEntity
  8
1
  6
CONTINUOUS
100
AcDbLine
 10
228.638
 20
243.716
 30
0.0
 11
227.701
 21
243.716
 31
0.0
  0
LINE
  5
BD1
100
AcDbEntity
  8
1
  6
CONTINUOUS
100
AcDbLine
 10
237.732
 20
243.763
 30
0.0
 11
236.701
 21
243.763
 31
0.0
  0
LINE
  5
BD2
100
AcDbEntity
  8
1
  6
CONTINUOUS
100
AcDbLine
 10
261.982
 20
243.795
 30
0.0
 11
262.17
 21
243.795
 31
0.0
  0
LINE
  5
BD3
100
AcDbEntity
  8
1
  6
CONTINUOUS
100
AcDbLine
 10
238.06
 20
243.81
 30
0.0
 11
238.998
 21
243.81
 31
0.0
  0
LINE
  5
BD4
100
AcDbEntity
  8
1
  6
CONTINUOUS
100
AcDbLine
 10
180.838
 20
247.654
 30
0.0
 11
181.67
 21
247.582
 31
0.0
  0
LINE
  5
BD5
100
AcDbEntity
  8
1
  6
CONTINUOUS
100
AcDbLine
 10
245.795
 20
240.263
 30
0.0
 11
245.57
 21
240.31
 31
0.0
  0
LINE
  5
BD6
100
AcDbEntity
  8
1
  6
CONTINUOUS
100
AcDbLine
 10
235.895
 20
239.7
 30
0.0
 11
236.082
 21
239.653
 31
0.0
  0
LINE
  5
BD7
100
AcDbEntity
  8
1
  6
CONTINUOUS
100
AcDbLine
 10
239.682
 20
240.216
 30
0.0
 11
239.345
 21
240.31
 31
0.0
  0
LINE
  5
BD8
100
AcDbEntity
  8
1
  6
CONTINUOUS
100
AcDbLine
 10
238.257
 20
237.81
 30
0.0
 11
238.632
 21
237.669
 31
0.0
  0
LINE
  5
BD9
100
AcDbEntity
  8
1
  6
CONTINUOUS
100
AcDbLine
 10
237.357
 20
237.81
 30
0.0
 11
237.47
 21
237.763
 31
0.0
  0
LINE
  5
BDA
100
AcDbEntity
  8
1
  6
CONTINUOUS
100
AcDbLine
 10
236.982
 20
239.466
 30
0.0
 11
236.87
 21
239.513
 31
0.0
  0
LINE
  5
BDB
100
AcDbEntity
  8
1
  6
CONTINUOUS
100
AcDbLine
 10
237.545
 20
240.263
 30
0.0
 11
237.432
 21
240.31
 31
0.0
  0
LINE
  5
BDC
100
AcDbEntity
  8
1
  6
CONTINUOUS
100
AcDbLine
 10
236.345
 20
240.216
 30
0.0
 11
236.157
 21
240.31
 31
0.0
  0
LINE
  5
BDD
100
AcDbEntity
  8
1
  6
CONTINUOUS
100
AcDbLine
 10
235.632
 20
239.841
 30
0.0
 11
235.895
 21
239.7
 31
0.0
  0
LINE
  5
BDE
100
AcDbEntity
  8
1
  6
CONTINUOUS
100
AcDbLine
 10
243.807
 20
236.544
 30
0.0
 11
243.545
 21
236.685
 31
0.0
  0
LINE
  5
BDF
100
AcDbEntity
  8
1
  6
CONTINUOUS
100
AcDbLine
 10
220.172
 20
247.235
 30
0.0
 11
221.422
 21
246.513
 31
0.0
  0
LINE
  5
BE0
100
AcDbEntity
  8
1
  6
CONTINUOUS
100
AcDbLine
 10
237.095
 20
237.435
 30
0.0
 11
236.795
 21
237.622
 31
0.0
  0
LINE
  5
BE1
100
AcDbEntity
  8
1
  6
CONTINUOUS
100
AcDbLine
 10
237.47
 20
237.763
 30
0.0
 11
237.545
 21
237.716
 31
0.0
  0
LINE
  5
BE2
100
AcDbEntity
  8
1
  6
CONTINUOUS
100
AcDbLine
 10
239.495
 20
236.638
 30
0.0
 11
239.345
 21
236.732
 31
0.0
  0
LINE
  5
BE3
100
AcDbEntity
  8
1
  6
CONTINUOUS
100
AcDbLine
 10
240.695
 20
237.013
 30
0.0
 11
240.395
 21
237.2
 31
0.0
  0
LINE
  5
BE4
100
AcDbEntity
  8
1
  6
CONTINUOUS
100
AcDbLine
 10
228.17
 20
243.2
 30
0.0
 11
227.513
 21
243.716
 31
0.0
  0
LINE
  5
BE5
100
AcDbEntity
  8
1
  6
CONTINUOUS
100
AcDbLine
 10
226.388
 20
243.528
 30
0.0
 11
226.342
 21
243.575
 31
0.0
  0
LINE
  5
BE6
100
AcDbEntity
  8
1
  6
CONTINUOUS
100
AcDbLine
 10
231.92
 20
241.357
 30
0.0
 11
231.92
 21
235.357
 31
0.0
  0
LINE
  5
BE7
100
AcDbEntity
  8
1
  6
CONTINUOUS
100
AcDbLine
 10
222.361
 20
238.019
 30
0.0
 11
222.413
 21
238.099
 31
0.0
  0
LINE
  5
BE8
100
AcDbEntity
  8
1
  6
CONTINUOUS
100
AcDbLine
 10
223.008
 20
238.259
 30
0.0
 11
223.06
 21
238.338
 31
0.0
  0
LINE
  5
BE9
100
AcDbEntity
  8
1
  6
CONTINUOUS
100
AcDbLine
 10
223.711
 20
238.019
 30
0.0
 11
223.763
 21
238.099
 31
0.0
  0
LINE
  5
BEA
100
AcDbEntity
  8
1
  6
CONTINUOUS
100
AcDbLine
 10
224.763
 20
238.019
 30
0.0
 11
224.92
 21
238.205
 31
0.0
  0
LINE
  5
BEB
100
AcDbEntity
  8
1
  6
CONTINUOUS
100
AcDbLine
 10
221.42
 20
238.525
 30
0.0
 11
220.795
 21
237.807
 31
0.0
  0
LINE
  5
BEC
100
AcDbEntity
  8
1
  6
CONTINUOUS
100
AcDbLine
 10
221.237
 20
238.525
 30
0.0
 11
220.795
 21
238.019
 31
0.0
  0
LINE
  5
BED
100
AcDbEntity
  8
1
  6
CONTINUOUS
100
AcDbLine
 10
221.841
 20
238.87
 30
0.0
 11
221.788
 21
238.817
 31
0.0
  0
LINE
  5
BEE
100
AcDbEntity
  8
1
  6
CONTINUOUS
100
AcDbLine
 10
221.893
 20
238.312
 30
0.0
 11
221.841
 21
238.259
 31
0.0
  0
LINE
  5
BEF
100
AcDbEntity
  8
1
  6
CONTINUOUS
100
AcDbLine
 10
220.913
 20
236.833
 30
0.0
 11
221.038
 21
236.961
 31
0.0
  0
LINE
  5
BF0
100
AcDbEntity
  8
1
  6
CONTINUOUS
100
AcDbLine
 10
222.518
 20
237.993
 30
0.0
 11
222.413
 21
237.886
 31
0.0
  0
LINE
  5
BF1
100
AcDbEntity
  8
1
  6
CONTINUOUS
100
AcDbLine
 10
218.495
 20
236.728
 30
0.0
 11
218.645
 21
236.869
 31
0.0
  0
LINE
  5
BF2
100
AcDbEntity
  8
1
  6
CONTINUOUS
100
AcDbLine
 10
217.295
 20
236.353
 30
0.0
 11
217.52
 21
236.541
 31
0.0
  0
LINE
  5
BF3
100
AcDbEntity
  8
1
  6
CONTINUOUS
100
AcDbLine
 10
216.432
 20
236.869
 30
0.0
 11
216.582
 21
236.963
 31
0.0
  0
LINE
  5
BF4
100
AcDbEntity
  8
1
  6
CONTINUOUS
100
AcDbLine
 10
233.917
 20
249.4
 30
0.0
 11
232.667
 21
248.678
 31
0.0
  0
LINE
  5
BF5
100
AcDbEntity
  8
1
  6
CONTINUOUS
100
AcDbLine
 10
180.838
 20
241.159
 30
0.0
 11
181.67
 21
241.232
 31
0.0
  0
LINE
  5
BF6
100
AcDbEntity
  8
1
  6
CONTINUOUS
100
AcDbLine
 10
244.17
 20
243.857
 30
0.0
 11
242.17
 21
243.857
 31
0.0
  0
LINE
  5
BF7
100
AcDbEntity
  8
1
  6
CONTINUOUS
100
AcDbLine
 10
240.826
 20
243.857
 30
0.0
 11
240.545
 21
243.857
 31
0.0
  0
LINE
  5
BF8
100
AcDbEntity
  8
1
  6
CONTINUOUS
100
AcDbLine
 10
233.92
 20
243.857
 30
0.0
 11
230.42
 21
243.857
 31
0.0
  0
LINE
  5
BF9
100
AcDbEntity
  8
1
  6
CONTINUOUS
100
AcDbLine
 10
250.092
 20
243.903
 30
0.0
 11
249.342
 21
243.903
 31
0.0
  0
LINE
  5
BFA
100
AcDbEntity
  8
1
  6
CONTINUOUS
100
AcDbLine
 10
246.342
 20
243.903
 30
0.0
 11
245.592
 21
243.903
 31
0.0
  0
LINE
  5
BFB
100
AcDbEntity
  8
1
  6
CONTINUOUS
100
AcDbLine
 10
227.092
 20
243.903
 30
0.0
 11
226.342
 21
243.903
 31
0.0
  0
LINE
  5
BFC
100
AcDbEntity
  8
1
  6
CONTINUOUS
100
AcDbLine
 10
205.72
 20
243.907
 30
0.0
 11
208.12
 21
243.907
 31
0.0
  0
LINE
  5
BFD
100
AcDbEntity
  8
1
  6
CONTINUOUS
100
AcDbLine
 10
211.22
 20
243.907
 30
0.0
 11
213.62
 21
243.907
 31
0.0
  0
LINE
  5
BFE
100
AcDbEntity
  8
1
  6
CONTINUOUS
100
AcDbLine
 10
240.545
 20
243.95
 30
0.0
 11
239.513
 21
243.95
 31
0.0
  0
LINE
  5
BFF
100
AcDbEntity
  8
1
  6
CONTINUOUS
100
AcDbLine
 10
250.982
 20
243.968
 30
0.0
 11
250.67
 21
243.968
 31
0.0
  0
LINE
  5
C00
100
AcDbEntity
  8
1
  6
CONTINUOUS
100
AcDbLine
 10
251.17
 20
243.968
 30
0.0
 11
251.701
 21
243.968
 31
0.0
  0
LINE
  5
C01
100
AcDbEntity
  8
1
  6
CONTINUOUS
100
AcDbLine
 10
262.17
 20
243.986
 30
0.0
 11
261.982
 21
243.986
 31
0.0
  0
LINE
  5
C02
100
AcDbEntity
  8
1
  6
CONTINUOUS
100
AcDbLine
 10
247.935
 20
244.138
 30
0.0
 11
246.904
 21
244.138
 31
0.0
  0
LINE
  5
C03
100
AcDbEntity
  8
1
  6
CONTINUOUS
100
AcDbLine
 10
228.685
 20
244.138
 30
0.0
 11
227.654
 21
244.138
 31
0.0
  0
LINE
  5
C04
100
AcDbEntity
  8
1
  6
CONTINUOUS
100
AcDbLine
 10
250.67
 20
244.16
 30
0.0
 11
250.982
 21
244.16
 31
0.0
  0
LINE
  5
C05
100
AcDbEntity
  8
1
  6
CONTINUOUS
100
AcDbLine
 10
251.17
 20
244.16
 30
0.0
 11
251.92
 21
244.16
 31
0.0
  0
LINE
  5
C06
100
AcDbEntity
  8
1
  6
CONTINUOUS
100
AcDbLine
 10
262.482
 20
244.242
 30
0.0
 11
262.67
 21
244.242
 31
0.0
  0
LINE
  5
C07
100
AcDbEntity
  8
1
  6
CONTINUOUS
100
AcDbLine
 10
226.342
 20
244.278
 30
0.0
 11
227.092
 21
244.278
 31
0.0
  0
LINE
  5
C08
100
AcDbEntity
  8
1
  6
CONTINUOUS
100
AcDbLine
 10
245.592
 20
244.278
 30
0.0
 11
246.342
 21
244.278
 31
0.0
  0
LINE
  5
C09
100
AcDbEntity
  8
1
  6
CONTINUOUS
100
AcDbLine
 10
249.342
 20
244.278
 30
0.0
 11
250.092
 21
244.278
 31
0.0
  0
LINE
  5
C0A
100
AcDbEntity
  8
1
  6
CONTINUOUS
100
AcDbLine
 10
240.826
 20
244.419
 30
0.0
 11
240.545
 21
244.419
 31
0.0
  0
LINE
  5
C0B
100
AcDbEntity
  8
1
  6
CONTINUOUS
100
AcDbLine
 10
261.982
 20
244.465
 30
0.0
 11
262.232
 21
244.465
 31
0.0
  0
LINE
  5
C0C
100
AcDbEntity
  8
1
  6
CONTINUOUS
100
AcDbLine
 10
250.326
 20
244.56
 30
0.0
 11
249.107
 21
244.56
 31
0.0
  0
LINE
  5
C0D
100
AcDbEntity
  8
1
  6
CONTINUOUS
100
AcDbLine
 10
248.123
 20
244.56
 30
0.0
 11
246.763
 21
244.56
 31
0.0
  0
LINE
  5
C0E
100
AcDbEntity
  8
1
  6
CONTINUOUS
100
AcDbLine
 10
246.576
 20
244.56
 30
0.0
 11
245.357
 21
244.56
 31
0.0
  0
LINE
  5
C0F
100
AcDbEntity
  8
1
  6
CONTINUOUS
100
AcDbLine
 10
237.826
 20
244.56
 30
0.0
 11
236.607
 21
244.56
 31
0.0
  0
LINE
  5
C10
100
AcDbEntity
  8
1
  6
CONTINUOUS
100
AcDbLine
 10
228.873
 20
244.56
 30
0.0
 11
227.513
 21
244.56
 31
0.0
  0
LINE
  5
C11
100
AcDbEntity
  8
1
  6
CONTINUOUS
100
AcDbLine
 10
227.326
 20
244.56
 30
0.0
 11
226.107
 21
244.56
 31
0.0
  0
LINE
  5
C12
100
AcDbEntity
  8
1
  6
CONTINUOUS
100
AcDbLine
 10
235.154
 20
244.56
 30
0.0
 11
235.201
 21
244.56
 31
0.0
  0
LINE
  5
C13
100
AcDbEntity
  8
1
  6
CONTINUOUS
100
AcDbLine
 10
238.576
 20
244.56
 30
0.0
 11
238.623
 21
244.56
 31
0.0
  0
LINE
  5
C14
100
AcDbEntity
  8
1
  6
CONTINUOUS
100
AcDbLine
 10
250.982
 20
244.607
 30
0.0
 11
251.17
 21
244.607
 31
0.0
  0
LINE
  5
C15
100
AcDbEntity
  8
1
  6
CONTINUOUS
100
AcDbLine
 10
262.232
 20
244.657
 30
0.0
 11
261.982
 21
244.657
 31
0.0
  0
LINE
  5
C16
100
AcDbEntity
  8
1
  6
CONTINUOUS
100
AcDbLine
 10
260.013
 20
244.657
 30
0.0
 11
260.263
 21
244.657
 31
0.0
  0
LINE
  5
C17
100
AcDbEntity
  8
1
  6
CONTINUOUS
100
AcDbLine
 10
260.763
 20
244.657
 30
0.0
 11
261.013
 21
244.657
 31
0.0
  0
LINE
  5
C18
100
AcDbEntity
  8
1
  6
CONTINUOUS
100
AcDbLine
 10
205.295
 20
244.807
 30
0.0
 11
205.72
 21
244.807
 31
0.0
  0
LINE
  5
C19
100
AcDbEntity
  8
1
  6
CONTINUOUS
100
AcDbLine
 10
208.12
 20
244.807
 30
0.0
 11
208.545
 21
244.807
 31
0.0
  0
LINE
  5
C1A
100
AcDbEntity
  8
1
  6
CONTINUOUS
100
AcDbLine
 10
210.795
 20
244.807
 30
0.0
 11
211.22
 21
244.807
 31
0.0
  0
LINE
  5
C1B
100
AcDbEntity
  8
1
  6
CONTINUOUS
100
AcDbLine
 10
213.62
 20
244.807
 30
0.0
 11
214.045
 21
244.807
 31
0.0
  0
LINE
  5
C1C
100
AcDbEntity
  8
1
  6
CONTINUOUS
100
AcDbLine
 10
222.92
 20
245.357
 30
0.0
 11
232.42
 21
245.357
 31
0.0
  0
LINE
  5
C1D
100
AcDbEntity
  8
1
  6
CONTINUOUS
100
AcDbLine
 10
243.92
 20
245.357
 30
0.0
 11
253.42
 21
245.357
 31
0.0
  0
LINE
  5
C1E
100
AcDbEntity
  8
1
  6
CONTINUOUS
100
AcDbLine
 10
263.113
 20
245.407
 30
0.0
 11
262.957
 21
245.407
 31
0.0
  0
LINE
  5
C1F
100
AcDbEntity
  8
1
  6
CONTINUOUS
100
AcDbLine
 10
261.877
 20
245.407
 30
0.0
 11
261.773
 21
245.407
 31
0.0
  0
LINE
  5
C20
100
AcDbEntity
  8
1
  6
CONTINUOUS
100
AcDbLine
 10
260.577
 20
245.407
 30
0.0
 11
260.525
 21
245.407
 31
0.0
  0
LINE
  5
C21
100
AcDbEntity
  8
1
  6
CONTINUOUS
100
AcDbLine
 10
259.145
 20
245.407
 30
0.0
 11
258.988
 21
245.407
 31
0.0
  0
LINE
  5
C22
100
AcDbEntity
  8
1
  6
CONTINUOUS
100
AcDbLine
 10
260.499
 20
245.54
 30
0.0
 11
260.603
 21
245.54
 31
0.0
  0
LINE
  5
C23
100
AcDbEntity
  8
1
  6
CONTINUOUS
100
AcDbLine
 10
261.799
 20
245.54
 30
0.0
 11
261.903
 21
245.54
 31
0.0
  0
LINE
  5
C24
100
AcDbEntity
  8
1
  6
CONTINUOUS
100
AcDbLine
 10
204.42
 20
245.557
 30
0.0
 11
205.295
 21
245.557
 31
0.0
  0
LINE
  5
C25
100
AcDbEntity
  8
1
  6
CONTINUOUS
100
AcDbLine
 10
208.545
 20
245.557
 30
0.0
 11
209.42
 21
245.557
 31
0.0
  0
LINE
  5
C26
100
AcDbEntity
  8
1
  6
CONTINUOUS
100
AcDbLine
 10
209.92
 20
245.557
 30
0.0
 11
210.795
 21
245.557
 31
0.0
  0
LINE
  5
C27
100
AcDbEntity
  8
1
  6
CONTINUOUS
100
AcDbLine
 10
214.045
 20
245.557
 30
0.0
 11
214.92
 21
245.557
 31
0.0
  0
LINE
  5
C28
100
AcDbEntity
  8
1
  6
CONTINUOUS
100
AcDbLine
 10
260.863
 20
245.699
 30
0.0
 11
260.994
 21
245.699
 31
0.0
  0
LINE
  5
C29
100
AcDbEntity
  8
1
  6
CONTINUOUS
100
AcDbLine
 10
262.163
 20
245.699
 30
0.0
 11
262.294
 21
245.699
 31
0.0
  0
LINE
  5
C2A
100
AcDbEntity
  8
1
  6
CONTINUOUS
100
AcDbLine
 10
260.603
 20
245.965
 30
0.0
 11
260.499
 21
245.965
 31
0.0
  0
LINE
  5
C2B
100
AcDbEntity
  8
1
  6
CONTINUOUS
100
AcDbLine
 10
224.834
 20
245.982
 30
0.0
 11
230.505
 21
245.982
 31
0.0
  0
LINE
  5
C2C
100
AcDbEntity
  8
1
  6
CONTINUOUS
100
AcDbLine
 10
245.834
 20
245.982
 30
0.0
 11
251.505
 21
245.982
 31
0.0
  0
LINE
  5
C2D
100
AcDbEntity
  8
1
  6
CONTINUOUS
100
AcDbLine
 10
260.499
 20
246.071
 30
0.0
 11
260.603
 21
246.071
 31
0.0
  0
LINE
  5
C2E
100
AcDbEntity
  8
1
  6
CONTINUOUS
100
AcDbLine
 10
258.988
 20
246.125
 30
0.0
 11
258.728
 21
246.125
 31
0.0
  0
LINE
  5
C2F
100
AcDbEntity
  8
1
  6
CONTINUOUS
100
AcDbLine
 10
259.145
 20
246.125
 30
0.0
 11
259.587
 21
246.125
 31
0.0
  0
LINE
  5
C30
100
AcDbEntity
  8
1
  6
CONTINUOUS
100
AcDbLine
 10
224.834
 20
246.232
 30
0.0
 11
230.505
 21
246.232
 31
0.0
  0
LINE
  5
C31
100
AcDbEntity
  8
1
  6
CONTINUOUS
100
AcDbLine
 10
245.834
 20
246.232
 30
0.0
 11
251.505
 21
246.232
 31
0.0
  0
LINE
  5
C32
100
AcDbEntity
  8
1
  6
CONTINUOUS
100
AcDbLine
 10
258.728
 20
246.284
 30
0.0
 11
258.988
 21
246.284
 31
0.0
  0
LINE
  5
C33
100
AcDbEntity
  8
1
  6
CONTINUOUS
100
AcDbLine
 10
259.145
 20
246.284
 30
0.0
 11
259.77
 21
246.284
 31
0.0
  0
LINE
  5
C34
100
AcDbEntity
  8
1
  6
CONTINUOUS
100
AcDbLine
 10
261.02
 20
246.364
 30
0.0
 11
260.889
 21
246.364
 31
0.0
  0
LINE
  5
C35
100
AcDbEntity
  8
1
  6
CONTINUOUS
100
AcDbLine
 10
262.111
 20
246.524
 30
0.0
 11
261.382
 21
246.524
 31
0.0
  0
LINE
  5
C36
100
AcDbEntity
  8
1
  6
CONTINUOUS
100
AcDbLine
 10
260.629
 20
246.524
 30
0.0
 11
260.473
 21
246.524
 31
0.0
  0
LINE
  5
C37
100
AcDbEntity
  8
1
  6
CONTINUOUS
100
AcDbLine
 10
258.988
 20
246.657
 30
0.0
 11
259.145
 21
246.657
 31
0.0
  0
LINE
  5
C38
100
AcDbEntity
  8
1
  6
CONTINUOUS
100
AcDbLine
 10
260.447
 20
246.657
 30
0.0
 11
260.655
 21
246.657
 31
0.0
  0
LINE
  5
C39
100
AcDbEntity
  8
1
  6
CONTINUOUS
100
AcDbLine
 10
261.382
 20
246.657
 30
0.0
 11
262.32
 21
246.657
 31
0.0
  0
LINE
  5
C3A
100
AcDbEntity
  8
1
  6
CONTINUOUS
100
AcDbLine
 10
262.957
 20
246.657
 30
0.0
 11
263.113
 21
246.657
 31
0.0
  0
LINE
  5
C3B
100
AcDbEntity
  8
1
  6
CONTINUOUS
100
AcDbLine
 10
265.67
 20
246.857
 30
0.0
 11
265.42
 21
246.857
 31
0.0
  0
LINE
  5
C3C
100
AcDbEntity
  8
1
  6
CONTINUOUS
100
AcDbLine
 10
272.795
 20
247.357
 30
0.0
 11
266.545
 21
247.357
 31
0.0
  0
LINE
  5
C3D
100
AcDbEntity
  8
1
  6
CONTINUOUS
100
AcDbLine
 10
265.495
 20
247.357
 30
0.0
 11
265.42
 21
247.357
 31
0.0
  0
LINE
  5
C3E
100
AcDbEntity
  8
1
  6
CONTINUOUS
100
AcDbLine
 10
282.501
 20
241.159
 30
0.0
 11
281.67
 21
241.232
 31
0.0
  0
LINE
  5
C3F
100
AcDbEntity
  8
1
  6
CONTINUOUS
100
AcDbLine
 10
238.623
 20
244.56
 30
0.0
 11
238.81
 21
244.513
 31
0.0
  0
LINE
  5
C40
100
AcDbEntity
  8
1
  6
CONTINUOUS
100
AcDbLine
 10
235.201
 20
244.56
 30
0.0
 11
235.623
 21
244.419
 31
0.0
  0
LINE
  5
C41
100
AcDbEntity
  8
1
  6
CONTINUOUS
100
AcDbLine
 10
238.154
 20
244.466
 30
0.0
 11
238.013
 21
244.513
 31
0.0
  0
LINE
  5
C42
100
AcDbEntity
  8
1
  6
CONTINUOUS
100
AcDbLine
 10
242.157
 20
240.263
 30
0.0
 11
242.27
 21
240.216
 31
0.0
  0
LINE
  5
C43
100
AcDbEntity
  8
1
  6
CONTINUOUS
100
AcDbLine
 10
244.145
 20
240.31
 30
0.0
 11
244.257
 21
240.263
 31
0.0
  0
LINE
  5
C44
100
AcDbEntity
  8
1
  6
CONTINUOUS
100
AcDbLine
 10
239.87
 20
240.122
 30
0.0
 11
239.682
 21
240.216
 31
0.0
  0
LINE
  5
C45
100
AcDbEntity
  8
1
  6
CONTINUOUS
100
AcDbLine
 10
242.082
 20
239.747
 30
0.0
 11
241.895
 21
239.841
 31
0.0
  0
LINE
  5
C46
100
AcDbEntity
  8
1
  6
CONTINUOUS
100
AcDbLine
 10
222.672
 20
248.678
 30
0.0
 11
221.422
 21
249.4
 31
0.0
  0
LINE
  5
C47
100
AcDbEntity
  8
1
  6
CONTINUOUS
100
AcDbLine
 10
243.545
 20
236.685
 30
0.0
 11
243.32
 21
236.825
 31
0.0
  0
LINE
  5
C48
100
AcDbEntity
  8
1
  6
CONTINUOUS
100
AcDbLine
 10
241.895
 20
239.091
 30
0.0
 11
241.595
 21
239.278
 31
0.0
  0
LINE
  5
C49
100
AcDbEntity
  8
1
  6
CONTINUOUS
100
AcDbLine
 10
241.37
 20
236.919
 30
0.0
 11
241.032
 21
237.153
 31
0.0
  0
LINE
  5
C4A
100
AcDbEntity
  8
1
  6
CONTINUOUS
100
AcDbLine
 10
238.97
 20
239.607
 30
0.0
 11
238.107
 21
240.263
 31
0.0
  0
LINE
  5
C4B
100
AcDbEntity
  8
1
  6
CONTINUOUS
100
AcDbLine
 10
236.457
 20
240.122
 30
0.0
 11
236.345
 21
240.216
 31
0.0
  0
LINE
  5
C4C
100
AcDbEntity
  8
1
  6
CONTINUOUS
100
AcDbLine
 10
240.02
 20
237.763
 30
0.0
 11
240.132
 21
237.669
 31
0.0
  0
LINE
  5
C4D
100
AcDbEntity
  8
1
  6
CONTINUOUS
100
AcDbLine
 10
235.107
 20
243.435
 30
0.0
 11
235.06
 21
243.482
 31
0.0
  0
LINE
  5
C4E
100
AcDbEntity
  8
1
  6
CONTINUOUS
100
AcDbLine
 10
236.082
 20
239.325
 30
0.0
 11
235.632
 21
239.841
 31
0.0
  0
LINE
  5
C4F
100
AcDbEntity
  8
1
  6
CONTINUOUS
100
AcDbLine
 10
238.182
 20
236.966
 30
0.0
 11
238.145
 21
237.013
 31
0.0
  0
LINE
  5
C50
100
AcDbEntity
  8
1
  6
CONTINUOUS
100
AcDbLine
 10
236.532
 20
240.028
 30
0.0
 11
236.457
 21
240.122
 31
0.0
  0
LINE
  5
C51
100
AcDbEntity
  8
1
  6
CONTINUOUS
100
AcDbLine
 10
236.907
 20
238.95
 30
0.0
 11
236.795
 21
239.138
 31
0.0
  0
LINE
  5
C52
100
AcDbEntity
  8
1
  6
CONTINUOUS
100
AcDbLine
 10
234.62
 20
239.091
 30
0.0
 11
234.47
 21
239.513
 31
0.0
  0
LINE
  5
C53
100
AcDbEntity
  8
1
  6
CONTINUOUS
100
AcDbLine
 10
231.49
 20
247.405
 30
0.0
 11
231.234
 21
248.855
 31
0.0
  0
LINE
  5
C54
100
AcDbEntity
  8
1
  6
CONTINUOUS
100
AcDbLine
 10
231.736
 20
247.449
 30
0.0
 11
231.48
 21
248.899
 31
0.0
  0
LINE
  5
C55
100
AcDbEntity
  8
1
  6
CONTINUOUS
100
AcDbLine
 10
232.42
 20
250.607
 30
0.0
 11
232.42
 21
245.357
 31
0.0
  0
LINE
  5
C56
100
AcDbEntity
  8
1
  6
CONTINUOUS
100
AcDbLine
 10
232.667
 20
248.678
 30
0.0
 11
232.667
 21
247.235
 31
0.0
  0
LINE
  5
C57
100
AcDbEntity
  8
1
  6
CONTINUOUS
100
AcDbLine
 10
235.06
 20
243.482
 30
0.0
 11
235.06
 21
243.997
 31
0.0
  0
LINE
  5
C58
100
AcDbEntity
  8
1
  6
CONTINUOUS
100
AcDbLine
 10
235.167
 20
247.235
 30
0.0
 11
235.167
 21
248.678
 31
0.0
  0
LINE
  5
C59
100
AcDbEntity
  8
1
  6
CONTINUOUS
100
AcDbLine
 10
235.37
 20
239.513
 30
0.0
 11
235.37
 21
239.794
 31
0.0
  0
LINE
  5
C5A
100
AcDbEntity
  8
1
  6
CONTINUOUS
100
AcDbLine
 10
235.06
 20
243.997
 30
0.0
 11
235.107
 21
244.513
 31
0.0
  0
LINE
  5
C5B
100
AcDbEntity
  8
1
  6
CONTINUOUS
100
AcDbLine
 10
224.92
 20
237.993
 30
0.0
 11
224.763
 21
237.807
 31
0.0
  0
LINE
  5
C5C
100
AcDbEntity
  8
1
  6
CONTINUOUS
100
AcDbLine
 10
223.868
 20
237.993
 30
0.0
 11
223.763
 21
237.886
 31
0.0
  0
LINE
  5
C5D
100
AcDbEntity
  8
1
  6
CONTINUOUS
100
AcDbLine
 10
229.02
 20
242.607
 30
0.0
 11
228.42
 21
242.007
 31
0.0
  0
LINE
  5
C5E
100
AcDbEntity
  8
1
  6
CONTINUOUS
100
AcDbLine
 10
223.92
 20
238.924
 30
0.0
 11
223.191
 21
238.259
 31
0.0
  0
LINE
  5
C5F
100
AcDbEntity
  8
1
  6
CONTINUOUS
100
AcDbLine
 10
223.06
 20
238.338
 30
0.0
 11
223.711
 21
238.924
 31
0.0
  0
LINE
  5
C60
100
AcDbEntity
  8
1
  6
CONTINUOUS
100
AcDbLine
 10
221.736
 20
238.338
 30
0.0
 11
221.841
 21
238.418
 31
0.0
  0
LINE
  5
C61
100
AcDbEntity
  8
1
  6
CONTINUOUS
100
AcDbLine
 10
228.873
 20
243.716
 30
0.0
 11
228.17
 21
243.2
 31
0.0
  0
LINE
  5
C62
100
AcDbEntity
  8
1
  6
CONTINUOUS
100
AcDbLine
 10
221.71
 20
238.924
 30
0.0
 11
221.788
 21
238.977
 31
0.0
  0
LINE
  5
C63
100
AcDbEntity
  8
1
  6
CONTINUOUS
100
AcDbLine
 10
222.283
 20
237.966
 30
0.0
 11
222.361
 21
238.019
 31
0.0
  0
LINE
  5
C64
100
AcDbEntity
  8
1
  6
CONTINUOUS
100
AcDbLine
 10
221.101
 20
236.769
 30
0.0
 11
221.195
 21
236.833
 31
0.0
  0
LINE
  5
C65
100
AcDbEntity
  8
1
  6
CONTINUOUS
100
AcDbLine
 10
223.633
 20
237.966
 30
0.0
 11
223.711
 21
238.019
 31
0.0
  0
LINE
  5
C66
100
AcDbEntity
  8
1
  6
CONTINUOUS
100
AcDbLine
 10
233.917
 20
246.513
 30
0.0
 11
235.167
 21
247.235
 31
0.0
  0
LINE
  5
C67
100
AcDbEntity
  8
1
  6
CONTINUOUS
100
AcDbLine
 10
242.422
 20
249.4
 30
0.0
 11
241.172
 21
248.678
 31
0.0
  0
LINE
  5
C68
100
AcDbEntity
  8
1
  6
CONTINUOUS
100
AcDbLine
 10
221.788
 20
238.977
 30
0.0
 11
221.893
 21
239.03
 31
0.0
  0
LINE
  5
C69
100
AcDbEntity
  8
1
  6
CONTINUOUS
100
AcDbLine
 10
221.893
 20
238.897
 30
0.0
 11
221.841
 21
238.87
 31
0.0
  0
LINE
  5
C6A
100
AcDbEntity
  8
1
  6
CONTINUOUS
100
AcDbLine
 10
222.413
 20
237.886
 30
0.0
 11
222.309
 21
237.833
 31
0.0
  0
LINE
  5
C6B
100
AcDbEntity
  8
1
  6
CONTINUOUS
100
AcDbLine
 10
216.582
 20
236.963
 30
0.0
 11
216.695
 21
237.01
 31
0.0
  0
LINE
  5
C6C
100
AcDbEntity
  8
1
  6
CONTINUOUS
100
AcDbLine
 10
195.195
 20
239.438
 30
0.0
 11
195.07
 21
239.407
 31
0.0
  0
LINE
  5
C6D
100
AcDbEntity
  8
1
  6
CONTINUOUS
100
AcDbLine
 10
193.345
 20
239.566
 30
0.0
 11
193.47
 21
239.598
 31
0.0
  0
LINE
  5
C6E
100
AcDbEntity
  8
1
  6
CONTINUOUS
100
AcDbLine
 10
192.245
 20
239.566
 30
0.0
 11
192.37
 21
239.598
 31
0.0
  0
LINE
  5
C6F
100
AcDbEntity
  8
1
  6
CONTINUOUS
100
AcDbLine
 10
194.72
 20
240.875
 30
0.0
 11
194.845
 21
240.907
 31
0.0
  0
LINE
  5
C70
100
AcDbEntity
  8
1
  6
CONTINUOUS
100
AcDbLine
 10
193.345
 20
240.747
 30
0.0
 11
193.22
 21
240.715
 31
0.0
  0
LINE
  5
C71
100
AcDbEntity
  8
1
  6
CONTINUOUS
100
AcDbLine
 10
192.245
 20
240.747
 30
0.0
 11
192.12
 21
240.715
 31
0.0
  0
LINE
  5
C72
100
AcDbEntity
  8
1
  6
CONTINUOUS
100
AcDbLine
 10
193.345
 20
239.407
 30
0.0
 11
193.495
 21
239.438
 31
0.0
  0
LINE
  5
C73
100
AcDbEntity
  8
1
  6
CONTINUOUS
100
AcDbLine
 10
192.245
 20
239.407
 30
0.0
 11
192.395
 21
239.438
 31
0.0
  0
LINE
  5
C74
100
AcDbEntity
  8
1
  6
CONTINUOUS
100
AcDbLine
 10
193.345
 20
240.907
 30
0.0
 11
193.195
 21
240.875
 31
0.0
  0
LINE
  5
C75
100
AcDbEntity
  8
1
  6
CONTINUOUS
100
AcDbLine
 10
192.245
 20
240.907
 30
0.0
 11
192.095
 21
240.875
 31
0.0
  0
LINE
  5
C76
100
AcDbEntity
  8
1
  6
CONTINUOUS
100
AcDbLine
 10
258.17
 20
247.407
 30
0.0
 11
264.17
 21
247.407
 31
0.0
  0
LINE
  5
C77
100
AcDbEntity
  8
1
  6
CONTINUOUS
100
AcDbLine
 10
258.17
 20
247.457
 30
0.0
 11
264.17
 21
247.457
 31
0.0
  0
LINE
  5
C78
100
AcDbEntity
  8
1
  6
CONTINUOUS
100
AcDbLine
 10
258.865
 20
247.832
 30
0.0
 11
259.665
 21
247.832
 31
0.0
  0
LINE
  5
C79
100
AcDbEntity
  8
1
  6
CONTINUOUS
100
AcDbLine
 10
260.135
 20
247.832
 30
0.0
 11
260.935
 21
247.832
 31
0.0
  0
LINE
  5
C7A
100
AcDbEntity
  8
1
  6
CONTINUOUS
100
AcDbLine
 10
261.405
 20
247.832
 30
0.0
 11
262.205
 21
247.832
 31
0.0
  0
LINE
  5
C7B
100
AcDbEntity
  8
1
  6
CONTINUOUS
100
AcDbLine
 10
262.675
 20
247.832
 30
0.0
 11
263.475
 21
247.832
 31
0.0
  0
LINE
  5
C7C
100
AcDbEntity
  8
1
  6
CONTINUOUS
100
AcDbLine
 10
263.475
 20
248.332
 30
0.0
 11
262.675
 21
248.332
 31
0.0
  0
LINE
  5
C7D
100
AcDbEntity
  8
1
  6
CONTINUOUS
100
AcDbLine
 10
262.205
 20
248.332
 30
0.0
 11
261.405
 21
248.332
 31
0.0
  0
LINE
  5
C7E
100
AcDbEntity
  8
1
  6
CONTINUOUS
100
AcDbLine
 10
260.935
 20
248.332
 30
0.0
 11
260.135
 21
248.332
 31
0.0
  0
LINE
  5
C7F
100
AcDbEntity
  8
1
  6
CONTINUOUS
100
AcDbLine
 10
259.665
 20
248.332
 30
0.0
 11
258.865
 21
248.332
 31
0.0
  0
LINE
  5
C80
100
AcDbEntity
  8
1
  6
CONTINUOUS
100
AcDbLine
 10
273.67
 20
248.402
 30
0.0
 11
265.67
 21
248.402
 31
0.0
  0
LINE
  5
C81
100
AcDbEntity
  8
1
  6
CONTINUOUS
100
AcDbLine
 10
270.925
 20
248.422
 30
0.0
 11
270.845
 21
248.422
 31
0.0
  0
LINE
  5
C82
100
AcDbEntity
  8
1
  6
CONTINUOUS
100
AcDbLine
 10
282.791
 20
248.532
 30
0.0
 11
282.777
 21
248.532
 31
0.0
  0
LINE
  5
C83
100
AcDbEntity
  8
1
  6
CONTINUOUS
100
AcDbLine
 10
180.562
 20
248.532
 30
0.0
 11
180.548
 21
248.532
 31
0.0
  0
LINE
  5
C84
100
AcDbEntity
  8
1
  6
CONTINUOUS
100
AcDbLine
 10
273.92
 20
248.657
 30
0.0
 11
265.42
 21
248.657
 31
0.0
  0
LINE
  5
C85
100
AcDbEntity
  8
1
  6
CONTINUOUS
100
AcDbLine
 10
282.878
 20
249.282
 30
0.0
 11
282.777
 21
249.282
 31
0.0
  0
LINE
  5
C86
100
AcDbEntity
  8
1
  6
CONTINUOUS
100
AcDbLine
 10
180.562
 20
249.282
 30
0.0
 11
180.461
 21
249.282
 31
0.0
  0
LINE
  5
C87
100
AcDbEntity
  8
1
  6
CONTINUOUS
100
AcDbLine
 10
214.92
 20
249.457
 30
0.0
 11
209.92
 21
249.457
 31
0.0
  0
LINE
  5
C88
100
AcDbEntity
  8
1
  6
CONTINUOUS
100
AcDbLine
 10
209.42
 20
249.457
 30
0.0
 11
204.42
 21
249.457
 31
0.0
  0
LINE
  5
C89
100
AcDbEntity
  8
1
  6
CONTINUOUS
100
AcDbLine
 10
251.249
 20
249.682
 30
0.0
 11
246.09
 21
249.682
 31
0.0
  0
LINE
  5
C8A
100
AcDbEntity
  8
1
  6
CONTINUOUS
100
AcDbLine
 10
230.249
 20
249.682
 30
0.0
 11
225.09
 21
249.682
 31
0.0
  0
LINE
  5
C8B
100
AcDbEntity
  8
1
  6
CONTINUOUS
100
AcDbLine
 10
251.249
 20
249.932
 30
0.0
 11
246.09
 21
249.932
 31
0.0
  0
LINE
  5
C8C
100
AcDbEntity
  8
1
  6
CONTINUOUS
100
AcDbLine
 10
230.249
 20
249.932
 30
0.0
 11
225.09
 21
249.932
 31
0.0
  0
LINE
  5
C8D
100
AcDbEntity
  8
1
  6
CONTINUOUS
100
AcDbLine
 10
180.461
 20
250.032
 30
0.0
 11
180.562
 21
250.032
 31
0.0
  0
LINE
  5
C8E
100
AcDbEntity
  8
1
  6
CONTINUOUS
100
AcDbLine
 10
282.777
 20
250.032
 30
0.0
 11
282.878
 21
250.032
 31
0.0
  0
LINE
  5
C8F
100
AcDbEntity
  8
1
  6
CONTINUOUS
100
AcDbLine
 10
253.42
 20
250.607
 30
0.0
 11
243.92
 21
250.607
 31
0.0
  0
LINE
  5
C90
100
AcDbEntity
  8
1
  6
CONTINUOUS
100
AcDbLine
 10
232.42
 20
250.607
 30
0.0
 11
222.92
 21
250.607
 31
0.0
  0
LINE
  5
C91
100
AcDbEntity
  8
1
  6
CONTINUOUS
100
AcDbLine
 10
180.548
 20
250.782
 30
0.0
 11
180.562
 21
250.782
 31
0.0
  0
LINE
  5
C92
100
AcDbEntity
  8
1
  6
CONTINUOUS
100
AcDbLine
 10
282.777
 20
250.782
 30
0.0
 11
282.791
 21
250.782
 31
0.0
  0
LINE
  5
C93
100
AcDbEntity
  8
1
  6
CONTINUOUS
100
AcDbLine
 10
264.17
 20
250.907
 30
0.0
 11
258.17
 21
250.907
 31
0.0
  0
LINE
  5
C94
100
AcDbEntity
  8
1
  6
CONTINUOUS
100
AcDbLine
 10
260.525
 20
245.407
 30
0.0
 11
260.343
 21
245.433
 31
0.0
  0
LINE
  5
C95
100
AcDbEntity
  8
1
  6
CONTINUOUS
100
AcDbLine
 10
261.773
 20
245.407
 30
0.0
 11
261.617
 21
245.433
 31
0.0
  0
LINE
  5
C96
100
AcDbEntity
  8
1
  6
CONTINUOUS
100
AcDbLine
 10
261.857
 20
243.188
 30
0.0
 11
262.013
 21
243.157
 31
0.0
  0
LINE
  5
C97
100
AcDbEntity
  8
1
  6
CONTINUOUS
100
AcDbLine
 10
261.826
 20
243.827
 30
0.0
 11
261.982
 21
243.795
 31
0.0
  0
LINE
  5
C98
100
AcDbEntity
  8
1
  6
CONTINUOUS
100
AcDbLine
 10
262.388
 20
244.625
 30
0.0
 11
262.232
 21
244.657
 31
0.0
  0
LINE
  5
C99
100
AcDbEntity
  8
1
  6
CONTINUOUS
100
AcDbLine
 10
239.701
 20
244.466
 30
0.0
 11
239.513
 21
244.56
 31
0.0
  0
LINE
  5
C9A
100
AcDbEntity
  8
1
  6
CONTINUOUS
100
AcDbLine
 10
232.667
 20
247.235
 30
0.0
 11
233.917
 21
246.513
 31
0.0
  0
LINE
  5
C9B
100
AcDbEntity
  8
1
  6
CONTINUOUS
100
AcDbLine
 10
235.167
 20
248.678
 30
0.0
 11
233.917
 21
249.4
 31
0.0
  0
LINE
  5
C9C
100
AcDbEntity
  8
1
  6
CONTINUOUS
100
AcDbLine
 10
245.607
 20
239.419
 30
0.0
 11
245.532
 21
239.466
 31
0.0
  0
LINE
  5
C9D
100
AcDbEntity
  8
1
  6
CONTINUOUS
100
AcDbLine
 10
238.388
 20
244.278
 30
0.0
 11
238.154
 21
244.466
 31
0.0
  0
LINE
  5
C9E
100
AcDbEntity
  8
1
  6
CONTINUOUS
100
AcDbLine
 10
245.907
 20
240.169
 30
0.0
 11
245.795
 21
240.263
 31
0.0
  0
LINE
  5
C9F
100
AcDbEntity
  8
1
  6
CONTINUOUS
100
AcDbLine
 10
241.895
 20
239.841
 30
0.0
 11
241.595
 21
240.122
 31
0.0
  0
LINE
  5
CA0
100
AcDbEntity
  8
1
  6
CONTINUOUS
100
AcDbLine
 10
239.842
 20
244.325
 30
0.0
 11
239.701
 21
244.466
 31
0.0
  0
LINE
  5
CA1
100
AcDbEntity
  8
1
  6
CONTINUOUS
100
AcDbLine
 10
240.957
 20
236.45
 30
0.0
 11
240.882
 21
236.544
 31
0.0
  0
LINE
  5
CA2
100
AcDbEntity
  8
1
  6
CONTINUOUS
100
AcDbLine
 10
239.982
 20
239.982
 30
0.0
 11
239.87
 21
240.122
 31
0.0
  0
LINE
  5
CA3
100
AcDbEntity
  8
1
  6
CONTINUOUS
100
AcDbLine
 10
242.382
 20
236.497
 30
0.0
 11
242.045
 21
237.013
 31
0.0
  0
LINE
  5
CA4
100
AcDbEntity
  8
1
  6
CONTINUOUS
100
AcDbLine
 10
237.02
 20
238.95
 30
0.0
 11
236.907
 21
239.138
 31
0.0
  0
LINE
  5
CA5
100
AcDbEntity
  8
1
  6
CONTINUOUS
100
AcDbLine
 10
239.345
 20
236.732
 30
0.0
 11
239.232
 21
236.919
 31
0.0
  0
LINE
  5
CA6
100
AcDbEntity
  8
1
  6
CONTINUOUS
100
AcDbLine
 10
239.307
 20
239.232
 30
0.0
 11
239.195
 21
239.419
 31
0.0
  0
LINE
  5
CA7
100
AcDbEntity
  8
1
  6
CONTINUOUS
100
AcDbLine
 10
239.42
 20
239.278
 30
0.0
 11
239.307
 21
239.513
 31
0.0
  0
LINE
  5
CA8
100
AcDbEntity
  8
1
  6
CONTINUOUS
100
AcDbLine
 10
235.295
 20
240.169
 30
0.0
 11
235.257
 21
240.263
 31
0.0
  0
LINE
  5
CA9
100
AcDbEntity
  8
1
  6
CONTINUOUS
100
AcDbLine
 10
236.232
 20
238.95
 30
0.0
 11
236.082
 21
239.325
 31
0.0
  0
LINE
  5
CAA
100
AcDbEntity
  8
1
  6
CONTINUOUS
100
AcDbLine
 10
236.57
 20
239.935
 30
0.0
 11
236.532
 21
240.028
 31
0.0
  0
LINE
  5
CAB
100
AcDbEntity
  8
1
  6
CONTINUOUS
100
AcDbLine
 10
237.545
 20
237.716
 30
0.0
 11
237.582
 21
237.622
 31
0.0
  0
LINE
  5
CAC
100
AcDbEntity
  8
1
  6
CONTINUOUS
100
AcDbLine
 10
237.582
 20
240.169
 30
0.0
 11
237.545
 21
240.263
 31
0.0
  0
LINE
  5
CAD
100
AcDbEntity
  8
1
  6
CONTINUOUS
100
AcDbLine
 10
235.37
 20
239.794
 30
0.0
 11
235.295
 21
240.169
 31
0.0
  0
LINE
  5
CAE
100
AcDbEntity
  8
1
  6
CONTINUOUS
100
AcDbLine
 10
234.47
 20
239.513
 30
0.0
 11
234.395
 21
240.075
 31
0.0
  0
LINE
  5
CAF
100
AcDbEntity
  8
1
  6
CONTINUOUS
100
AcDbLine
 10
237.77
 20
237.435
 30
0.0
 11
237.732
 21
237.81
 31
0.0
  0
LINE
  5
CB0
100
AcDbEntity
  8
1
  6
CONTINUOUS
100
AcDbLine
 10
235.717
 20
243.435
 30
0.0
 11
235.717
 21
243.2
 31
0.0
  0
LINE
  5
CB1
100
AcDbEntity
  8
1
  6
CONTINUOUS
100
AcDbLine
 10
236.57
 20
239.794
 30
0.0
 11
236.57
 21
239.935
 31
0.0
  0
LINE
  5
CB2
100
AcDbEntity
  8
1
  6
CONTINUOUS
100
AcDbLine
 10
236.607
 20
244.56
 30
0.0
 11
236.607
 21
244.091
 31
0.0
  0
LINE
  5
CB3
100
AcDbEntity
  8
1
  6
CONTINUOUS
100
AcDbLine
 10
236.701
 20
243.763
 30
0.0
 11
236.701
 21
243.294
 31
0.0
  0
LINE
  5
CB4
100
AcDbEntity
  8
1
  6
CONTINUOUS
100
AcDbLine
 10
236.87
 20
239.513
 30
0.0
 11
236.87
 21
239.56
 31
0.0
  0
LINE
  5
CB5
100
AcDbEntity
  8
1
  6
CONTINUOUS
100
AcDbLine
 10
237.095
 20
236.497
 30
0.0
 11
237.095
 21
237.669
 31
0.0
  0
LINE
  5
CB6
100
AcDbEntity
  8
1
  6
CONTINUOUS
100
AcDbLine
 10
237.217
 20
243.2
 30
0.0
 11
237.217
 21
244.56
 31
0.0
  0
LINE
  5
CB7
100
AcDbEntity
  8
1
  6
CONTINUOUS
100
AcDbLine
 10
237.582
 20
237.622
 30
0.0
 11
237.582
 21
237.482
 31
0.0
  0
LINE
  5
CB8
100
AcDbEntity
  8
1
  6
CONTINUOUS
100
AcDbLine
 10
237.582
 20
240.122
 30
0.0
 11
237.582
 21
240.169
 31
0.0
  0
LINE
  5
CB9
100
AcDbEntity
  8
1
  6
CONTINUOUS
100
AcDbLine
 10
237.732
 20
243.294
 30
0.0
 11
237.732
 21
243.763
 31
0.0
  0
LINE
  5
CBA
100
AcDbEntity
  8
1
  6
CONTINUOUS
100
AcDbLine
 10
237.77
 20
236.872
 30
0.0
 11
237.77
 21
237.435
 31
0.0
  0
LINE
  5
CBB
100
AcDbEntity
  8
1
  6
CONTINUOUS
100
AcDbLine
 10
237.826
 20
244.091
 30
0.0
 11
237.826
 21
244.56
 31
0.0
  0
LINE
  5
CBC
100
AcDbEntity
  8
1
  6
CONTINUOUS
100
AcDbLine
 10
238.06
 20
243.528
 30
0.0
 11
238.06
 21
243.81
 31
0.0
  0
LINE
  5
CBD
100
AcDbEntity
  8
1
  6
CONTINUOUS
100
AcDbLine
 10
238.145
 20
237.013
 30
0.0
 11
238.145
 21
237.388
 31
0.0
  0
LINE
  5
CBE
100
AcDbEntity
  8
1
  6
CONTINUOUS
100
AcDbLine
 10
238.482
 20
244.278
 30
0.0
 11
238.482
 21
244.372
 31
0.0
  0
LINE
  5
CBF
100
AcDbEntity
  8
1
  6
CONTINUOUS
100
AcDbLine
 10
238.52
 20
236.638
 30
0.0
 11
238.52
 21
236.45
 31
0.0
  0
LINE
  5
CC0
100
AcDbEntity
  8
1
  6
CONTINUOUS
100
AcDbLine
 10
238.529
 20
243.528
 30
0.0
 11
238.529
 21
243.81
 31
0.0
  0
LINE
  5
CC1
100
AcDbEntity
  8
1
  6
CONTINUOUS
100
AcDbLine
 10
238.782
 20
236.638
 30
0.0
 11
238.782
 21
236.966
 31
0.0
  0
LINE
  5
CC2
100
AcDbEntity
  8
1
  6
CONTINUOUS
100
AcDbLine
 10
238.998
 20
243.81
 30
0.0
 11
238.998
 21
243.528
 31
0.0
  0
LINE
  5
CC3
100
AcDbEntity
  8
1
  6
CONTINUOUS
100
AcDbLine
 10
239.195
 20
237.107
 30
0.0
 11
239.195
 21
237.341
 31
0.0
  0
LINE
  5
CC4
100
AcDbEntity
  8
1
  6
CONTINUOUS
100
AcDbLine
 10
235.332
 20
238.997
 30
0.0
 11
235.37
 21
239.513
 31
0.0
  0
LINE
  5
CC5
100
AcDbEntity
  8
1
  6
CONTINUOUS
100
AcDbLine
 10
237.732
 20
236.497
 30
0.0
 11
237.77
 21
236.872
 31
0.0
  0
LINE
  5
CC6
100
AcDbEntity
  8
1
  6
CONTINUOUS
100
AcDbLine
 10
238.145
 20
237.388
 30
0.0
 11
238.182
 21
237.763
 31
0.0
  0
LINE
  5
CC7
100
AcDbEntity
  8
1
  6
CONTINUOUS
100
AcDbLine
 10
237.507
 20
238.95
 30
0.0
 11
237.545
 21
239.232
 31
0.0
  0
LINE
  5
CC8
100
AcDbEntity
  8
1
  6
CONTINUOUS
100
AcDbLine
 10
237.545
 20
239.232
 30
0.0
 11
237.62
 21
239.653
 31
0.0
  0
LINE
  5
CC9
100
AcDbEntity
  8
1
  6
CONTINUOUS
100
AcDbLine
 10
235.81
 20
243.857
 30
0.0
 11
235.717
 21
243.435
 31
0.0
  0
LINE
  5
CCA
100
AcDbEntity
  8
1
  6
CONTINUOUS
100
AcDbLine
 10
237.62
 20
239.653
 30
0.0
 11
237.695
 21
239.982
 31
0.0
  0
LINE
  5
CCB
100
AcDbEntity
  8
1
  6
CONTINUOUS
100
AcDbLine
 10
238.482
 20
244.372
 30
0.0
 11
238.529
 21
244.513
 31
0.0
  0
LINE
  5
CCC
100
AcDbEntity
  8
1
  6
CONTINUOUS
100
AcDbLine
 10
235.904
 20
244.091
 30
0.0
 11
235.81
 21
243.857
 31
0.0
  0
LINE
  5
CCD
100
AcDbEntity
  8
1
  6
CONTINUOUS
100
AcDbLine
 10
236.045
 20
244.325
 30
0.0
 11
235.904
 21
244.091
 31
0.0
  0
LINE
  5
CCE
100
AcDbEntity
  8
1
  6
CONTINUOUS
100
AcDbLine
 10
235.22
 20
240.263
 30
0.0
 11
234.92
 21
239.794
 31
0.0
  0
LINE
  5
CCF
100
AcDbEntity
  8
1
  6
CONTINUOUS
100
AcDbLine
 10
235.107
 20
244.513
 30
0.0
 11
235.154
 21
244.56
 31
0.0
  0
LINE
  5
CD0
100
AcDbEntity
  8
1
  6
CONTINUOUS
100
AcDbLine
 10
236.279
 20
244.56
 30
0.0
 11
236.045
 21
244.325
 31
0.0
  0
LINE
  5
CD1
100
AcDbEntity
  8
1
  6
CONTINUOUS
100
AcDbLine
 10
240.936
 20
247.887
 30
0.0
 11
241.172
 21
248.123
 31
0.0
  0
LINE
  5
CD2
100
AcDbEntity
  8
1
  6
CONTINUOUS
100
AcDbLine
 10
242.439
 20
249.39
 30
0.0
 11
242.508
 21
249.459
 31
0.0
  0
LINE
  5
CD3
100
AcDbEntity
  8
1
  6
CONTINUOUS
100
AcDbLine
 10
238.529
 20
244.513
 30
0.0
 11
238.576
 21
244.56
 31
0.0
  0
LINE
  5
CD4
100
AcDbEntity
  8
1
  6
CONTINUOUS
100
AcDbLine
 10
238.529
 20
244.185
 30
0.0
 11
238.717
 21
244.372
 31
0.0
  0
LINE
  5
CD5
100
AcDbEntity
  8
1
  6
CONTINUOUS
100
AcDbLine
 10
238.248
 20
243.294
 30
0.0
 11
238.529
 21
243.528
 31
0.0
  0
LINE
  5
CD6
100
AcDbEntity
  8
1
  6
CONTINUOUS
100
AcDbLine
 10
238.342
 20
244.138
 30
0.0
 11
238.107
 21
243.95
 31
0.0
  0
LINE
  5
CD7
100
AcDbEntity
  8
1
  6
CONTINUOUS
100
AcDbLine
 10
238.81
 20
244.232
 30
0.0
 11
238.576
 21
244.044
 31
0.0
  0
LINE
  5
CD8
100
AcDbEntity
  8
1
  6
CONTINUOUS
100
AcDbLine
 10
238.482
 20
243.81
 30
0.0
 11
238.763
 21
243.997
 31
0.0
  0
LINE
  5
CD9
100
AcDbEntity
  8
1
  6
CONTINUOUS
100
AcDbLine
 10
239.045
 20
243.482
 30
0.0
 11
238.763
 21
243.294
 31
0.0
  0
LINE
  5
CDA
100
AcDbEntity
  8
1
  6
CONTINUOUS
100
AcDbLine
 10
238.717
 20
244.372
 30
0.0
 11
238.951
 21
244.513
 31
0.0
  0
LINE
  5
CDB
100
AcDbEntity
  8
1
  6
CONTINUOUS
100
AcDbLine
 10
242.422
 20
246.513
 30
0.0
 11
243.672
 21
247.235
 31
0.0
  0
LINE
  5
CDC
100
AcDbEntity
  8
1
  6
CONTINUOUS
100
AcDbLine
 10
221.038
 20
236.961
 30
0.0
 11
221.163
 21
237.025
 31
0.0
  0
LINE
  5
CDD
100
AcDbEntity
  8
1
  6
CONTINUOUS
100
AcDbLine
 10
223.763
 20
237.886
 30
0.0
 11
223.659
 21
237.833
 31
0.0
  0
LINE
  5
CDE
100
AcDbEntity
  8
1
  6
CONTINUOUS
100
AcDbLine
 10
240.357
 20
244.466
 30
0.0
 11
240.545
 21
244.56
 31
0.0
  0
LINE
  5
CDF
100
AcDbEntity
  8
1
  6
CONTINUOUS
100
AcDbLine
 10
218.645
 20
236.869
 30
0.0
 11
218.757
 21
236.916
 31
0.0
  0
LINE
  5
CE0
100
AcDbEntity
  8
1
  6
CONTINUOUS
100
AcDbLine
 10
218.757
 20
236.916
 30
0.0
 11
219.02
 21
237.01
 31
0.0
  0
LINE
  5
CE1
100
AcDbEntity
  8
1
  6
CONTINUOUS
100
AcDbLine
 10
222.049
 20
238.365
 30
0.0
 11
221.893
 21
238.312
 31
0.0
  0
LINE
  5
CE2
100
AcDbEntity
  8
1
  6
CONTINUOUS
100
AcDbLine
 10
238.951
 20
244.513
 30
0.0
 11
239.092
 21
244.56
 31
0.0
  0
LINE
  5
CE3
100
AcDbEntity
  8
1
  6
CONTINUOUS
100
AcDbLine
 10
239.092
 20
244.325
 30
0.0
 11
238.81
 21
244.232
 31
0.0
  0
LINE
  5
CE4
100
AcDbEntity
  8
1
  6
CONTINUOUS
100
AcDbLine
 10
238.763
 20
243.997
 30
0.0
 11
239.092
 21
244.091
 31
0.0
  0
LINE
  5
CE5
100
AcDbEntity
  8
1
  6
CONTINUOUS
100
AcDbLine
 10
190.573
 20
245.445
 30
0.0
 11
190.32
 21
245.39
 31
0.0
  0
LINE
  5
CE6
100
AcDbEntity
  8
1
  6
CONTINUOUS
100
AcDbLine
 10
216.42
 20
251.107
 30
0.0
 11
202.92
 21
251.107
 31
0.0
  0
LINE
  5
CE7
100
AcDbEntity
  8
1
  6
CONTINUOUS
100
AcDbLine
 10
216.42
 20
251.357
 30
0.0
 11
202.92
 21
251.357
 31
0.0
  0
LINE
  5
CE8
100
AcDbEntity
  8
1
  6
CONTINUOUS
100
AcDbLine
 10
260.343
 20
246.098
 30
0.0
 11
260.499
 21
246.071
 31
0.0
  0
LINE
  5
CE9
100
AcDbEntity
  8
1
  6
CONTINUOUS
100
AcDbLine
 10
260.369
 20
245.566
 30
0.0
 11
260.499
 21
245.54
 31
0.0
  0
LINE
  5
CEA
100
AcDbEntity
  8
1
  6
CONTINUOUS
100
AcDbLine
 10
261.669
 20
245.566
 30
0.0
 11
261.799
 21
245.54
 31
0.0
  0
LINE
  5
CEB
100
AcDbEntity
  8
1
  6
CONTINUOUS
100
AcDbLine
 10
260.759
 20
246.497
 30
0.0
 11
260.629
 21
246.524
 31
0.0
  0
LINE
  5
CEC
100
AcDbEntity
  8
1
  6
CONTINUOUS
100
AcDbLine
 10
261.982
 20
243.986
 30
0.0
 11
261.857
 21
244.018
 31
0.0
  0
LINE
  5
CED
100
AcDbEntity
  8
1
  6
CONTINUOUS
100
AcDbLine
 10
262.295
 20
243.954
 30
0.0
 11
262.17
 21
243.986
 31
0.0
  0
LINE
  5
CEE
100
AcDbEntity
  8
1
  6
CONTINUOUS
100
AcDbLine
 10
262.232
 20
244.465
 30
0.0
 11
262.357
 21
244.433
 31
0.0
  0
LINE
  5
CEF
100
AcDbEntity
  8
1
  6
CONTINUOUS
100
AcDbLine
 10
260.655
 20
246.657
 30
0.0
 11
260.759
 21
246.63
 31
0.0
  0
LINE
  5
CF0
100
AcDbEntity
  8
1
  6
CONTINUOUS
100
AcDbLine
 10
261.982
 20
243.348
 30
0.0
 11
261.888
 21
243.38
 31
0.0
  0
LINE
  5
CF1
100
AcDbEntity
  8
1
  6
CONTINUOUS
100
AcDbLine
 10
262.17
 20
243.795
 30
0.0
 11
262.263
 21
243.763
 31
0.0
  0
LINE
  5
CF2
100
AcDbEntity
  8
1
  6
CONTINUOUS
100
AcDbLine
 10
241.172
 20
247.235
 30
0.0
 11
242.422
 21
246.513
 31
0.0
  0
LINE
  5
CF3
100
AcDbEntity
  8
1
  6
CONTINUOUS
100
AcDbLine
 10
243.672
 20
248.678
 30
0.0
 11
242.422
 21
249.4
 31
0.0
  0
LINE
  5
CF4
100
AcDbEntity
  8
1
  6
CONTINUOUS
100
AcDbLine
 10
248.513
 20
243.426
 30
0.0
 11
248.42
 21
243.49
 31
0.0
  0
LINE
  5
CF5
100
AcDbEntity
  8
1
  6
CONTINUOUS
100
AcDbLine
 10
248.826
 20
244.287
 30
0.0
 11
248.92
 21
244.224
 31
0.0
  0
LINE
  5
CF6
100
AcDbEntity
  8
1
  6
CONTINUOUS
100
AcDbLine
 10
247.42
 20
243.2
 30
0.0
 11
246.763
 21
243.716
 31
0.0
  0
LINE
  5
CF7
100
AcDbEntity
  8
1
  6
CONTINUOUS
100
AcDbLine
 10
249.207
 20
240.31
 30
0.0
 11
249.357
 21
240.169
 31
0.0
  0
LINE
  5
CF8
100
AcDbEntity
  8
1
  6
CONTINUOUS
100
AcDbLine
 10
245.638
 20
243.528
 30
0.0
 11
245.592
 21
243.575
 31
0.0
  0
LINE
  5
CF9
100
AcDbEntity
  8
1
  6
CONTINUOUS
100
AcDbLine
 10
242.27
 20
240.216
 30
0.0
 11
242.345
 21
240.122
 31
0.0
  0
LINE
  5
CFA
100
AcDbEntity
  8
1
  6
CONTINUOUS
100
AcDbLine
 10
244.895
 20
237.107
 30
0.0
 11
244.332
 21
237.81
 31
0.0
  0
LINE
  5
CFB
100
AcDbEntity
  8
1
  6
CONTINUOUS
100
AcDbLine
 10
244.032
 20
238.95
 30
0.0
 11
243.995
 21
238.997
 31
0.0
  0
LINE
  5
CFC
100
AcDbEntity
  8
1
  6
CONTINUOUS
100
AcDbLine
 10
247.37
 20
237.669
 30
0.0
 11
247.332
 21
237.716
 31
0.0
  0
LINE
  5
CFD
100
AcDbEntity
  8
1
  6
CONTINUOUS
100
AcDbLine
 10
239.982
 20
244.138
 30
0.0
 11
239.842
 21
244.325
 31
0.0
  0
LINE
  5
CFE
100
AcDbEntity
  8
1
  6
CONTINUOUS
100
AcDbLine
 10
245.645
 20
237.2
 30
0.0
 11
245.195
 21
237.81
 31
0.0
  0
LINE
  5
CFF
100
AcDbEntity
  8
1
  6
CONTINUOUS
100
AcDbLine
 10
238.576
 20
243.997
 30
0.0
 11
238.388
 21
244.278
 31
0.0
  0
LINE
  5
D00
100
AcDbEntity
  8
1
  6
CONTINUOUS
100
AcDbLine
 10
246.507
 20
236.45
 30
0.0
 11
246.395
 21
236.638
 31
0.0
  0
LINE
  5
D01
100
AcDbEntity
  8
1
  6
CONTINUOUS
100
AcDbLine
 10
246.582
 20
236.497
 30
0.0
 11
246.47
 21
236.685
 31
0.0
  0
LINE
  5
D02
100
AcDbEntity
  8
1
  6
CONTINUOUS
100
AcDbLine
 10
238.623
 20
243.903
 30
0.0
 11
238.529
 21
244.091
 31
0.0
  0
LINE
  5
D03
100
AcDbEntity
  8
1
  6
CONTINUOUS
100
AcDbLine
 10
241.82
 20
237.294
 30
0.0
 11
241.595
 21
237.81
 31
0.0
  0
LINE
  5
D04
100
AcDbEntity
  8
1
  6
CONTINUOUS
100
AcDbLine
 10
241.295
 20
240.169
 30
0.0
 11
241.257
 21
240.263
 31
0.0
  0
LINE
  5
D05
100
AcDbEntity
  8
1
  6
CONTINUOUS
100
AcDbLine
 10
240.62
 20
239.091
 30
0.0
 11
240.47
 21
239.513
 31
0.0
  0
LINE
  5
D06
100
AcDbEntity
  8
1
  6
CONTINUOUS
100
AcDbLine
 10
238.529
 20
244.091
 30
0.0
 11
238.482
 21
244.278
 31
0.0
  0
LINE
  5
D07
100
AcDbEntity
  8
1
  6
CONTINUOUS
100
AcDbLine
 10
240.029
 20
243.95
 30
0.0
 11
239.982
 21
244.138
 31
0.0
  0
LINE
  5
D08
100
AcDbEntity
  8
1
  6
CONTINUOUS
100
AcDbLine
 10
239.232
 20
236.919
 30
0.0
 11
239.195
 21
237.107
 31
0.0
  0
LINE
  5
D09
100
AcDbEntity
  8
1
  6
CONTINUOUS
100
AcDbLine
 10
240.132
 20
237.669
 30
0.0
 11
240.207
 21
237.294
 31
0.0
  0
LINE
  5
D0A
100
AcDbEntity
  8
1
  6
CONTINUOUS
100
AcDbLine
 10
240.02
 20
239.794
 30
0.0
 11
239.982
 21
239.982
 31
0.0
  0
LINE
  5
D0B
100
AcDbEntity
  8
1
  6
CONTINUOUS
100
AcDbLine
 10
239.232
 20
243.528
 30
0.0
 11
239.232
 21
244.56
 31
0.0
  0
LINE
  5
D0C
100
AcDbEntity
  8
1
  6
CONTINUOUS
100
AcDbLine
 10
239.701
 20
243.388
 30
0.0
 11
239.701
 21
243.95
 31
0.0
  0
LINE
  5
D0D
100
AcDbEntity
  8
1
  6
CONTINUOUS
100
AcDbLine
 10
240.02
 20
239.653
 30
0.0
 11
240.02
 21
239.794
 31
0.0
  0
LINE
  5
D0E
100
AcDbEntity
  8
1
  6
CONTINUOUS
100
AcDbLine
 10
240.029
 20
243.2
 30
0.0
 11
240.029
 21
243.95
 31
0.0
  0
LINE
  5
D0F
100
AcDbEntity
  8
1
  6
CONTINUOUS
100
AcDbLine
 10
240.207
 20
237.294
 30
0.0
 11
240.207
 21
237.06
 31
0.0
  0
LINE
  5
D10
100
AcDbEntity
  8
1
  6
CONTINUOUS
100
AcDbLine
 10
240.357
 20
243.95
 30
0.0
 11
240.357
 21
243.388
 31
0.0
  0
LINE
  5
D11
100
AcDbEntity
  8
1
  6
CONTINUOUS
100
AcDbLine
 10
240.545
 20
244.419
 30
0.0
 11
240.545
 21
243.294
 31
0.0
  0
LINE
  5
D12
100
AcDbEntity
  8
1
  6
CONTINUOUS
100
AcDbLine
 10
240.695
 20
236.45
 30
0.0
 11
240.695
 21
237.81
 31
0.0
  0
LINE
  5
D13
100
AcDbEntity
  8
1
  6
CONTINUOUS
100
AcDbLine
 10
240.826
 20
243.294
 30
0.0
 11
240.826
 21
244.419
 31
0.0
  0
LINE
  5
D14
100
AcDbEntity
  8
1
  6
CONTINUOUS
100
AcDbLine
 10
241.172
 20
248.678
 30
0.0
 11
241.172
 21
247.235
 31
0.0
  0
LINE
  5
D15
100
AcDbEntity
  8
1
  6
CONTINUOUS
100
AcDbLine
 10
241.295
 20
236.638
 30
0.0
 11
241.295
 21
236.45
 31
0.0
  0
LINE
  5
D16
100
AcDbEntity
  8
1
  6
CONTINUOUS
100
AcDbLine
 10
241.37
 20
239.513
 30
0.0
 11
241.37
 21
239.794
 31
0.0
  0
LINE
  5
D17
100
AcDbEntity
  8
1
  6
CONTINUOUS
100
AcDbLine
 10
241.745
 20
236.966
 30
0.0
 11
241.745
 21
236.45
 31
0.0
  0
LINE
  5
D18
100
AcDbEntity
  8
1
  6
CONTINUOUS
100
AcDbLine
 10
241.895
 20
239.325
 30
0.0
 11
241.895
 21
240.122
 31
0.0
  0
LINE
  5
D19
100
AcDbEntity
  8
1
  6
CONTINUOUS
100
AcDbLine
 10
242.382
 20
239.982
 30
0.0
 11
242.382
 21
239.888
 31
0.0
  0
LINE
  5
D1A
100
AcDbEntity
  8
1
  6
CONTINUOUS
100
AcDbLine
 10
242.57
 20
236.45
 30
0.0
 11
242.57
 21
237.622
 31
0.0
  0
LINE
  5
D1B
100
AcDbEntity
  8
1
  6
CONTINUOUS
100
AcDbLine
 10
241.332
 20
238.997
 30
0.0
 11
241.37
 21
239.513
 31
0.0
  0
LINE
  5
D1C
100
AcDbEntity
  8
1
  6
CONTINUOUS
100
AcDbLine
 10
239.682
 20
236.591
 30
0.0
 11
239.72
 21
237.013
 31
0.0
  0
LINE
  5
D1D
100
AcDbEntity
  8
1
  6
CONTINUOUS
100
AcDbLine
 10
238.782
 20
236.966
 30
0.0
 11
238.82
 21
237.294
 31
0.0
  0
LINE
  5
D1E
100
AcDbEntity
  8
1
  6
CONTINUOUS
100
AcDbLine
 10
240.882
 20
236.544
 30
0.0
 11
240.92
 21
236.872
 31
0.0
  0
LINE
  5
D1F
100
AcDbEntity
  8
1
  6
CONTINUOUS
100
AcDbLine
 10
239.72
 20
237.013
 30
0.0
 11
239.795
 21
237.435
 31
0.0
  0
LINE
  5
D20
100
AcDbEntity
  8
1
  6
CONTINUOUS
100
AcDbLine
 10
240.029
 20
243.95
 30
0.0
 11
240.076
 21
244.138
 31
0.0
  0
LINE
  5
D21
100
AcDbEntity
  8
1
  6
CONTINUOUS
100
AcDbLine
 10
239.195
 20
237.341
 30
0.0
 11
239.232
 21
237.482
 31
0.0
  0
LINE
  5
D22
100
AcDbEntity
  8
1
  6
CONTINUOUS
100
AcDbLine
 10
240.207
 20
237.06
 30
0.0
 11
240.132
 21
236.778
 31
0.0
  0
LINE
  5
D23
100
AcDbEntity
  8
1
  6
CONTINUOUS
100
AcDbLine
 10
237.695
 20
239.982
 30
0.0
 11
237.77
 21
240.216
 31
0.0
  0
LINE
  5
D24
100
AcDbEntity
  8
1
  6
CONTINUOUS
100
AcDbLine
 10
239.795
 20
237.435
 30
0.0
 11
239.87
 21
237.669
 31
0.0
  0
LINE
  5
D25
100
AcDbEntity
  8
1
  6
CONTINUOUS
100
AcDbLine
 10
238.82
 20
237.294
 30
0.0
 11
238.932
 21
237.622
 31
0.0
  0
LINE
  5
D26
100
AcDbEntity
  8
1
  6
CONTINUOUS
100
AcDbLine
 10
237.545
 20
240.028
 30
0.0
 11
237.582
 21
240.122
 31
0.0
  0
LINE
  5
D27
100
AcDbEntity
  8
1
  6
CONTINUOUS
100
AcDbLine
 10
237.77
 20
240.216
 30
0.0
 11
237.807
 21
240.31
 31
0.0
  0
LINE
  5
D28
100
AcDbEntity
  8
1
  6
CONTINUOUS
100
AcDbLine
 10
237.095
 20
237.669
 30
0.0
 11
237.132
 21
237.763
 31
0.0
  0
LINE
  5
D29
100
AcDbEntity
  8
1
  6
CONTINUOUS
100
AcDbLine
 10
237.582
 20
237.482
 30
0.0
 11
237.545
 21
237.388
 31
0.0
  0
LINE
  5
D2A
100
AcDbEntity
  8
1
  6
CONTINUOUS
100
AcDbLine
 10
239.945
 20
239.466
 30
0.0
 11
240.02
 21
239.653
 31
0.0
  0
LINE
  5
D2B
100
AcDbEntity
  8
1
  6
CONTINUOUS
100
AcDbLine
 10
239.092
 20
243.2
 30
0.0
 11
239.232
 21
243.528
 31
0.0
  0
LINE
  5
D2C
100
AcDbEntity
  8
1
  6
CONTINUOUS
100
AcDbLine
 10
239.232
 20
243.528
 30
0.0
 11
239.373
 21
243.81
 31
0.0
  0
LINE
  5
D2D
100
AcDbEntity
  8
1
  6
CONTINUOUS
100
AcDbLine
 10
240.076
 20
244.138
 30
0.0
 11
240.217
 21
244.325
 31
0.0
  0
LINE
  5
D2E
100
AcDbEntity
  8
1
  6
CONTINUOUS
100
AcDbLine
 10
236.532
 20
239.747
 30
0.0
 11
236.57
 21
239.794
 31
0.0
  0
LINE
  5
D2F
100
AcDbEntity
  8
1
  6
CONTINUOUS
100
AcDbLine
 10
237.507
 20
239.982
 30
0.0
 11
237.545
 21
240.028
 31
0.0
  0
LINE
  5
D30
100
AcDbEntity
  8
1
  6
CONTINUOUS
100
AcDbLine
 10
238.182
 20
237.763
 30
0.0
 11
238.22
 21
237.81
 31
0.0
  0
LINE
  5
D31
100
AcDbEntity
  8
1
  6
CONTINUOUS
100
AcDbLine
 10
240.217
 20
244.325
 30
0.0
 11
240.357
 21
244.466
 31
0.0
  0
LINE
  5
D32
100
AcDbEntity
  8
1
  6
CONTINUOUS
100
AcDbLine
 10
236.87
 20
239.56
 30
0.0
 11
237.132
 21
239.747
 31
0.0
  0
LINE
  5
D33
100
AcDbEntity
  8
1
  6
CONTINUOUS
100
AcDbLine
 10
238.107
 20
238.997
 30
0.0
 11
238.97
 21
239.607
 31
0.0
  0
LINE
  5
D34
100
AcDbEntity
  8
1
  6
CONTINUOUS
100
AcDbLine
 10
236.457
 20
239.7
 30
0.0
 11
236.532
 21
239.747
 31
0.0
  0
LINE
  5
D35
100
AcDbEntity
  8
1
  6
CONTINUOUS
100
AcDbLine
 10
237.432
 20
239.935
 30
0.0
 11
237.507
 21
239.982
 31
0.0
  0
LINE
  5
D36
100
AcDbEntity
  8
1
  6
CONTINUOUS
100
AcDbLine
 10
237.132
 20
237.763
 30
0.0
 11
237.207
 21
237.81
 31
0.0
  0
LINE
  5
D37
100
AcDbEntity
  8
1
  6
CONTINUOUS
100
AcDbLine
 10
254.917
 20
249.4
 30
0.0
 11
253.667
 21
248.678
 31
0.0
  0
LINE
  5
D38
100
AcDbEntity
  8
1
  6
CONTINUOUS
100
AcDbLine
 10
239.645
 20
239.232
 30
0.0
 11
239.832
 21
239.325
 31
0.0
  0
LINE
  5
D39
100
AcDbEntity
  8
1
  6
CONTINUOUS
100
AcDbLine
 10
235.857
 20
240.31
 30
0.0
 11
235.632
 21
240.216
 31
0.0
  0
LINE
  5
D3A
100
AcDbEntity
  8
1
  6
CONTINUOUS
100
AcDbLine
 10
260.499
 20
245.965
 30
0.0
 11
260.343
 21
245.912
 31
0.0
  0
LINE
  5
D3B
100
AcDbEntity
  8
1
  6
CONTINUOUS
100
AcDbLine
 10
237.432
 20
239.513
 30
0.0
 11
237.282
 21
239.466
 31
0.0
  0
LINE
  5
D3C
100
AcDbEntity
  8
1
  6
CONTINUOUS
100
AcDbLine
 10
243.357
 20
240.263
 30
0.0
 11
243.507
 21
240.31
 31
0.0
  0
LINE
  5
D3D
100
AcDbEntity
  8
1
  6
CONTINUOUS
100
AcDbLine
 10
245.195
 20
239.607
 30
0.0
 11
245.495
 21
239.7
 31
0.0
  0
LINE
  5
D3E
100
AcDbEntity
  8
1
  6
CONTINUOUS
100
AcDbLine
 10
190.82
 20
245.501
 30
0.0
 11
190.573
 21
245.445
 31
0.0
  0
LINE
  5
D3F
100
AcDbEntity
  8
1
  6
CONTINUOUS
100
AcDbLine
 10
196.57
 20
248.312
 30
0.0
 11
196.817
 21
248.368
 31
0.0
  0
LINE
  5
D40
100
AcDbEntity
  8
1
  6
CONTINUOUS
100
AcDbLine
 10
196.817
 20
248.368
 30
0.0
 11
197.07
 21
248.423
 31
0.0
  0
LINE
  5
D41
100
AcDbEntity
  8
1
  6
CONTINUOUS
100
AcDbLine
 10
180.838
 20
251.659
 30
0.0
 11
181.67
 21
251.732
 31
0.0
  0
LINE
  5
D42
100
AcDbEntity
  8
1
  6
CONTINUOUS
100
AcDbLine
 10
281.67
 20
254.907
 30
0.0
 11
281.17
 21
254.907
 31
0.0
  0
LINE
  5
D43
100
AcDbEntity
  8
1
  6
CONTINUOUS
100
AcDbLine
 10
281.145
 20
254.907
 30
0.0
 11
280.645
 21
254.907
 31
0.0
  0
LINE
  5
D44
100
AcDbEntity
  8
1
  6
CONTINUOUS
100
AcDbLine
 10
182.17
 20
254.907
 30
0.0
 11
181.67
 21
254.907
 31
0.0
  0
LINE
  5
D45
100
AcDbEntity
  8
1
  6
CONTINUOUS
100
AcDbLine
 10
182.195
 20
254.907
 30
0.0
 11
182.695
 21
254.907
 31
0.0
  0
LINE
  5
D46
100
AcDbEntity
  8
1
  6
CONTINUOUS
100
AcDbLine
 10
182.17
 20
255.407
 30
0.0
 11
181.67
 21
255.407
 31
0.0
  0
LINE
  5
D47
100
AcDbEntity
  8
1
  6
CONTINUOUS
100
AcDbLine
 10
182.195
 20
255.407
 30
0.0
 11
281.67
 21
255.407
 31
0.0
  0
LINE
  5
D48
100
AcDbEntity
  8
1
  6
CONTINUOUS
100
AcDbLine
 10
219.17
 20
255.457
 30
0.0
 11
244.17
 21
255.457
 31
0.0
  0
LINE
  5
D49
100
AcDbEntity
  8
1
  6
CONTINUOUS
100
AcDbLine
 10
282.501
 20
251.659
 30
0.0
 11
281.67
 21
251.732
 31
0.0
  0
LINE
  5
D4A
100
AcDbEntity
  8
1
  6
CONTINUOUS
100
AcDbLine
 10
260.291
 20
246.018
 30
0.0
 11
260.16
 21
246.071
 31
0.0
  0
LINE
  5
D4B
100
AcDbEntity
  8
1
  6
CONTINUOUS
100
AcDbLine
 10
261.701
 20
243.891
 30
0.0
 11
261.826
 21
243.827
 31
0.0
  0
LINE
  5
D4C
100
AcDbEntity
  8
1
  6
CONTINUOUS
100
AcDbLine
 10
254.717
 20
239.45
 30
0.0
 11
254.529
 21
239.591
 31
0.0
  0
LINE
  5
D4D
100
AcDbEntity
  8
1
  6
CONTINUOUS
100
AcDbLine
 10
249.388
 20
243.528
 30
0.0
 11
249.342
 21
243.575
 31
0.0
  0
LINE
  5
D4E
100
AcDbEntity
  8
1
  6
CONTINUOUS
100
AcDbLine
 10
252.795
 20
240.482
 30
0.0
 11
252.513
 21
240.763
 31
0.0
  0
LINE
  5
D4F
100
AcDbEntity
  8
1
  6
CONTINUOUS
100
AcDbLine
 10
253.217
 20
240.482
 30
0.0
 11
253.029
 21
240.669
 31
0.0
  0
LINE
  5
D50
100
AcDbEntity
  8
1
  6
CONTINUOUS
100
AcDbLine
 10
253.451
 20
240.763
 30
0.0
 11
253.404
 21
240.81
 31
0.0
  0
LINE
  5
D51
100
AcDbEntity
  8
1
  6
CONTINUOUS
100
AcDbLine
 10
247.707
 20
238.95
 30
0.0
 11
247.595
 21
239.185
 31
0.0
  0
LINE
  5
D52
100
AcDbEntity
  8
1
  6
CONTINUOUS
100
AcDbLine
 10
242.345
 20
240.122
 30
0.0
 11
242.382
 21
239.982
 31
0.0
  0
LINE
  5
D53
100
AcDbEntity
  8
1
  6
CONTINUOUS
100
AcDbLine
 10
241.37
 20
239.794
 30
0.0
 11
241.295
 21
240.169
 31
0.0
  0
LINE
  5
D54
100
AcDbEntity
  8
1
  6
CONTINUOUS
100
AcDbLine
 10
240.47
 20
239.513
 30
0.0
 11
240.395
 21
240.075
 31
0.0
  0
LINE
  5
D55
100
AcDbEntity
  8
1
  6
CONTINUOUS
100
AcDbLine
 10
243.845
 20
239.607
 30
0.0
 11
243.807
 21
240.216
 31
0.0
  0
LINE
  5
D56
100
AcDbEntity
  8
1
  6
CONTINUOUS
100
AcDbLine
 10
243.132
 20
238.997
 30
0.0
 11
243.132
 21
239.747
 31
0.0
  0
LINE
  5
D57
100
AcDbEntity
  8
1
  6
CONTINUOUS
100
AcDbLine
 10
243.67
 20
255.457
 30
0.0
 11
243.67
 21
255.407
 31
0.0
  0
LINE
  5
D58
100
AcDbEntity
  8
1
  6
CONTINUOUS
100
AcDbLine
 10
243.672
 20
247.235
 30
0.0
 11
243.672
 21
248.678
 31
0.0
  0
LINE
  5
D59
100
AcDbEntity
  8
1
  6
CONTINUOUS
100
AcDbLine
 10
243.92
 20
245.357
 30
0.0
 11
243.92
 21
250.607
 31
0.0
  0
LINE
  5
D5A
100
AcDbEntity
  8
1
  6
CONTINUOUS
100
AcDbLine
 10
243.995
 20
238.997
 30
0.0
 11
243.995
 21
240.263
 31
0.0
  0
LINE
  5
D5B
100
AcDbEntity
  8
1
  6
CONTINUOUS
100
AcDbLine
 10
244.17
 20
255.457
 30
0.0
 11
244.17
 21
255.407
 31
0.0
  0
LINE
  5
D5C
100
AcDbEntity
  8
1
  6
CONTINUOUS
100
AcDbLine
 10
244.37
 20
239.607
 30
0.0
 11
244.37
 21
240.31
 31
0.0
  0
LINE
  5
D5D
100
AcDbEntity
  8
1
  6
CONTINUOUS
100
AcDbLine
 10
244.445
 20
238.95
 30
0.0
 11
244.445
 21
239.419
 31
0.0
  0
LINE
  5
D5E
100
AcDbEntity
  8
1
  6
CONTINUOUS
100
AcDbLine
 10
244.632
 20
238.95
 30
0.0
 11
244.632
 21
239.419
 31
0.0
  0
LINE
  5
D5F
100
AcDbEntity
  8
1
  6
CONTINUOUS
100
AcDbLine
 10
244.67
 20
239.607
 30
0.0
 11
244.67
 21
240.028
 31
0.0
  0
LINE
  5
D60
100
AcDbEntity
  8
1
  6
CONTINUOUS
100
AcDbLine
 10
245.045
 20
240.31
 30
0.0
 11
245.045
 21
238.95
 31
0.0
  0
LINE
  5
D61
100
AcDbEntity
  8
1
  6
CONTINUOUS
100
AcDbLine
 10
245.357
 20
244.56
 30
0.0
 11
245.357
 21
243.435
 31
0.0
  0
LINE
  5
D62
100
AcDbEntity
  8
1
  6
CONTINUOUS
100
AcDbLine
 10
245.495
 20
239.607
 30
0.0
 11
245.495
 21
240.028
 31
0.0
  0
LINE
  5
D63
100
AcDbEntity
  8
1
  6
CONTINUOUS
100
AcDbLine
 10
245.592
 20
243.575
 30
0.0
 11
245.592
 21
244.278
 31
0.0
  0
LINE
  5
D64
100
AcDbEntity
  8
1
  6
CONTINUOUS
100
AcDbLine
 10
245.907
 20
240.075
 30
0.0
 11
245.907
 21
240.169
 31
0.0
  0
LINE
  5
D65
100
AcDbEntity
  8
1
  6
CONTINUOUS
100
AcDbLine
 10
245.967
 20
243.247
 30
0.0
 11
245.967
 21
244.278
 31
0.0
  0
LINE
  5
D66
100
AcDbEntity
  8
1
  6
CONTINUOUS
100
AcDbLine
 10
243.807
 20
239.044
 30
0.0
 11
243.845
 21
239.607
 31
0.0
  0
LINE
  5
D67
100
AcDbEntity
  8
1
  6
CONTINUOUS
100
AcDbLine
 10
243.132
 20
239.747
 30
0.0
 11
243.17
 21
240.028
 31
0.0
  0
LINE
  5
D68
100
AcDbEntity
  8
1
  6
CONTINUOUS
100
AcDbLine
 10
244.859
 20
248.899
 30
0.0
 11
244.603
 21
247.449
 31
0.0
  0
LINE
  5
D69
100
AcDbEntity
  8
1
  6
CONTINUOUS
100
AcDbLine
 10
245.105
 20
248.855
 30
0.0
 11
244.85
 21
247.405
 31
0.0
  0
LINE
  5
D6A
100
AcDbEntity
  8
1
  6
CONTINUOUS
100
AcDbLine
 10
244.032
 20
236.638
 30
0.0
 11
244.07
 21
236.825
 31
0.0
  0
LINE
  5
D6B
100
AcDbEntity
  8
1
  6
CONTINUOUS
100
AcDbLine
 10
241.82
 20
237.294
 30
0.0
 11
241.745
 21
236.966
 31
0.0
  0
LINE
  5
D6C
100
AcDbEntity
  8
1
  6
CONTINUOUS
100
AcDbLine
 10
242.87
 20
237.013
 30
0.0
 11
242.795
 21
236.732
 31
0.0
  0
LINE
  5
D6D
100
AcDbEntity
  8
1
  6
CONTINUOUS
100
AcDbLine
 10
244.67
 20
240.028
 30
0.0
 11
244.707
 21
240.169
 31
0.0
  0
LINE
  5
D6E
100
AcDbEntity
  8
1
  6
CONTINUOUS
100
AcDbLine
 10
242.27
 20
238.95
 30
0.0
 11
242.645
 21
240.122
 31
0.0
  0
LINE
  5
D6F
100
AcDbEntity
  8
1
  6
CONTINUOUS
100
AcDbLine
 10
241.482
 20
237.153
 30
0.0
 11
241.295
 21
236.638
 31
0.0
  0
LINE
  5
D70
100
AcDbEntity
  8
1
  6
CONTINUOUS
100
AcDbLine
 10
241.895
 20
240.122
 30
0.0
 11
241.932
 21
240.216
 31
0.0
  0
LINE
  5
D71
100
AcDbEntity
  8
1
  6
CONTINUOUS
100
AcDbLine
 10
240.92
 20
236.872
 30
0.0
 11
241.07
 21
237.247
 31
0.0
  0
LINE
  5
D72
100
AcDbEntity
  8
1
  6
CONTINUOUS
100
AcDbLine
 10
242.382
 20
239.888
 30
0.0
 11
242.345
 21
239.794
 31
0.0
  0
LINE
  5
D73
100
AcDbEntity
  8
1
  6
CONTINUOUS
100
AcDbLine
 10
241.895
 20
237.482
 30
0.0
 11
241.82
 21
237.294
 31
0.0
  0
LINE
  5
D74
100
AcDbEntity
  8
1
  6
CONTINUOUS
100
AcDbLine
 10
242.945
 20
237.2
 30
0.0
 11
242.87
 21
237.013
 31
0.0
  0
LINE
  5
D75
100
AcDbEntity
  8
1
  6
CONTINUOUS
100
AcDbLine
 10
239.232
 20
237.482
 30
0.0
 11
239.307
 21
237.622
 31
0.0
  0
LINE
  5
D76
100
AcDbEntity
  8
1
  6
CONTINUOUS
100
AcDbLine
 10
243.17
 20
240.028
 30
0.0
 11
243.245
 21
240.169
 31
0.0
  0
LINE
  5
D77
100
AcDbEntity
  8
1
  6
CONTINUOUS
100
AcDbLine
 10
241.07
 20
237.247
 30
0.0
 11
241.257
 21
237.575
 31
0.0
  0
LINE
  5
D78
100
AcDbEntity
  8
1
  6
CONTINUOUS
100
AcDbLine
 10
241.22
 20
240.263
 30
0.0
 11
240.92
 21
239.794
 31
0.0
  0
LINE
  5
D79
100
AcDbEntity
  8
1
  6
CONTINUOUS
100
AcDbLine
 10
239.832
 20
239.325
 30
0.0
 11
239.945
 21
239.466
 31
0.0
  0
LINE
  5
D7A
100
AcDbEntity
  8
1
  6
CONTINUOUS
100
AcDbLine
 10
238.932
 20
237.622
 30
0.0
 11
239.082
 21
237.81
 31
0.0
  0
LINE
  5
D7B
100
AcDbEntity
  8
1
  6
CONTINUOUS
100
AcDbLine
 10
239.87
 20
237.669
 30
0.0
 11
239.945
 21
237.763
 31
0.0
  0
LINE
  5
D7C
100
AcDbEntity
  8
1
  6
CONTINUOUS
100
AcDbLine
 10
243.995
 20
240.263
 30
0.0
 11
244.032
 21
240.31
 31
0.0
  0
LINE
  5
D7D
100
AcDbEntity
  8
1
  6
CONTINUOUS
100
AcDbLine
 10
242.007
 20
237.622
 30
0.0
 11
241.895
 21
237.482
 31
0.0
  0
LINE
  5
D7E
100
AcDbEntity
  8
1
  6
CONTINUOUS
100
AcDbLine
 10
241.257
 20
237.575
 30
0.0
 11
241.482
 21
237.81
 31
0.0
  0
LINE
  5
D7F
100
AcDbEntity
  8
1
  6
CONTINUOUS
100
AcDbLine
 10
240.132
 20
236.778
 30
0.0
 11
239.945
 21
236.591
 31
0.0
  0
LINE
  5
D80
100
AcDbEntity
  8
1
  6
CONTINUOUS
100
AcDbLine
 10
253.629
 20
248.7
 30
0.0
 11
254.232
 21
249.303
 31
0.0
  0
LINE
  5
D81
100
AcDbEntity
  8
1
  6
CONTINUOUS
100
AcDbLine
 10
239.307
 20
237.622
 30
0.0
 11
239.42
 21
237.716
 31
0.0
  0
LINE
  5
D82
100
AcDbEntity
  8
1
  6
CONTINUOUS
100
AcDbLine
 10
243.245
 20
240.169
 30
0.0
 11
243.357
 21
240.263
 31
0.0
  0
LINE
  5
D83
100
AcDbEntity
  8
1
  6
CONTINUOUS
100
AcDbLine
 10
242.682
 20
237.716
 30
0.0
 11
242.045
 21
237.247
 31
0.0
  0
LINE
  5
D84
100
AcDbEntity
  8
1
  6
CONTINUOUS
100
AcDbLine
 10
248.123
 20
243.716
 30
0.0
 11
247.42
 21
243.2
 31
0.0
  0
LINE
  5
D85
100
AcDbEntity
  8
1
  6
CONTINUOUS
100
AcDbLine
 10
241.932
 20
240.216
 30
0.0
 11
242.007
 21
240.263
 31
0.0
  0
LINE
  5
D86
100
AcDbEntity
  8
1
  6
CONTINUOUS
100
AcDbLine
 10
237.545
 20
237.388
 30
0.0
 11
237.47
 21
237.341
 31
0.0
  0
LINE
  5
D87
100
AcDbEntity
  8
1
  6
CONTINUOUS
100
AcDbLine
 10
242.345
 20
239.794
 30
0.0
 11
242.27
 21
239.747
 31
0.0
  0
LINE
  5
D88
100
AcDbEntity
  8
1
  6
CONTINUOUS
100
AcDbLine
 10
246.057
 20
239.607
 30
0.0
 11
245.832
 21
239.466
 31
0.0
  0
LINE
  5
D89
100
AcDbEntity
  8
1
  6
CONTINUOUS
100
AcDbLine
 10
254.917
 20
246.513
 30
0.0
 11
256.167
 21
247.235
 31
0.0
  0
LINE
  5
D8A
100
AcDbEntity
  8
1
  6
CONTINUOUS
100
AcDbLine
 10
245.495
 20
239.7
 30
0.0
 11
245.757
 21
239.841
 31
0.0
  0
LINE
  5
D8B
100
AcDbEntity
  8
1
  6
CONTINUOUS
100
AcDbLine
 10
243.507
 20
237.669
 30
0.0
 11
243.245
 21
237.528
 31
0.0
  0
LINE
  5
D8C
100
AcDbEntity
  8
1
  6
CONTINUOUS
100
AcDbLine
 10
260.238
 20
246.577
 30
0.0
 11
260.343
 21
246.63
 31
0.0
  0
LINE
  5
D8D
100
AcDbEntity
  8
1
  6
CONTINUOUS
100
AcDbLine
 10
260.343
 20
246.497
 30
0.0
 11
260.291
 21
246.47
 31
0.0
  0
LINE
  5
D8E
100
AcDbEntity
  8
1
  6
CONTINUOUS
100
AcDbLine
 10
260.863
 20
245.486
 30
0.0
 11
260.759
 21
245.433
 31
0.0
  0
LINE
  5
D8F
100
AcDbEntity
  8
1
  6
CONTINUOUS
100
AcDbLine
 10
242.195
 20
237.716
 30
0.0
 11
242.007
 21
237.622
 31
0.0
  0
LINE
  5
D90
100
AcDbEntity
  8
1
  6
CONTINUOUS
100
AcDbLine
 10
239.42
 20
237.716
 30
0.0
 11
239.532
 21
237.763
 31
0.0
  0
LINE
  5
D91
100
AcDbEntity
  8
1
  6
CONTINUOUS
100
AcDbLine
 10
245.832
 20
239.466
 30
0.0
 11
245.72
 21
239.419
 31
0.0
  0
LINE
  5
D92
100
AcDbEntity
  8
1
  6
CONTINUOUS
100
AcDbLine
 10
243.845
 20
237.81
 30
0.0
 11
243.507
 21
237.669
 31
0.0
  0
LINE
  5
D93
100
AcDbEntity
  8
1
  6
CONTINUOUS
100
AcDbLine
 10
242.457
 20
237.81
 30
0.0
 11
242.195
 21
237.716
 31
0.0
  0
LINE
  5
D94
100
AcDbEntity
  8
1
  6
CONTINUOUS
100
AcDbLine
 10
247.032
 20
236.966
 30
0.0
 11
246.77
 21
236.872
 31
0.0
  0
LINE
  5
D95
100
AcDbEntity
  8
1
  6
CONTINUOUS
100
AcDbLine
 10
262.263
 20
243.38
 30
0.0
 11
262.17
 21
243.348
 31
0.0
  0
LINE
  5
D96
100
AcDbEntity
  8
1
  6
CONTINUOUS
100
AcDbLine
 10
239.532
 20
237.763
 30
0.0
 11
239.682
 21
237.81
 31
0.0
  0
LINE
  5
D97
100
AcDbEntity
  8
1
  6
CONTINUOUS
100
AcDbLine
 10
249.282
 20
237.716
 30
0.0
 11
249.432
 21
237.763
 31
0.0
  0
LINE
  5
D98
100
AcDbEntity
  8
1
  6
CONTINUOUS
100
AcDbLine
 10
192.195
 20
260.407
 30
0.0
 11
201.194
 21
260.407
 31
0.0
  0
LINE
  5
D99
100
AcDbEntity
  8
1
  6
CONTINUOUS
100
AcDbLine
 10
262.195
 20
260.407
 30
0.0
 11
271.194
 21
260.407
 31
0.0
  0
LINE
  5
D9A
100
AcDbEntity
  8
1
  6
CONTINUOUS
100
AcDbLine
 10
262.42
 20
243.891
 30
0.0
 11
262.295
 21
243.954
 31
0.0
  0
LINE
  5
D9B
100
AcDbEntity
  8
1
  6
CONTINUOUS
100
AcDbLine
 10
260.343
 20
245.433
 30
0.0
 11
260.238
 21
245.486
 31
0.0
  0
LINE
  5
D9C
100
AcDbEntity
  8
1
  6
CONTINUOUS
100
AcDbLine
 10
261.617
 20
245.433
 30
0.0
 11
261.512
 21
245.486
 31
0.0
  0
LINE
  5
D9D
100
AcDbEntity
  8
1
  6
CONTINUOUS
100
AcDbLine
 10
260.811
 20
246.47
 30
0.0
 11
260.759
 21
246.497
 31
0.0
  0
LINE
  5
D9E
100
AcDbEntity
  8
1
  6
CONTINUOUS
100
AcDbLine
 10
260.759
 20
246.63
 30
0.0
 11
260.863
 21
246.577
 31
0.0
  0
LINE
  5
D9F
100
AcDbEntity
  8
1
  6
CONTINUOUS
100
AcDbLine
 10
253.667
 20
247.235
 30
0.0
 11
254.917
 21
246.513
 31
0.0
  0
LINE
  5
DA0
100
AcDbEntity
  8
1
  6
CONTINUOUS
100
AcDbLine
 10
256.167
 20
248.678
 30
0.0
 11
254.917
 21
249.4
 31
0.0
  0
LINE
  5
DA1
100
AcDbEntity
  8
1
  6
CONTINUOUS
100
AcDbLine
 10
262.545
 20
244.529
 30
0.0
 11
262.388
 21
244.625
 31
0.0
  0
LINE
  5
DA2
100
AcDbEntity
  8
1
  6
CONTINUOUS
100
AcDbLine
 10
255.279
 20
239.497
 30
0.0
 11
255.045
 21
239.732
 31
0.0
  0
LINE
  5
DA3
100
AcDbEntity
  8
1
  6
CONTINUOUS
100
AcDbLine
 10
255.326
 20
239.872
 30
0.0
 11
255.092
 21
240.107
 31
0.0
  0
LINE
  5
DA4
100
AcDbEntity
  8
1
  6
CONTINUOUS
100
AcDbLine
 10
252.376
 20
238.532
 30
0.0
 11
253.876
 21
235.932
 31
0.0
  0
LINE
  5
DA5
100
AcDbEntity
  8
1
  6
CONTINUOUS
100
AcDbLine
 10
247.782
 20
238.997
 30
0.0
 11
247.67
 21
239.232
 31
0.0
  0
LINE
  5
DA6
100
AcDbEntity
  8
1
  6
CONTINUOUS
100
AcDbLine
 10
245.532
 20
239.466
 30
0.0
 11
245.495
 21
239.607
 31
0.0
  0
LINE
  5
DA7
100
AcDbEntity
  8
1
  6
CONTINUOUS
100
AcDbLine
 10
247.895
 20
238.997
 30
0.0
 11
247.782
 21
239.513
 31
0.0
  0
LINE
  5
DA8
100
AcDbEntity
  8
1
  6
CONTINUOUS
100
AcDbLine
 10
247.782
 20
239.513
 30
0.0
 11
247.707
 21
239.888
 31
0.0
  0
LINE
  5
DA9
100
AcDbEntity
  8
1
  6
CONTINUOUS
100
AcDbLine
 10
247.707
 20
239.888
 30
0.0
 11
247.632
 21
240.31
 31
0.0
  0
LINE
  5
DAA
100
AcDbEntity
  8
1
  6
CONTINUOUS
100
AcDbLine
 10
246.342
 20
244.278
 30
0.0
 11
246.342
 21
243.528
 31
0.0
  0
LINE
  5
DAB
100
AcDbEntity
  8
1
  6
CONTINUOUS
100
AcDbLine
 10
246.576
 20
243.435
 30
0.0
 11
246.576
 21
244.56
 31
0.0
  0
LINE
  5
DAC
100
AcDbEntity
  8
1
  6
CONTINUOUS
100
AcDbLine
 10
247.37
 20
236.497
 30
0.0
 11
247.37
 21
237.669
 31
0.0
  0
LINE
  5
DAD
100
AcDbEntity
  8
1
  6
CONTINUOUS
100
AcDbLine
 10
247.42
 20
243.716
 30
0.0
 11
247.42
 21
244.56
 31
0.0
  0
LINE
  5
DAE
100
AcDbEntity
  8
1
  6
CONTINUOUS
100
AcDbLine
 10
248.907
 20
239.278
 30
0.0
 11
248.907
 21
239.653
 31
0.0
  0
LINE
  5
DAF
100
AcDbEntity
  8
1
  6
CONTINUOUS
100
AcDbLine
 10
249.057
 20
236.497
 30
0.0
 11
249.057
 21
237.341
 31
0.0
  0
LINE
  5
DB0
100
AcDbEntity
  8
1
  6
CONTINUOUS
100
AcDbLine
 10
249.107
 20
244.56
 30
0.0
 11
249.107
 21
243.435
 31
0.0
  0
LINE
  5
DB1
100
AcDbEntity
  8
1
  6
CONTINUOUS
100
AcDbLine
 10
249.342
 20
243.575
 30
0.0
 11
249.342
 21
244.278
 31
0.0
  0
LINE
  5
DB2
100
AcDbEntity
  8
1
  6
CONTINUOUS
100
AcDbLine
 10
249.62
 20
237.247
 30
0.0
 11
249.62
 21
236.497
 31
0.0
  0
LINE
  5
DB3
100
AcDbEntity
  8
1
  6
CONTINUOUS
100
AcDbLine
 10
249.717
 20
243.247
 30
0.0
 11
249.717
 21
244.278
 31
0.0
  0
LINE
  5
DB4
100
AcDbEntity
  8
1
  6
CONTINUOUS
100
AcDbLine
 10
248.907
 20
239.653
 30
0.0
 11
248.945
 21
239.935
 31
0.0
  0
LINE
  5
DB5
100
AcDbEntity
  8
1
  6
CONTINUOUS
100
AcDbLine
 10
248.345
 20
238.997
 30
0.0
 11
248.457
 21
239.7
 31
0.0
  0
LINE
  5
DB6
100
AcDbEntity
  8
1
  6
CONTINUOUS
100
AcDbLine
 10
245.42
 20
236.591
 30
0.0
 11
245.495
 21
236.872
 31
0.0
  0
LINE
  5
DB7
100
AcDbEntity
  8
1
  6
CONTINUOUS
100
AcDbLine
 10
244.07
 20
236.825
 30
0.0
 11
244.145
 21
237.06
 31
0.0
  0
LINE
  5
DB8
100
AcDbEntity
  8
1
  6
CONTINUOUS
100
AcDbLine
 10
245.87
 20
239.982
 30
0.0
 11
245.907
 21
240.075
 31
0.0
  0
LINE
  5
DB9
100
AcDbEntity
  8
1
  6
CONTINUOUS
100
AcDbLine
 10
245.495
 20
236.872
 30
0.0
 11
245.645
 21
237.2
 31
0.0
  0
LINE
  5
DBA
100
AcDbEntity
  8
1
  6
CONTINUOUS
100
AcDbLine
 10
245.757
 20
238.95
 30
0.0
 11
246.17
 21
239.841
 31
0.0
  0
LINE
  5
DBB
100
AcDbEntity
  8
1
  6
CONTINUOUS
100
AcDbLine
 10
248.42
 20
243.49
 30
0.0
 11
248.826
 21
244.287
 31
0.0
  0
LINE
  5
DBC
100
AcDbEntity
  8
1
  6
CONTINUOUS
100
AcDbLine
 10
248.92
 20
244.224
 30
0.0
 11
248.513
 21
243.426
 31
0.0
  0
LINE
  5
DBD
100
AcDbEntity
  8
1
  6
CONTINUOUS
100
AcDbLine
 10
244.707
 20
240.169
 30
0.0
 11
244.782
 21
240.31
 31
0.0
  0
LINE
  5
DBE
100
AcDbEntity
  8
1
  6
CONTINUOUS
100
AcDbLine
 10
244.145
 20
237.06
 30
0.0
 11
244.22
 21
237.2
 31
0.0
  0
LINE
  5
DBF
100
AcDbEntity
  8
1
  6
CONTINUOUS
100
AcDbLine
 10
245.645
 20
237.2
 30
0.0
 11
245.795
 21
237.435
 31
0.0
  0
LINE
  5
DC0
100
AcDbEntity
  8
1
  6
CONTINUOUS
100
AcDbLine
 10
243.095
 20
237.388
 30
0.0
 11
242.945
 21
237.2
 31
0.0
  0
LINE
  5
DC1
100
AcDbEntity
  8
1
  6
CONTINUOUS
100
AcDbLine
 10
245.757
 20
239.841
 30
0.0
 11
245.87
 21
239.982
 31
0.0
  0
LINE
  5
DC2
100
AcDbEntity
  8
1
  6
CONTINUOUS
100
AcDbLine
 10
244.22
 20
237.2
 30
0.0
 11
244.332
 21
237.341
 31
0.0
  0
LINE
  5
DC3
100
AcDbEntity
  8
1
  6
CONTINUOUS
100
AcDbLine
 10
249.057
 20
240.216
 30
0.0
 11
249.132
 21
240.31
 31
0.0
  0
LINE
  5
DC4
100
AcDbEntity
  8
1
  6
CONTINUOUS
100
AcDbLine
 10
251.92
 20
243.968
 30
0.0
 11
251.17
 21
243.107
 31
0.0
  0
LINE
  5
DC5
100
AcDbEntity
  8
1
  6
CONTINUOUS
100
AcDbLine
 10
251.701
 20
243.968
 30
0.0
 11
251.17
 21
243.362
 31
0.0
  0
LINE
  5
DC6
100
AcDbEntity
  8
1
  6
CONTINUOUS
100
AcDbLine
 10
243.245
 20
237.528
 30
0.0
 11
243.095
 21
237.388
 31
0.0
  0
LINE
  5
DC7
100
AcDbEntity
  8
1
  6
CONTINUOUS
100
AcDbLine
 10
245.795
 20
237.435
 30
0.0
 11
245.945
 21
237.575
 31
0.0
  0
LINE
  5
DC8
100
AcDbEntity
  8
1
  6
CONTINUOUS
100
AcDbLine
 10
245.945
 20
237.575
 30
0.0
 11
246.207
 21
237.81
 31
0.0
  0
LINE
  5
DC9
100
AcDbEntity
  8
1
  6
CONTINUOUS
100
AcDbLine
 10
244.332
 20
237.341
 30
0.0
 11
244.557
 21
237.528
 31
0.0
  0
LINE
  5
DCA
100
AcDbEntity
  8
1
  6
CONTINUOUS
100
AcDbLine
 10
260.186
 20
245.938
 30
0.0
 11
260.291
 21
246.018
 31
0.0
  0
LINE
  5
DCB
100
AcDbEntity
  8
1
  6
CONTINUOUS
100
AcDbLine
 10
260.16
 20
246.524
 30
0.0
 11
260.238
 21
246.577
 31
0.0
  0
LINE
  5
DCC
100
AcDbEntity
  8
1
  6
CONTINUOUS
100
AcDbLine
 10
260.733
 20
245.566
 30
0.0
 11
260.811
 21
245.619
 31
0.0
  0
LINE
  5
DCD
100
AcDbEntity
  8
1
  6
CONTINUOUS
100
AcDbLine
 10
246.77
 20
236.872
 30
0.0
 11
246.545
 21
236.732
 31
0.0
  0
LINE
  5
DCE
100
AcDbEntity
  8
1
  6
CONTINUOUS
100
AcDbLine
 10
262.163
 20
245.486
 30
0.0
 11
262.059
 21
245.433
 31
0.0
  0
LINE
  5
DCF
100
AcDbEntity
  8
1
  6
CONTINUOUS
100
AcDbLine
 10
261.826
 20
244.625
 30
0.0
 11
261.701
 21
244.561
 31
0.0
  0
LINE
  5
DD0
100
AcDbEntity
  8
1
  6
CONTINUOUS
100
AcDbLine
 10
262.295
 20
243.188
 30
0.0
 11
262.42
 21
243.252
 31
0.0
  0
LINE
  5
DD1
100
AcDbEntity
  8
1
  6
CONTINUOUS
100
AcDbLine
 10
261.857
 20
244.018
 30
0.0
 11
261.763
 21
244.082
 31
0.0
  0
LINE
  5
DD2
100
AcDbEntity
  8
1
  6
CONTINUOUS
100
AcDbLine
 10
262.263
 20
243.763
 30
0.0
 11
262.357
 21
243.699
 31
0.0
  0
LINE
  5
DD3
100
AcDbEntity
  8
1
  6
CONTINUOUS
100
AcDbLine
 10
260.291
 20
245.619
 30
0.0
 11
260.369
 21
245.566
 31
0.0
  0
LINE
  5
DD4
100
AcDbEntity
  8
1
  6
CONTINUOUS
100
AcDbLine
 10
260.264
 20
246.151
 30
0.0
 11
260.343
 21
246.098
 31
0.0
  0
LINE
  5
DD5
100
AcDbEntity
  8
1
  6
CONTINUOUS
100
AcDbLine
 10
261.591
 20
245.619
 30
0.0
 11
261.669
 21
245.566
 31
0.0
  0
LINE
  5
DD6
100
AcDbEntity
  8
1
  6
CONTINUOUS
100
AcDbLine
 10
260.863
 20
246.577
 30
0.0
 11
260.942
 21
246.524
 31
0.0
  0
LINE
  5
DD7
100
AcDbEntity
  8
1
  6
CONTINUOUS
100
AcDbLine
 10
261.732
 20
243.284
 30
0.0
 11
261.857
 21
243.188
 31
0.0
  0
LINE
  5
DD8
100
AcDbEntity
  8
1
  6
CONTINUOUS
100
AcDbLine
 10
260.57
 20
242.607
 30
0.0
 11
261.17
 21
242.007
 31
0.0
  0
LINE
  5
DD9
100
AcDbEntity
  8
1
  6
CONTINUOUS
100
AcDbLine
 10
253.498
 20
239.591
 30
0.0
 11
253.404
 21
239.825
 31
0.0
  0
LINE
  5
DDA
100
AcDbEntity
  8
1
  6
CONTINUOUS
100
AcDbLine
 10
250.092
 20
244.278
 30
0.0
 11
250.092
 21
243.528
 31
0.0
  0
LINE
  5
DDB
100
AcDbEntity
  8
1
  6
CONTINUOUS
100
AcDbLine
 10
250.326
 20
243.435
 30
0.0
 11
250.326
 21
244.56
 31
0.0
  0
LINE
  5
DDC
100
AcDbEntity
  8
1
  6
CONTINUOUS
100
AcDbLine
 10
250.67
 20
243.968
 30
0.0
 11
250.67
 21
244.16
 31
0.0
  0
LINE
  5
DDD
100
AcDbEntity
  8
1
  6
CONTINUOUS
100
AcDbLine
 10
250.92
 20
241.357
 30
0.0
 11
250.92
 21
235.357
 31
0.0
  0
LINE
  5
DDE
100
AcDbEntity
  8
1
  6
CONTINUOUS
100
AcDbLine
 10
250.982
 20
243.107
 30
0.0
 11
250.982
 21
243.968
 31
0.0
  0
LINE
  5
DDF
100
AcDbEntity
  8
1
  6
CONTINUOUS
100
AcDbLine
 10
250.982
 20
244.16
 30
0.0
 11
250.982
 21
244.607
 31
0.0
  0
LINE
  5
DE0
100
AcDbEntity
  8
1
  6
CONTINUOUS
100
AcDbLine
 10
251.17
 20
244.607
 30
0.0
 11
251.17
 21
244.16
 31
0.0
  0
LINE
  5
DE1
100
AcDbEntity
  8
1
  6
CONTINUOUS
100
AcDbLine
 10
251.17
 20
243.362
 30
0.0
 11
251.17
 21
243.968
 31
0.0
  0
LINE
  5
DE2
100
AcDbEntity
  8
1
  6
CONTINUOUS
100
AcDbLine
 10
251.92
 20
244.16
 30
0.0
 11
251.92
 21
243.968
 31
0.0
  0
LINE
  5
DE3
100
AcDbEntity
  8
1
  6
CONTINUOUS
100
AcDbLine
 10
252.748
 20
240.388
 30
0.0
 11
252.748
 21
240.013
 31
0.0
  0
LINE
  5
DE4
100
AcDbEntity
  8
1
  6
CONTINUOUS
100
AcDbLine
 10
252.842
 20
240.763
 30
0.0
 11
252.842
 21
240.622
 31
0.0
  0
LINE
  5
DE5
100
AcDbEntity
  8
1
  6
CONTINUOUS
100
AcDbLine
 10
253.217
 20
239.45
 30
0.0
 11
253.217
 21
239.591
 31
0.0
  0
LINE
  5
DE6
100
AcDbEntity
  8
1
  6
CONTINUOUS
100
AcDbLine
 10
249.282
 20
238.95
 30
0.0
 11
249.32
 21
239.138
 31
0.0
  0
LINE
  5
DE7
100
AcDbEntity
  8
1
  6
CONTINUOUS
100
AcDbLine
 10
248.945
 20
239.935
 30
0.0
 11
248.982
 21
240.075
 31
0.0
  0
LINE
  5
DE8
100
AcDbEntity
  8
1
  6
CONTINUOUS
100
AcDbLine
 10
249.32
 20
239.138
 30
0.0
 11
249.357
 21
239.278
 31
0.0
  0
LINE
  5
DE9
100
AcDbEntity
  8
1
  6
CONTINUOUS
100
AcDbLine
 10
249.057
 20
237.341
 30
0.0
 11
249.095
 21
237.482
 31
0.0
  0
LINE
  5
DEA
100
AcDbEntity
  8
1
  6
CONTINUOUS
100
AcDbLine
 10
248.457
 20
239.7
 30
0.0
 11
248.645
 21
240.31
 31
0.0
  0
LINE
  5
DEB
100
AcDbEntity
  8
1
  6
CONTINUOUS
100
AcDbLine
 10
249.357
 20
239.278
 30
0.0
 11
249.432
 21
239.513
 31
0.0
  0
LINE
  5
DEC
100
AcDbEntity
  8
1
  6
CONTINUOUS
100
AcDbLine
 10
249.432
 20
239.513
 30
0.0
 11
249.545
 21
239.794
 31
0.0
  0
LINE
  5
DED
100
AcDbEntity
  8
1
  6
CONTINUOUS
100
AcDbLine
 10
248.982
 20
240.075
 30
0.0
 11
249.057
 21
240.216
 31
0.0
  0
LINE
  5
DEE
100
AcDbEntity
  8
1
  6
CONTINUOUS
100
AcDbLine
 10
249.545
 20
239.794
 30
0.0
 11
249.695
 21
240.075
 31
0.0
  0
LINE
  5
DEF
100
AcDbEntity
  8
1
  6
CONTINUOUS
100
AcDbLine
 10
249.095
 20
237.482
 30
0.0
 11
249.17
 21
237.622
 31
0.0
  0
LINE
  5
DF0
100
AcDbEntity
  8
1
  6
CONTINUOUS
100
AcDbLine
 10
249.695
 20
240.075
 30
0.0
 11
249.845
 21
240.31
 31
0.0
  0
LINE
  5
DF1
100
AcDbEntity
  8
1
  6
CONTINUOUS
100
AcDbLine
 10
259.587
 20
246.125
 30
0.0
 11
259.145
 21
245.619
 31
0.0
  0
LINE
  5
DF2
100
AcDbEntity
  8
1
  6
CONTINUOUS
100
AcDbLine
 10
260.291
 20
246.47
 30
0.0
 11
260.238
 21
246.417
 31
0.0
  0
LINE
  5
DF3
100
AcDbEntity
  8
1
  6
CONTINUOUS
100
AcDbLine
 10
260.343
 20
245.912
 30
0.0
 11
260.291
 21
245.859
 31
0.0
  0
LINE
  5
DF4
100
AcDbEntity
  8
1
  6
CONTINUOUS
100
AcDbLine
 10
252.888
 20
240.81
 30
0.0
 11
252.842
 21
240.763
 31
0.0
  0
LINE
  5
DF5
100
AcDbEntity
  8
1
  6
CONTINUOUS
100
AcDbLine
 10
253.732
 20
240.669
 30
0.0
 11
253.873
 21
240.81
 31
0.0
  0
LINE
  5
DF6
100
AcDbEntity
  8
1
  6
CONTINUOUS
100
AcDbLine
 10
262.32
 20
246.524
 30
0.0
 11
261.591
 21
245.859
 31
0.0
  0
LINE
  5
DF7
100
AcDbEntity
  8
1
  6
CONTINUOUS
100
AcDbLine
 10
261.46
 20
245.938
 30
0.0
 11
262.111
 21
246.524
 31
0.0
  0
LINE
  5
DF8
100
AcDbEntity
  8
1
  6
CONTINUOUS
100
AcDbLine
 10
249.17
 20
237.622
 30
0.0
 11
249.282
 21
237.716
 31
0.0
  0
LINE
  5
DF9
100
AcDbEntity
  8
1
  6
CONTINUOUS
100
AcDbLine
 10
262.033
 20
245.566
 30
0.0
 11
262.111
 21
245.619
 31
0.0
  0
LINE
  5
DFA
100
AcDbEntity
  8
1
  6
CONTINUOUS
100
AcDbLine
 10
261.763
 20
244.369
 30
0.0
 11
261.857
 21
244.433
 31
0.0
  0
LINE
  5
DFB
100
AcDbEntity
  8
1
  6
CONTINUOUS
100
AcDbLine
 10
262.357
 20
243.444
 30
0.0
 11
262.263
 21
243.38
 31
0.0
  0
LINE
  5
DFC
100
AcDbEntity
  8
1
  6
CONTINUOUS
100
AcDbLine
 10
261.888
 20
243.38
 30
0.0
 11
261.826
 21
243.444
 31
0.0
  0
LINE
  5
DFD
100
AcDbEntity
  8
1
  6
CONTINUOUS
100
AcDbLine
 10
261.576
 20
244.018
 30
0.0
 11
261.701
 21
243.891
 31
0.0
  0
LINE
  5
DFE
100
AcDbEntity
  8
1
  6
CONTINUOUS
100
AcDbLine
 10
260.238
 20
245.486
 30
0.0
 11
260.134
 21
245.593
 31
0.0
  0
LINE
  5
DFF
100
AcDbEntity
  8
1
  6
CONTINUOUS
100
AcDbLine
 10
262.545
 20
243.763
 30
0.0
 11
262.42
 21
243.891
 31
0.0
  0
LINE
  5
E00
100
AcDbEntity
  8
1
  6
CONTINUOUS
100
AcDbLine
 10
262.357
 20
244.433
 30
0.0
 11
262.451
 21
244.337
 31
0.0
  0
LINE
  5
E01
100
AcDbEntity
  8
1
  6
CONTINUOUS
100
AcDbLine
 10
261.512
 20
245.486
 30
0.0
 11
261.408
 21
245.593
 31
0.0
  0
LINE
  5
E02
100
AcDbEntity
  8
1
  6
CONTINUOUS
100
AcDbLine
 10
260.863
 20
246.417
 30
0.0
 11
260.811
 21
246.47
 31
0.0
  0
LINE
  5
E03
100
AcDbEntity
  8
1
  6
CONTINUOUS
100
AcDbLine
 10
252.49
 20
247.405
 30
0.0
 11
252.234
 21
248.855
 31
0.0
  0
LINE
  5
E04
100
AcDbEntity
  8
1
  6
CONTINUOUS
100
AcDbLine
 10
252.736
 20
247.449
 30
0.0
 11
252.48
 21
248.899
 31
0.0
  0
LINE
  5
E05
100
AcDbEntity
  8
1
  6
CONTINUOUS
100
AcDbLine
 10
254.168
 20
236.885
 30
0.0
 11
254.044
 21
237.971
 31
0.0
  0
LINE
  5
E06
100
AcDbEntity
  8
1
  6
CONTINUOUS
100
AcDbLine
 10
253.42
 20
250.607
 30
0.0
 11
253.42
 21
245.357
 31
0.0
  0
LINE
  5
E07
100
AcDbEntity
  8
1
  6
CONTINUOUS
100
AcDbLine
 10
253.451
 20
240.482
 30
0.0
 11
253.451
 21
240.763
 31
0.0
  0
LINE
  5
E08
100
AcDbEntity
  8
1
  6
CONTINUOUS
100
AcDbLine
 10
253.638
 20
240.013
 30
0.0
 11
253.638
 21
240.388
 31
0.0
  0
LINE
  5
E09
100
AcDbEntity
  8
1
  6
CONTINUOUS
100
AcDbLine
 10
253.667
 20
248.678
 30
0.0
 11
253.667
 21
247.235
 31
0.0
  0
LINE
  5
E0A
100
AcDbEntity
  8
1
  6
CONTINUOUS
100
AcDbLine
 10
254.529
 20
239.685
 30
0.0
 11
254.529
 21
240.763
 31
0.0
  0
LINE
  5
E0B
100
AcDbEntity
  8
1
  6
CONTINUOUS
100
AcDbLine
 10
256.167
 20
247.235
 30
0.0
 11
256.167
 21
248.678
 31
0.0
  0
LINE
  5
E0C
100
AcDbEntity
  8
1
  6
CONTINUOUS
100
AcDbLine
 10
256.67
 20
234.157
 30
0.0
 11
256.67
 21
234.207
 31
0.0
  0
LINE
  5
E0D
100
AcDbEntity
  8
1
  6
CONTINUOUS
100
AcDbLine
 10
253.671
 20
236.885
 30
0.0
 11
253.795
 21
237.971
 31
0.0
  0
LINE
  5
E0E
100
AcDbEntity
  8
1
  6
CONTINUOUS
100
AcDbLine
 10
255.185
 20
240.575
 30
0.0
 11
255.092
 21
240.294
 31
0.0
  0
LINE
  5
E0F
100
AcDbEntity
  8
1
  6
CONTINUOUS
100
AcDbLine
 10
252.935
 20
239.591
 30
0.0
 11
253.029
 21
239.825
 31
0.0
  0
LINE
  5
E10
100
AcDbEntity
  8
1
  6
CONTINUOUS
100
AcDbLine
 10
253.638
 20
240.482
 30
0.0
 11
253.732
 21
240.669
 31
0.0
  0
LINE
  5
E11
100
AcDbEntity
  8
1
  6
CONTINUOUS
100
AcDbLine
 10
253.963
 20
235.932
 30
0.0
 11
255.464
 21
238.532
 31
0.0
  0
LINE
  5
E12
100
AcDbEntity
  8
1
  6
CONTINUOUS
100
AcDbLine
 10
260.108
 20
246.444
 30
0.0
 11
260.16
 21
246.524
 31
0.0
  0
LINE
  5
E13
100
AcDbEntity
  8
1
  6
CONTINUOUS
100
AcDbLine
 10
260.134
 20
245.859
 30
0.0
 11
260.186
 21
245.938
 31
0.0
  0
LINE
  5
E14
100
AcDbEntity
  8
1
  6
CONTINUOUS
100
AcDbLine
 10
260.811
 20
245.619
 30
0.0
 11
260.863
 21
245.699
 31
0.0
  0
LINE
  5
E15
100
AcDbEntity
  8
1
  6
CONTINUOUS
100
AcDbLine
 10
255.373
 20
240.81
 30
0.0
 11
255.185
 21
240.575
 31
0.0
  0
LINE
  5
E16
100
AcDbEntity
  8
1
  6
CONTINUOUS
100
AcDbLine
 10
263.113
 20
245.619
 30
0.0
 11
263.27
 21
245.805
 31
0.0
  0
LINE
  5
E17
100
AcDbEntity
  8
1
  6
CONTINUOUS
100
AcDbLine
 10
263.27
 20
245.593
 30
0.0
 11
263.113
 21
245.407
 31
0.0
  0
LINE
  5
E18
100
AcDbEntity
  8
1
  6
CONTINUOUS
100
AcDbLine
 10
259.77
 20
246.125
 30
0.0
 11
259.145
 21
245.407
 31
0.0
  0
LINE
  5
E19
100
AcDbEntity
  8
1
  6
CONTINUOUS
100
AcDbLine
 10
260.968
 20
245.593
 30
0.0
 11
260.863
 21
245.486
 31
0.0
  0
LINE
  5
E1A
100
AcDbEntity
  8
1
  6
CONTINUOUS
100
AcDbLine
 10
262.268
 20
245.593
 30
0.0
 11
262.163
 21
245.486
 31
0.0
  0
LINE
  5
E1B
100
AcDbEntity
  8
1
  6
CONTINUOUS
100
AcDbLine
 10
261.701
 20
244.561
 30
0.0
 11
261.576
 21
244.433
 31
0.0
  0
LINE
  5
E1C
100
AcDbEntity
  8
1
  6
CONTINUOUS
100
AcDbLine
 10
262.42
 20
243.252
 30
0.0
 11
262.545
 21
243.38
 31
0.0
  0
LINE
  5
E1D
100
AcDbEntity
  8
1
  6
CONTINUOUS
100
AcDbLine
 10
253.674
 20
236.866
 30
0.0
 11
254.119
 21
237.311
 31
0.0
  0
LINE
  5
E1E
100
AcDbEntity
  8
1
  6
CONTINUOUS
100
AcDbLine
 10
261.638
 20
243.412
 30
0.0
 11
261.732
 21
243.284
 31
0.0
  0
LINE
  5
E1F
100
AcDbEntity
  8
1
  6
CONTINUOUS
100
AcDbLine
 10
260.238
 20
245.699
 30
0.0
 11
260.291
 21
245.619
 31
0.0
  0
LINE
  5
E20
100
AcDbEntity
  8
1
  6
CONTINUOUS
100
AcDbLine
 10
260.16
 20
246.071
 30
0.0
 11
260.108
 21
246.151
 31
0.0
  0
LINE
  5
E21
100
AcDbEntity
  8
1
  6
CONTINUOUS
100
AcDbLine
 10
261.763
 20
244.082
 30
0.0
 11
261.701
 21
244.178
 31
0.0
  0
LINE
  5
E22
100
AcDbEntity
  8
1
  6
CONTINUOUS
100
AcDbLine
 10
260.942
 20
246.524
 30
0.0
 11
260.994
 21
246.444
 31
0.0
  0
LINE
  5
E23
100
AcDbEntity
  8
1
  6
CONTINUOUS
100
AcDbLine
 10
261.538
 20
245.699
 30
0.0
 11
261.591
 21
245.619
 31
0.0
  0
LINE
  5
E24
100
AcDbEntity
  8
1
  6
CONTINUOUS
100
AcDbLine
 10
265.061
 20
239.357
 30
0.0
 11
264.77
 21
239.862
 31
0.0
  0
LINE
  5
E25
100
AcDbEntity
  8
1
  6
CONTINUOUS
100
AcDbLine
 10
256.92
 20
240.857
 30
0.0
 11
256.92
 21
235.857
 31
0.0
  0
LINE
  5
E26
100
AcDbEntity
  8
1
  6
CONTINUOUS
100
AcDbLine
 10
258.17
 20
250.907
 30
0.0
 11
258.17
 21
247.407
 31
0.0
  0
LINE
  5
E27
100
AcDbEntity
  8
1
  6
CONTINUOUS
100
AcDbLine
 10
258.728
 20
246.125
 30
0.0
 11
258.728
 21
246.284
 31
0.0
  0
LINE
  5
E28
100
AcDbEntity
  8
1
  6
CONTINUOUS
100
AcDbLine
 10
258.865
 20
248.332
 30
0.0
 11
258.865
 21
247.832
 31
0.0
  0
LINE
  5
E29
100
AcDbEntity
  8
1
  6
CONTINUOUS
100
AcDbLine
 10
258.92
 20
238.157
 30
0.0
 11
258.92
 21
238.657
 31
0.0
  0
LINE
  5
E2A
100
AcDbEntity
  8
1
  6
CONTINUOUS
100
AcDbLine
 10
258.988
 20
245.407
 30
0.0
 11
258.988
 21
246.125
 31
0.0
  0
LINE
  5
E2B
100
AcDbEntity
  8
1
  6
CONTINUOUS
100
AcDbLine
 10
258.988
 20
246.284
 30
0.0
 11
258.988
 21
246.657
 31
0.0
  0
LINE
  5
E2C
100
AcDbEntity
  8
1
  6
CONTINUOUS
100
AcDbLine
 10
259.145
 20
246.657
 30
0.0
 11
259.145
 21
246.284
 31
0.0
  0
LINE
  5
E2D
100
AcDbEntity
  8
1
  6
CONTINUOUS
100
AcDbLine
 10
259.145
 20
245.619
 30
0.0
 11
259.145
 21
246.125
 31
0.0
  0
LINE
  5
E2E
100
AcDbEntity
  8
1
  6
CONTINUOUS
100
AcDbLine
 10
259.42
 20
237.657
 30
0.0
 11
259.42
 21
238.007
 31
0.0
  0
LINE
  5
E2F
100
AcDbEntity
  8
1
  6
CONTINUOUS
100
AcDbLine
 10
259.42
 20
238.807
 30
0.0
 11
259.42
 21
239.157
 31
0.0
  0
LINE
  5
E30
100
AcDbEntity
  8
1
  6
CONTINUOUS
100
AcDbLine
 10
259.665
 20
247.832
 30
0.0
 11
259.665
 21
248.332
 31
0.0
  0
LINE
  5
E31
100
AcDbEntity
  8
1
  6
CONTINUOUS
100
AcDbLine
 10
259.77
 20
246.284
 30
0.0
 11
259.77
 21
246.125
 31
0.0
  0
LINE
  5
E32
100
AcDbEntity
  8
1
  6
CONTINUOUS
100
AcDbLine
 10
259.795
 20
247.457
 30
0.0
 11
259.795
 21
247.407
 31
0.0
  0
LINE
  5
E33
100
AcDbEntity
  8
1
  6
CONTINUOUS
100
AcDbLine
 10
259.92
 20
239.157
 30
0.0
 11
259.92
 21
238.807
 31
0.0
  0
LINE
  5
E34
100
AcDbEntity
  8
1
  6
CONTINUOUS
100
AcDbLine
 10
259.92
 20
238.007
 30
0.0
 11
259.92
 21
237.657
 31
0.0
  0
LINE
  5
E35
100
AcDbEntity
  8
1
  6
CONTINUOUS
100
AcDbLine
 10
260.082
 20
246.258
 30
0.0
 11
260.082
 21
246.364
 31
0.0
  0
LINE
  5
E36
100
AcDbEntity
  8
1
  6
CONTINUOUS
100
AcDbLine
 10
260.108
 20
245.699
 30
0.0
 11
260.108
 21
245.752
 31
0.0
  0
LINE
  5
E37
100
AcDbEntity
  8
1
  6
CONTINUOUS
100
AcDbLine
 10
260.135
 20
248.332
 30
0.0
 11
260.135
 21
247.832
 31
0.0
  0
LINE
  5
E38
100
AcDbEntity
  8
1
  6
CONTINUOUS
100
AcDbLine
 10
260.212
 20
246.364
 30
0.0
 11
260.212
 21
246.258
 31
0.0
  0
LINE
  5
E39
100
AcDbEntity
  8
1
  6
CONTINUOUS
100
AcDbLine
 10
260.238
 20
245.752
 30
0.0
 11
260.238
 21
245.699
 31
0.0
  0
LINE
  5
E3A
100
AcDbEntity
  8
1
  6
CONTINUOUS
100
AcDbLine
 10
260.138
 20
244.305
 30
0.0
 11
259.951
 21
243.157
 31
0.0
  0
LINE
  5
E3B
100
AcDbEntity
  8
1
  6
CONTINUOUS
100
AcDbLine
 10
259.763
 20
243.157
 30
0.0
 11
260.013
 21
244.657
 31
0.0
  0
LINE
  5
E3C
100
AcDbEntity
  8
1
  6
CONTINUOUS
100
AcDbLine
 10
260.108
 20
245.752
 30
0.0
 11
260.134
 21
245.859
 31
0.0
  0
LINE
  5
E3D
100
AcDbEntity
  8
1
  6
CONTINUOUS
100
AcDbLine
 10
260.082
 20
246.364
 30
0.0
 11
260.108
 21
246.444
 31
0.0
  0
LINE
  5
E3E
100
AcDbEntity
  8
1
  6
CONTINUOUS
100
AcDbLine
 10
260.238
 20
246.417
 30
0.0
 11
260.212
 21
246.364
 31
0.0
  0
LINE
  5
E3F
100
AcDbEntity
  8
1
  6
CONTINUOUS
100
AcDbLine
 10
260.291
 20
245.859
 30
0.0
 11
260.238
 21
245.752
 31
0.0
  0
LINE
  5
E40
100
AcDbEntity
  8
1
  6
CONTINUOUS
100
AcDbLine
 10
261.591
 20
245.859
 30
0.0
 11
261.538
 21
245.752
 31
0.0
  0
LINE
  5
E41
100
AcDbEntity
  8
1
  6
CONTINUOUS
100
AcDbLine
 10
261.576
 20
244.433
 30
0.0
 11
261.513
 21
244.305
 31
0.0
  0
LINE
  5
E42
100
AcDbEntity
  8
1
  6
CONTINUOUS
100
AcDbLine
 10
261.408
 20
245.859
 30
0.0
 11
261.46
 21
245.938
 31
0.0
  0
LINE
  5
E43
100
AcDbEntity
  8
1
  6
CONTINUOUS
100
AcDbLine
 10
262.111
 20
245.619
 30
0.0
 11
262.163
 21
245.699
 31
0.0
  0
LINE
  5
E44
100
AcDbEntity
  8
1
  6
CONTINUOUS
100
AcDbLine
 10
261.701
 20
244.274
 30
0.0
 11
261.763
 21
244.369
 31
0.0
  0
LINE
  5
E45
100
AcDbEntity
  8
1
  6
CONTINUOUS
100
AcDbLine
 10
268.513
 20
236.857
 30
0.0
 11
267.732
 21
238.133
 31
0.0
  0
LINE
  5
E46
100
AcDbEntity
  8
1
  6
CONTINUOUS
100
AcDbLine
 10
267.826
 20
238.357
 30
0.0
 11
268.607
 21
237.048
 31
0.0
  0
LINE
  5
E47
100
AcDbEntity
  8
1
  6
CONTINUOUS
100
AcDbLine
 10
262.638
 20
244.369
 30
0.0
 11
262.545
 21
244.529
 31
0.0
  0
LINE
  5
E48
100
AcDbEntity
  8
1
  6
CONTINUOUS
100
AcDbLine
 10
264.832
 20
239.968
 30
0.0
 11
265.186
 21
239.357
 31
0.0
  0
LINE
  5
E49
100
AcDbEntity
  8
1
  6
CONTINUOUS
100
AcDbLine
 10
264.478
 20
240.607
 30
0.0
 11
264.77
 21
240.101
 31
0.0
  0
LINE
  5
E4A
100
AcDbEntity
  8
1
  6
CONTINUOUS
100
AcDbLine
 10
264.707
 20
239.968
 30
0.0
 11
264.353
 21
240.607
 31
0.0
  0
LINE
  5
E4B
100
AcDbEntity
  8
1
  6
CONTINUOUS
100
AcDbLine
 10
260.212
 20
246.258
 30
0.0
 11
260.264
 21
246.151
 31
0.0
  0
LINE
  5
E4C
100
AcDbEntity
  8
1
  6
CONTINUOUS
100
AcDbLine
 10
261.826
 20
243.444
 30
0.0
 11
261.795
 21
243.508
 31
0.0
  0
LINE
  5
E4D
100
AcDbEntity
  8
1
  6
CONTINUOUS
100
AcDbLine
 10
261.513
 20
244.146
 30
0.0
 11
261.576
 21
244.018
 31
0.0
  0
LINE
  5
E4E
100
AcDbEntity
  8
1
  6
CONTINUOUS
100
AcDbLine
 10
260.889
 20
246.364
 30
0.0
 11
260.863
 21
246.417
 31
0.0
  0
LINE
  5
E4F
100
AcDbEntity
  8
1
  6
CONTINUOUS
100
AcDbLine
 10
261.607
 20
243.508
 30
0.0
 11
261.638
 21
243.412
 31
0.0
  0
LINE
  5
E50
100
AcDbEntity
  8
1
  6
CONTINUOUS
100
AcDbLine
 10
260.994
 20
246.444
 30
0.0
 11
261.02
 21
246.364
 31
0.0
  0
LINE
  5
E51
100
AcDbEntity
  8
1
  6
CONTINUOUS
100
AcDbLine
 10
262.357
 20
243.699
 30
0.0
 11
262.388
 21
243.603
 31
0.0
  0
LINE
  5
E52
100
AcDbEntity
  8
1
  6
CONTINUOUS
100
AcDbLine
 10
262.451
 20
244.337
 30
0.0
 11
262.482
 21
244.242
 31
0.0
  0
LINE
  5
E53
100
AcDbEntity
  8
1
  6
CONTINUOUS
100
AcDbLine
 10
260.134
 20
245.593
 30
0.0
 11
260.108
 21
245.699
 31
0.0
  0
LINE
  5
E54
100
AcDbEntity
  8
1
  6
CONTINUOUS
100
AcDbLine
 10
260.108
 20
246.151
 30
0.0
 11
260.082
 21
246.258
 31
0.0
  0
LINE
  5
E55
100
AcDbEntity
  8
1
  6
CONTINUOUS
100
AcDbLine
 10
261.408
 20
245.593
 30
0.0
 11
261.382
 21
245.699
 31
0.0
  0
LINE
  5
E56
100
AcDbEntity
  8
1
  6
CONTINUOUS
100
AcDbLine
 10
260.388
 20
243.157
 30
0.0
 11
260.138
 21
244.305
 31
0.0
  0
LINE
  5
E57
100
AcDbEntity
  8
1
  6
CONTINUOUS
100
AcDbLine
 10
260.263
 20
244.657
 30
0.0
 11
260.513
 21
243.444
 31
0.0
  0
LINE
  5
E58
100
AcDbEntity
  8
1
  6
CONTINUOUS
100
AcDbLine
 10
261.013
 20
244.657
 30
0.0
 11
261.263
 21
243.157
 31
0.0
  0
LINE
  5
E59
100
AcDbEntity
  8
1
  6
CONTINUOUS
100
AcDbLine
 10
261.076
 20
243.157
 30
0.0
 11
260.888
 21
244.305
 31
0.0
  0
LINE
  5
E5A
100
AcDbEntity
  8
1
  6
CONTINUOUS
100
AcDbLine
 10
260.42
 20
238.657
 30
0.0
 11
260.42
 21
238.157
 31
0.0
  0
LINE
  5
E5B
100
AcDbEntity
  8
1
  6
CONTINUOUS
100
AcDbLine
 10
260.603
 20
246.071
 30
0.0
 11
260.603
 21
245.965
 31
0.0
  0
LINE
  5
E5C
100
AcDbEntity
  8
1
  6
CONTINUOUS
100
AcDbLine
 10
260.795
 20
247.457
 30
0.0
 11
260.795
 21
247.407
 31
0.0
  0
LINE
  5
E5D
100
AcDbEntity
  8
1
  6
CONTINUOUS
100
AcDbLine
 10
260.935
 20
247.832
 30
0.0
 11
260.935
 21
248.332
 31
0.0
  0
LINE
  5
E5E
100
AcDbEntity
  8
1
  6
CONTINUOUS
100
AcDbLine
 10
261.17
 20
242.007
 30
0.0
 11
261.17
 21
238.735
 31
0.0
  0
LINE
  5
E5F
100
AcDbEntity
  8
1
  6
CONTINUOUS
100
AcDbLine
 10
261.17
 20
238.078
 30
0.0
 11
261.17
 21
234.807
 31
0.0
  0
LINE
  5
E60
100
AcDbEntity
  8
1
  6
CONTINUOUS
100
AcDbLine
 10
261.382
 20
245.699
 30
0.0
 11
261.382
 21
245.752
 31
0.0
  0
LINE
  5
E61
100
AcDbEntity
  8
1
  6
CONTINUOUS
100
AcDbLine
 10
261.382
 20
246.524
 30
0.0
 11
261.382
 21
246.657
 31
0.0
  0
LINE
  5
E62
100
AcDbEntity
  8
1
  6
CONTINUOUS
100
AcDbLine
 10
261.405
 20
248.332
 30
0.0
 11
261.405
 21
247.832
 31
0.0
  0
LINE
  5
E63
100
AcDbEntity
  8
1
  6
CONTINUOUS
100
AcDbLine
 10
261.513
 20
244.305
 30
0.0
 11
261.513
 21
244.146
 31
0.0
  0
LINE
  5
E64
100
AcDbEntity
  8
1
  6
CONTINUOUS
100
AcDbLine
 10
261.538
 20
245.752
 30
0.0
 11
261.538
 21
245.699
 31
0.0
  0
LINE
  5
E65
100
AcDbEntity
  8
1
  6
CONTINUOUS
100
AcDbLine
 10
261.701
 20
244.178
 30
0.0
 11
261.701
 21
244.274
 31
0.0
  0
LINE
  5
E66
100
AcDbEntity
  8
1
  6
CONTINUOUS
100
AcDbLine
 10
262.205
 20
247.832
 30
0.0
 11
262.205
 21
248.332
 31
0.0
  0
LINE
  5
E67
100
AcDbEntity
  8
1
  6
CONTINUOUS
100
AcDbLine
 10
262.32
 20
246.657
 30
0.0
 11
262.32
 21
246.524
 31
0.0
  0
LINE
  5
E68
100
AcDbEntity
  8
1
  6
CONTINUOUS
100
AcDbLine
 10
262.388
 20
243.603
 30
0.0
 11
262.388
 21
243.54
 31
0.0
  0
LINE
  5
E69
100
AcDbEntity
  8
1
  6
CONTINUOUS
100
AcDbLine
 10
262.51
 20
247.457
 30
0.0
 11
262.51
 21
247.407
 31
0.0
  0
LINE
  5
E6A
100
AcDbEntity
  8
1
  6
CONTINUOUS
100
AcDbLine
 10
262.576
 20
243.508
 30
0.0
 11
262.576
 21
243.635
 31
0.0
  0
LINE
  5
E6B
100
AcDbEntity
  8
1
  6
CONTINUOUS
100
AcDbLine
 10
262.675
 20
248.332
 30
0.0
 11
262.675
 21
247.832
 31
0.0
  0
LINE
  5
E6C
100
AcDbEntity
  8
1
  6
CONTINUOUS
100
AcDbLine
 10
262.957
 20
245.407
 30
0.0
 11
262.957
 21
246.657
 31
0.0
  0
LINE
  5
E6D
100
AcDbEntity
  8
1
  6
CONTINUOUS
100
AcDbLine
 10
263.08
 20
247.457
 30
0.0
 11
263.08
 21
247.407
 31
0.0
  0
LINE
  5
E6E
100
AcDbEntity
  8
1
  6
CONTINUOUS
100
AcDbLine
 10
263.113
 20
246.657
 30
0.0
 11
263.113
 21
245.619
 31
0.0
  0
LINE
  5
E6F
100
AcDbEntity
  8
1
  6
CONTINUOUS
100
AcDbLine
 10
263.27
 20
245.805
 30
0.0
 11
263.27
 21
245.593
 31
0.0
  0
LINE
  5
E70
100
AcDbEntity
  8
1
  6
CONTINUOUS
100
AcDbLine
 10
263.475
 20
247.832
 30
0.0
 11
263.475
 21
248.332
 31
0.0
  0
LINE
  5
E71
100
AcDbEntity
  8
1
  6
CONTINUOUS
100
AcDbLine
 10
263.7
 20
247.407
 30
0.0
 11
263.7
 21
247.457
 31
0.0
  0
LINE
  5
E72
100
AcDbEntity
  8
1
  6
CONTINUOUS
100
AcDbLine
 10
262.195
 20
260.407
 30
0.0
 11
261.695
 21
255.407
 31
0.0
  0
LINE
  5
E73
100
AcDbEntity
  8
1
  6
CONTINUOUS
100
AcDbLine
 10
260.513
 20
243.444
 30
0.0
 11
260.763
 21
244.657
 31
0.0
  0
LINE
  5
E74
100
AcDbEntity
  8
1
  6
CONTINUOUS
100
AcDbLine
 10
260.888
 20
244.305
 30
0.0
 11
260.638
 21
243.157
 31
0.0
  0
LINE
  5
E75
100
AcDbEntity
  8
1
  6
CONTINUOUS
100
AcDbLine
 10
260.994
 20
245.699
 30
0.0
 11
260.968
 21
245.593
 31
0.0
  0
LINE
  5
E76
100
AcDbEntity
  8
1
  6
CONTINUOUS
100
AcDbLine
 10
261.382
 20
245.752
 30
0.0
 11
261.408
 21
245.859
 31
0.0
  0
LINE
  5
E77
100
AcDbEntity
  8
1
  6
CONTINUOUS
100
AcDbLine
 10
262.294
 20
245.699
 30
0.0
 11
262.268
 21
245.593
 31
0.0
  0
LINE
  5
E78
100
AcDbEntity
  8
1
  6
CONTINUOUS
100
AcDbLine
 10
262.545
 20
243.38
 30
0.0
 11
262.576
 21
243.508
 31
0.0
  0
LINE
  5
E79
100
AcDbEntity
  8
1
  6
CONTINUOUS
100
AcDbLine
 10
262.388
 20
243.54
 30
0.0
 11
262.357
 21
243.444
 31
0.0
  0
LINE
  5
E7A
100
AcDbEntity
  8
1
  6
CONTINUOUS
100
AcDbLine
 10
264.77
 20
240.101
 30
0.0
 11
265.061
 21
240.607
 31
0.0
  0
LINE
  5
E7B
100
AcDbEntity
  8
1
  6
CONTINUOUS
100
AcDbLine
 10
264.77
 20
239.862
 30
0.0
 11
264.478
 21
239.357
 31
0.0
  0
LINE
  5
E7C
100
AcDbEntity
  8
1
  6
CONTINUOUS
100
AcDbLine
 10
264.353
 20
239.357
 30
0.0
 11
264.707
 21
239.968
 31
0.0
  0
LINE
  5
E7D
100
AcDbEntity
  8
1
  6
CONTINUOUS
100
AcDbLine
 10
271.764
 20
248.657
 30
0.0
 11
271.731
 21
248.607
 31
0.0
  0
LINE
  5
E7E
100
AcDbEntity
  8
1
  6
CONTINUOUS
100
AcDbLine
 10
271.731
 20
248.607
 30
0.0
 11
271.591
 21
248.402
 31
0.0
  0
LINE
  5
E7F
100
AcDbEntity
  8
1
  6
CONTINUOUS
100
AcDbLine
 10
260.57
 20
234.207
 30
0.0
 11
261.17
 21
234.807
 31
0.0
  0
LINE
  5
E80
100
AcDbEntity
  8
1
  6
CONTINUOUS
100
AcDbLine
 10
262.576
 20
243.635
 30
0.0
 11
262.545
 21
243.763
 31
0.0
  0
LINE
  5
E81
100
AcDbEntity
  8
1
  6
CONTINUOUS
100
AcDbLine
 10
262.67
 20
244.242
 30
0.0
 11
262.638
 21
244.369
 31
0.0
  0
LINE
  5
E82
100
AcDbEntity
  8
1
  6
CONTINUOUS
100
AcDbLine
 10
264.17
 20
247.407
 30
0.0
 11
264.17
 21
250.907
 31
0.0
  0
LINE
  5
E83
100
AcDbEntity
  8
1
  6
CONTINUOUS
100
AcDbLine
 10
265.353
 20
239.357
 30
0.0
 11
265.353
 21
239.49
 31
0.0
  0
LINE
  5
E84
100
AcDbEntity
  8
1
  6
CONTINUOUS
100
AcDbLine
 10
265.42
 20
248.657
 30
0.0
 11
265.42
 21
241.357
 31
0.0
  0
LINE
  5
E85
100
AcDbEntity
  8
1
  6
CONTINUOUS
100
AcDbLine
 10
265.42
 20
237.607
 30
0.0
 11
265.42
 21
238.857
 31
0.0
  0
LINE
  5
E86
100
AcDbEntity
  8
1
  6
CONTINUOUS
100
AcDbLine
 10
265.495
 20
248.657
 30
0.0
 11
265.495
 21
247.357
 31
0.0
  0
LINE
  5
E87
100
AcDbEntity
  8
1
  6
CONTINUOUS
100
AcDbLine
 10
265.67
 20
248.402
 30
0.0
 11
265.67
 21
241.607
 31
0.0
  0
LINE
  5
E88
100
AcDbEntity
  8
1
  6
CONTINUOUS
100
AcDbLine
 10
265.686
 20
239.49
 30
0.0
 11
265.686
 21
240.607
 31
0.0
  0
LINE
  5
E89
100
AcDbEntity
  8
1
  6
CONTINUOUS
100
AcDbLine
 10
265.811
 20
240.607
 30
0.0
 11
265.811
 21
239.49
 31
0.0
  0
LINE
  5
E8A
100
AcDbEntity
  8
1
  6
CONTINUOUS
100
AcDbLine
 10
265.92
 20
248.657
 30
0.0
 11
265.92
 21
248.402
 31
0.0
  0
LINE
  5
E8B
100
AcDbEntity
  8
1
  6
CONTINUOUS
100
AcDbLine
 10
266.145
 20
239.49
 30
0.0
 11
266.145
 21
239.357
 31
0.0
  0
LINE
  5
E8C
100
AcDbEntity
  8
1
  6
CONTINUOUS
100
AcDbLine
 10
266.42
 20
248.402
 30
0.0
 11
266.42
 21
248.657
 31
0.0
  0
LINE
  5
E8D
100
AcDbEntity
  8
1
  6
CONTINUOUS
100
AcDbLine
 10
266.545
 20
242.707
 30
0.0
 11
266.545
 21
247.357
 31
0.0
  0
LINE
  5
E8E
100
AcDbEntity
  8
1
  6
CONTINUOUS
100
AcDbLine
 10
265.186
 20
240.607
 30
0.0
 11
264.832
 21
239.968
 31
0.0
  0
LINE
  5
E8F
100
AcDbEntity
  8
1
  6
CONTINUOUS
100
AcDbLine
 10
272.353
 20
240.607
 30
0.0
 11
272.666
 21
239.995
 31
0.0
  0
LINE
  5
E90
100
AcDbEntity
  8
1
  6
CONTINUOUS
100
AcDbLine
 10
272.561
 20
239.862
 30
0.0
 11
272.186
 21
240.607
 31
0.0
  0
LINE
  5
E91
100
AcDbEntity
  8
1
  6
CONTINUOUS
100
AcDbLine
 10
273.749
 20
239.357
 30
0.0
 11
273.228
 21
240.42
 31
0.0
  0
LINE
  5
E92
100
AcDbEntity
  8
1
  6
CONTINUOUS
100
AcDbLine
 10
273.291
 20
240.607
 30
0.0
 11
273.811
 21
239.516
 31
0.0
  0
LINE
  5
E93
100
AcDbEntity
  8
1
  6
CONTINUOUS
100
AcDbLine
 10
269.545
 20
236.857
 30
0.0
 11
269.045
 21
238.357
 31
0.0
  0
LINE
  5
E94
100
AcDbEntity
  8
1
  6
CONTINUOUS
100
AcDbLine
 10
269.67
 20
236.984
 30
0.0
 11
269.388
 21
237.846
 31
0.0
  0
LINE
  5
E95
100
AcDbEntity
  8
1
  6
CONTINUOUS
100
AcDbLine
 10
269.232
 20
238.357
 30
0.0
 11
269.357
 21
237.974
 31
0.0
  0
LINE
  5
E96
100
AcDbEntity
  8
1
  6
CONTINUOUS
100
AcDbLine
 10
267.545
 20
236.857
 30
0.0
 11
267.545
 21
238.357
 31
0.0
  0
LINE
  5
E97
100
AcDbEntity
  8
1
  6
CONTINUOUS
100
AcDbLine
 10
267.732
 20
238.133
 30
0.0
 11
267.732
 21
236.857
 31
0.0
  0
LINE
  5
E98
100
AcDbEntity
  8
1
  6
CONTINUOUS
100
AcDbLine
 10
268.045
 20
243.457
 30
0.0
 11
268.045
 21
242.707
 31
0.0
  0
LINE
  5
E99
100
AcDbEntity
  8
1
  6
CONTINUOUS
100
AcDbLine
 10
268.47
 20
242.707
 30
0.0
 11
268.47
 21
241.807
 31
0.0
  0
LINE
  5
E9A
100
AcDbEntity
  8
1
  6
CONTINUOUS
100
AcDbLine
 10
268.607
 20
237.048
 30
0.0
 11
268.607
 21
238.357
 31
0.0
  0
LINE
  5
E9B
100
AcDbEntity
  8
1
  6
CONTINUOUS
100
AcDbLine
 10
268.795
 20
238.357
 30
0.0
 11
268.795
 21
236.857
 31
0.0
  0
LINE
  5
E9C
100
AcDbEntity
  8
1
  6
CONTINUOUS
100
AcDbLine
 10
269.92
 20
248.657
 30
0.0
 11
269.92
 21
248.402
 31
0.0
  0
LINE
  5
E9D
100
AcDbEntity
  8
1
  6
CONTINUOUS
100
AcDbLine
 10
270.42
 20
248.402
 30
0.0
 11
270.42
 21
248.657
 31
0.0
  0
LINE
  5
E9E
100
AcDbEntity
  8
1
  6
CONTINUOUS
100
AcDbLine
 10
270.545
 20
238.165
 30
0.0
 11
270.545
 21
238.357
 31
0.0
  0
LINE
  5
E9F
100
AcDbEntity
  8
1
  6
CONTINUOUS
100
AcDbLine
 10
270.845
 20
248.657
 30
0.0
 11
270.845
 21
248.402
 31
0.0
  0
LINE
  5
EA0
100
AcDbEntity
  8
1
  6
CONTINUOUS
100
AcDbLine
 10
270.87
 20
241.807
 30
0.0
 11
270.87
 21
242.707
 31
0.0
  0
LINE
  5
EA1
100
AcDbEntity
  8
1
  6
CONTINUOUS
100
AcDbLine
 10
270.925
 20
248.422
 30
0.0
 11
270.925
 21
248.657
 31
0.0
  0
LINE
  5
EA2
100
AcDbEntity
  8
1
  6
CONTINUOUS
100
AcDbLine
 10
269.982
 20
237.974
 30
0.0
 11
270.107
 21
238.357
 31
0.0
  0
LINE
  5
EA3
100
AcDbEntity
  8
1
  6
CONTINUOUS
100
AcDbLine
 10
269.951
 20
237.846
 30
0.0
 11
269.67
 21
236.984
 31
0.0
  0
LINE
  5
EA4
100
AcDbEntity
  8
1
  6
CONTINUOUS
100
AcDbLine
 10
272.937
 20
248.656
 30
0.0
 11
272.918
 21
248.614
 31
0.0
  0
LINE
  5
EA5
100
AcDbEntity
  8
1
  6
CONTINUOUS
100
AcDbLine
 10
272.918
 20
248.614
 30
0.0
 11
272.825
 21
248.402
 31
0.0
  0
LINE
  5
EA6
100
AcDbEntity
  8
1
  6
CONTINUOUS
100
AcDbLine
 10
272.186
 20
239.357
 30
0.0
 11
272.561
 21
239.862
 31
0.0
  0
LINE
  5
EA7
100
AcDbEntity
  8
1
  6
CONTINUOUS
100
AcDbLine
 10
272.811
 20
239.968
 30
0.0
 11
272.353
 21
239.357
 31
0.0
  0
LINE
  5
EA8
100
AcDbEntity
  8
1
  6
CONTINUOUS
100
AcDbLine
 10
272.666
 20
239.995
 30
0.0
 11
272.811
 21
240.181
 31
0.0
  0
LINE
  5
EA9
100
AcDbEntity
  8
1
  6
CONTINUOUS
100
AcDbLine
 10
271.195
 20
260.407
 30
0.0
 11
271.695
 21
255.407
 31
0.0
  0
LINE
  5
EAA
100
AcDbEntity
  8
1
  6
CONTINUOUS
100
AcDbLine
 10
271.295
 20
242.707
 30
0.0
 11
271.295
 21
243.457
 31
0.0
  0
LINE
  5
EAB
100
AcDbEntity
  8
1
  6
CONTINUOUS
100
AcDbLine
 10
271.482
 20
236.857
 30
0.0
 11
271.482
 21
238.165
 31
0.0
  0
LINE
  5
EAC
100
AcDbEntity
  8
1
  6
CONTINUOUS
100
AcDbLine
 10
271.59
 20
248.657
 30
0.0
 11
271.59
 21
248.4
 31
0.0
  0
LINE
  5
EAD
100
AcDbEntity
  8
1
  6
CONTINUOUS
100
AcDbLine
 10
271.67
 20
238.357
 30
0.0
 11
271.67
 21
236.857
 31
0.0
  0
LINE
  5
EAE
100
AcDbEntity
  8
1
  6
CONTINUOUS
100
AcDbLine
 10
272.795
 20
247.357
 30
0.0
 11
272.795
 21
242.707
 31
0.0
  0
LINE
  5
EAF
100
AcDbEntity
  8
1
  6
CONTINUOUS
100
AcDbLine
 10
272.811
 20
239.357
 30
0.0
 11
272.811
 21
239.968
 31
0.0
  0
LINE
  5
EB0
100
AcDbEntity
  8
1
  6
CONTINUOUS
100
AcDbLine
 10
272.811
 20
240.181
 30
0.0
 11
272.811
 21
240.607
 31
0.0
  0
LINE
  5
EB1
100
AcDbEntity
  8
1
  6
CONTINUOUS
100
AcDbLine
 10
272.936
 20
240.607
 30
0.0
 11
272.936
 21
239.357
 31
0.0
  0
LINE
  5
EB2
100
AcDbEntity
  8
1
  6
CONTINUOUS
100
AcDbLine
 10
273.103
 20
239.357
 30
0.0
 11
273.103
 21
240.607
 31
0.0
  0
LINE
  5
EB3
100
AcDbEntity
  8
1
  6
CONTINUOUS
100
AcDbLine
 10
273.228
 20
240.42
 30
0.0
 11
273.228
 21
239.357
 31
0.0
  0
LINE
  5
EB4
100
AcDbEntity
  8
1
  6
CONTINUOUS
100
AcDbLine
 10
273.295
 20
248.402
 30
0.0
 11
273.295
 21
248.657
 31
0.0
  0
LINE
  5
EB5
100
AcDbEntity
  8
1
  6
CONTINUOUS
100
AcDbLine
 10
273.67
 20
241.607
 30
0.0
 11
273.67
 21
248.402
 31
0.0
  0
LINE
  5
EB6
100
AcDbEntity
  8
1
  6
CONTINUOUS
100
AcDbLine
 10
273.811
 20
239.516
 30
0.0
 11
273.811
 21
240.607
 31
0.0
  0
LINE
  5
EB7
100
AcDbEntity
  8
1
  6
CONTINUOUS
100
AcDbLine
 10
273.92
 20
237.607
 30
0.0
 11
273.92
 21
238.857
 31
0.0
  0
LINE
  5
EB8
100
AcDbEntity
  8
1
  6
CONTINUOUS
100
AcDbLine
 10
273.92
 20
241.357
 30
0.0
 11
273.92
 21
248.657
 31
0.0
  0
LINE
  5
EB9
100
AcDbEntity
  8
1
  6
CONTINUOUS
100
AcDbLine
 10
273.936
 20
240.607
 30
0.0
 11
273.936
 21
239.357
 31
0.0
  0
LINE
  5
EBA
100
AcDbEntity
  8
1
  6
CONTINUOUS
100
AcDbLine
 10
274.103
 20
239.357
 30
0.0
 11
274.103
 21
240.607
 31
0.0
  0
LINE
  5
EBB
100
AcDbEntity
  8
1
  6
CONTINUOUS
100
AcDbLine
 10
274.228
 20
240.607
 30
0.0
 11
274.228
 21
239.357
 31
0.0
  0
LINE
  5
EBC
100
AcDbEntity
  8
1
  6
CONTINUOUS
100
AcDbLine
 10
274.395
 20
240.447
 30
0.0
 11
274.395
 21
240.607
 31
0.0
  0
LINE
  5
EBD
100
AcDbEntity
  8
1
  6
CONTINUOUS
100
AcDbLine
 10
270.295
 20
238.357
 30
0.0
 11
269.795
 21
236.857
 31
0.0
  0
LINE
  5
EBE
100
AcDbEntity
  8
1
  6
CONTINUOUS
100
AcDbLine
 10
275.02
 20
239.357
 30
0.0
 11
275.02
 21
240.447
 31
0.0
  0
LINE
  5
EBF
100
AcDbEntity
  8
1
  6
CONTINUOUS
100
AcDbLine
 10
275.145
 20
240.607
 30
0.0
 11
275.145
 21
239.357
 31
0.0
  0
LINE
  5
EC0
100
AcDbEntity
  8
1
  6
CONTINUOUS
100
AcDbLine
 10
282.791
 20
239.157
 30
0.0
 11
282.788
 21
239.344
 31
0.0
  0
LINE
  5
EC1
100
AcDbEntity
  8
1
  6
CONTINUOUS
100
AcDbLine
 10
282.788
 20
239.344
 30
0.0
 11
282.777
 21
239.532
 31
0.0
  0
LINE
  5
EC2
100
AcDbEntity
  8
1
  6
CONTINUOUS
100
AcDbLine
 10
282.791
 20
249.657
 30
0.0
 11
282.788
 21
249.844
 31
0.0
  0
LINE
  5
EC3
100
AcDbEntity
  8
1
  6
CONTINUOUS
100
AcDbLine
 10
282.788
 20
249.844
 30
0.0
 11
282.777
 21
250.032
 31
0.0
  0
LINE
  5
EC4
100
AcDbEntity
  8
1
  6
CONTINUOUS
100
AcDbLine
 10
280.645
 20
255.407
 30
0.0
 11
280.645
 21
254.907
 31
0.0
  0
LINE
  5
EC5
100
AcDbEntity
  8
1
  6
CONTINUOUS
100
AcDbLine
 10
280.645
 20
234.157
 30
0.0
 11
280.645
 21
234.657
 31
0.0
  0
LINE
  5
EC6
100
AcDbEntity
  8
1
  6
CONTINUOUS
100
AcDbLine
 10
281.145
 20
234.157
 30
0.0
 11
281.145
 21
255.407
 31
0.0
  0
LINE
  5
EC7
100
AcDbEntity
  8
1
  6
CONTINUOUS
100
AcDbLine
 10
281.17
 20
233.907
 30
0.0
 11
281.17
 21
255.407
 31
0.0
  0
LINE
  5
EC8
100
AcDbEntity
  8
1
  6
CONTINUOUS
100
AcDbLine
 10
281.67
 20
255.407
 30
0.0
 11
281.67
 21
233.407
 31
0.0
  0
LINE
  5
EC9
100
AcDbEntity
  8
1
  6
CONTINUOUS
100
AcDbLine
 10
282.501
 20
237.154
 30
0.0
 11
282.501
 21
241.159
 31
0.0
  0
LINE
  5
ECA
100
AcDbEntity
  8
1
  6
CONTINUOUS
100
AcDbLine
 10
282.501
 20
247.654
 30
0.0
 11
282.501
 21
251.659
 31
0.0
  0
LINE
  5
ECB
100
AcDbEntity
  8
1
  6
CONTINUOUS
100
AcDbLine
 10
282.777
 20
249.282
 30
0.0
 11
282.788
 21
249.47
 31
0.0
  0
LINE
  5
ECC
100
AcDbEntity
  8
1
  6
CONTINUOUS
100
AcDbLine
 10
282.788
 20
249.47
 30
0.0
 11
282.791
 21
249.657
 31
0.0
  0
LINE
  5
ECD
100
AcDbEntity
  8
1
  6
CONTINUOUS
100
AcDbLine
 10
282.777
 20
238.782
 30
0.0
 11
282.788
 21
238.97
 31
0.0
  0
LINE
  5
ECE
100
AcDbEntity
  8
1
  6
CONTINUOUS
100
AcDbLine
 10
282.788
 20
238.97
 30
0.0
 11
282.791
 21
239.157
 31
0.0
  0
LINE
  5
ECF
100
AcDbEntity
  8
1
  6
CONTINUOUS
100
AcDbLine
 10
282.878
 20
249.132
 30
0.0
 11
282.884
 21
249.207
 31
0.0
  0
LINE
  5
ED0
100
AcDbEntity
  8
1
  6
CONTINUOUS
100
AcDbLine
 10
282.884
 20
249.207
 30
0.0
 11
282.884
 21
249.261
 31
0.0
  0
LINE
  5
ED1
100
AcDbEntity
  8
1
  6
CONTINUOUS
100
AcDbLine
 10
282.884
 20
249.261
 30
0.0
 11
282.878
 21
249.282
 31
0.0
  0
LINE
  5
ED2
100
AcDbEntity
  8
1
  6
CONTINUOUS
100
AcDbLine
 10
282.878
 20
238.632
 30
0.0
 11
282.884
 21
238.707
 31
0.0
  0
LINE
  5
ED3
100
AcDbEntity
  8
1
  6
CONTINUOUS
100
AcDbLine
 10
282.884
 20
238.707
 30
0.0
 11
282.884
 21
238.761
 31
0.0
  0
LINE
  5
ED4
100
AcDbEntity
  8
1
  6
CONTINUOUS
100
AcDbLine
 10
282.884
 20
238.761
 30
0.0
 11
282.878
 21
238.782
 31
0.0
  0
LINE
  5
ED5
100
AcDbEntity
  8
1
  6
CONTINUOUS
100
AcDbLine
 10
282.777
 20
248.532
 30
0.0
 11
282.838
 21
248.84
 31
0.0
  0
LINE
  5
ED6
100
AcDbEntity
  8
1
  6
CONTINUOUS
100
AcDbLine
 10
282.838
 20
248.84
 30
0.0
 11
282.878
 21
249.132
 31
0.0
  0
LINE
  5
ED7
100
AcDbEntity
  8
1
  6
CONTINUOUS
100
AcDbLine
 10
282.777
 20
238.032
 30
0.0
 11
282.838
 21
238.34
 31
0.0
  0
LINE
  5
ED8
100
AcDbEntity
  8
1
  6
CONTINUOUS
100
AcDbLine
 10
282.838
 20
238.34
 30
0.0
 11
282.878
 21
238.632
 31
0.0
  0
LINE
  5
ED9
100
AcDbEntity
  8
1
  6
CONTINUOUS
100
AcDbLine
 10
282.878
 20
250.032
 30
0.0
 11
282.884
 21
250.052
 31
0.0
  0
LINE
  5
EDA
100
AcDbEntity
  8
1
  6
CONTINUOUS
100
AcDbLine
 10
282.884
 20
250.052
 30
0.0
 11
282.884
 21
250.106
 31
0.0
  0
LINE
  5
EDB
100
AcDbEntity
  8
1
  6
CONTINUOUS
100
AcDbLine
 10
282.884
 20
250.106
 30
0.0
 11
282.878
 21
250.182
 31
0.0
  0
LINE
  5
EDC
100
AcDbEntity
  8
1
  6
CONTINUOUS
100
AcDbLine
 10
282.878
 20
239.532
 30
0.0
 11
282.884
 21
239.552
 31
0.0
  0
LINE
  5
EDD
100
AcDbEntity
  8
1
  6
CONTINUOUS
100
AcDbLine
 10
282.884
 20
239.552
 30
0.0
 11
282.884
 21
239.606
 31
0.0
  0
LINE
  5
EDE
100
AcDbEntity
  8
1
  6
CONTINUOUS
100
AcDbLine
 10
282.884
 20
239.606
 30
0.0
 11
282.878
 21
239.682
 31
0.0
  0
LINE
  5
EDF
100
AcDbEntity
  8
1
  6
CONTINUOUS
100
AcDbLine
 10
282.878
 20
239.682
 30
0.0
 11
282.853
 21
239.881
 31
0.0
  0
LINE
  5
EE0
100
AcDbEntity
  8
1
  6
CONTINUOUS
100
AcDbLine
 10
282.853
 20
239.881
 30
0.0
 11
282.82
 21
240.079
 31
0.0
  0
LINE
  5
EE1
100
AcDbEntity
  8
1
  6
CONTINUOUS
100
AcDbLine
 10
282.82
 20
240.079
 30
0.0
 11
282.777
 21
240.282
 31
0.0
  0
LINE
  5
EE2
100
AcDbEntity
  8
1
  6
CONTINUOUS
100
AcDbLine
 10
282.878
 20
250.182
 30
0.0
 11
282.853
 21
250.381
 31
0.0
  0
LINE
  5
EE3
100
AcDbEntity
  8
1
  6
CONTINUOUS
100
AcDbLine
 10
282.853
 20
250.381
 30
0.0
 11
282.82
 21
250.579
 31
0.0
  0
LINE
  5
EE4
100
AcDbEntity
  8
1
  6
CONTINUOUS
100
AcDbLine
 10
282.82
 20
250.579
 30
0.0
 11
282.777
 21
250.782
 31
0.0
  0
ARC
  5
EE5
100
AcDbEntity
  8
1
  6
CONTINUOUS
100
AcDbCircle
 10
185.42
 20
63.221
 30
0.0
 40
5.0
100
AcDbArc
 50
156.394
 51
166.997
  0
ARC
  5
EE6
100
AcDbEntity
  8
1
  6
CONTINUOUS
100
AcDbCircle
 10
185.42
 20
63.221
 30
0.0
 40
5.0
100
AcDbArc
 50
193.003
 51
203.606
  0
ARC
  5
EE7
100
AcDbEntity
  8
1
  6
CONTINUOUS
100
AcDbCircle
 10
185.42
 20
73.721
 30
0.0
 40
5.0
100
AcDbArc
 50
156.394
 51
166.997
  0
ARC
  5
EE8
100
AcDbEntity
  8
1
  6
CONTINUOUS
100
AcDbCircle
 10
185.42
 20
73.721
 30
0.0
 40
5.0
100
AcDbArc
 50
193.003
 51
203.606
  0
ARC
  5
EE9
100
AcDbEntity
  8
1
  6
CONTINUOUS
100
AcDbCircle
 10
277.92
 20
63.221
 30
0.0
 40
5.0
100
AcDbArc
 50
336.394
 51
346.997
  0
ARC
  5
EEA
100
AcDbEntity
  8
1
  6
CONTINUOUS
100
AcDbCircle
 10
277.92
 20
63.221
 30
0.0
 40
5.0
100
AcDbArc
 50
13.003
 51
23.606
  0
ARC
  5
EEB
100
AcDbEntity
  8
1
  6
CONTINUOUS
100
AcDbCircle
 10
277.92
 20
73.721
 30
0.0
 40
5.0
100
AcDbArc
 50
336.394
 51
346.997
  0
ARC
  5
EEC
100
AcDbEntity
  8
1
  6
CONTINUOUS
100
AcDbCircle
 10
277.92
 20
73.721
 30
0.0
 40
5.0
100
AcDbArc
 50
13.003
 51
23.606
  0
ARC
  5
EED
100
AcDbEntity
  8
1
  6
CONTINUOUS
100
AcDbCircle
 10
185.42
 20
206.876
 30
0.0
 40
5.0
100
AcDbArc
 50
193.003
 51
203.606
  0
ARC
  5
EEE
100
AcDbEntity
  8
1
  6
CONTINUOUS
100
AcDbCircle
 10
185.42
 20
206.876
 30
0.0
 40
5.0
100
AcDbArc
 50
156.394
 51
166.997
  0
ARC
  5
EEF
100
AcDbEntity
  8
1
  6
CONTINUOUS
100
AcDbCircle
 10
277.92
 20
206.876
 30
0.0
 40
5.0
100
AcDbArc
 50
13.003
 51
23.606
  0
ARC
  5
EF0
100
AcDbEntity
  8
1
  6
CONTINUOUS
100
AcDbCircle
 10
277.92
 20
206.876
 30
0.0
 40
5.0
100
AcDbArc
 50
336.394
 51
346.997
  0
ARC
  5
EF1
100
AcDbEntity
  8
1
  6
CONTINUOUS
100
AcDbCircle
 10
277.92
 20
114.876
 30
0.0
 40
5.0
100
AcDbArc
 50
13.003
 51
23.606
  0
ARC
  5
EF2
100
AcDbEntity
  8
1
  6
CONTINUOUS
100
AcDbCircle
 10
277.92
 20
114.876
 30
0.0
 40
5.0
100
AcDbArc
 50
336.394
 51
346.997
  0
ARC
  5
EF3
100
AcDbEntity
  8
1
  6
CONTINUOUS
100
AcDbCircle
 10
185.42
 20
114.876
 30
0.0
 40
5.0
100
AcDbArc
 50
193.003
 51
203.606
  0
ARC
  5
EF4
100
AcDbEntity
  8
1
  6
CONTINUOUS
100
AcDbCircle
 10
185.42
 20
114.876
 30
0.0
 40
5.0
100
AcDbArc
 50
156.394
 51
166.997
  0
ARC
  5
EF5
100
AcDbEntity
  8
1
  6
CONTINUOUS
100
AcDbCircle
 10
190.82
 20
217.326
 30
0.0
 40
0.5
100
AcDbArc
 50
90.0
 51
180.0
  0
ARC
  5
EF6
100
AcDbEntity
  8
1
  6
CONTINUOUS
100
AcDbCircle
 10
196.57
 20
217.326
 30
0.0
 40
0.5
100
AcDbArc
 50
0.0
 51
90.0
  0
CIRCLE
  5
EF7
100
AcDbEntity
  8
1
  6
CONTINUOUS
100
AcDbCircle
 10
115.377
 20
206.876
 30
0.0
 40
2.075
  0
ARC
  5
EF8
100
AcDbEntity
  8
1
  6
CONTINUOUS
100
AcDbCircle
 10
114.852
 20
207.401
 30
0.0
 40
0.15
100
AcDbArc
 50
270.0
 51
0.0
  0
ARC
  5
EF9
100
AcDbEntity
  8
1
  6
CONTINUOUS
100
AcDbCircle
 10
114.852
 20
206.351
 30
0.0
 40
0.15
100
AcDbArc
 50
0.0
 51
90.0
  0
ARC
  5
EFA
100
AcDbEntity
  8
1
  6
CONTINUOUS
100
AcDbCircle
 10
115.902
 20
206.351
 30
0.0
 40
0.15
100
AcDbArc
 50
90.0
 51
180.0
  0
ARC
  5
EFB
100
AcDbEntity
  8
1
  6
CONTINUOUS
100
AcDbCircle
 10
115.902
 20
207.401
 30
0.0
 40
0.15
100
AcDbArc
 50
180.0
 51
270.0
  0
CIRCLE
  5
EFC
100
AcDbEntity
  8
1
  6
CONTINUOUS
100
AcDbCircle
 10
115.377
 20
206.876
 30
0.0
 40
2.002
  0
CIRCLE
  5
EFD
100
AcDbEntity
  8
1
  6
CONTINUOUS
100
AcDbCircle
 10
125.877
 20
206.876
 30
0.0
 40
2.075
  0
ARC
  5
EFE
100
AcDbEntity
  8
1
  6
CONTINUOUS
100
AcDbCircle
 10
125.352
 20
207.401
 30
0.0
 40
0.15
100
AcDbArc
 50
270.0
 51
0.0
  0
ARC
  5
EFF
100
AcDbEntity
  8
1
  6
CONTINUOUS
100
AcDbCircle
 10
125.352
 20
206.351
 30
0.0
 40
0.15
100
AcDbArc
 50
0.0
 51
90.0
  0
ARC
  5
F00
100
AcDbEntity
  8
1
  6
CONTINUOUS
100
AcDbCircle
 10
126.402
 20
206.351
 30
0.0
 40
0.15
100
AcDbArc
 50
90.0
 51
180.0
  0
ARC
  5
F01
100
AcDbEntity
  8
1
  6
CONTINUOUS
100
AcDbCircle
 10
126.402
 20
207.401
 30
0.0
 40
0.15
100
AcDbArc
 50
180.0
 51
270.0
  0
CIRCLE
  5
F02
100
AcDbEntity
  8
1
  6
CONTINUOUS
100
AcDbCircle
 10
125.877
 20
206.876
 30
0.0
 40
2.002
  0
CIRCLE
  5
F03
100
AcDbEntity
  8
1
  6
CONTINUOUS
100
AcDbCircle
 10
125.877
 20
114.876
 30
0.0
 40
2.075
  0
ARC
  5
F04
100
AcDbEntity
  8
1
  6
CONTINUOUS
100
AcDbCircle
 10
125.352
 20
115.401
 30
0.0
 40
0.15
100
AcDbArc
 50
270.0
 51
0.0
  0
ARC
  5
F05
100
AcDbEntity
  8
1
  6
CONTINUOUS
100
AcDbCircle
 10
125.352
 20
114.351
 30
0.0
 40
0.15
100
AcDbArc
 50
0.0
 51
90.0
  0
ARC
  5
F06
100
AcDbEntity
  8
1
  6
CONTINUOUS
100
AcDbCircle
 10
126.402
 20
114.351
 30
0.0
 40
0.15
100
AcDbArc
 50
90.0
 51
180.0
  0
ARC
  5
F07
100
AcDbEntity
  8
1
  6
CONTINUOUS
100
AcDbCircle
 10
126.402
 20
115.401
 30
0.0
 40
0.15
100
AcDbArc
 50
180.0
 51
270.0
  0
CIRCLE
  5
F08
100
AcDbEntity
  8
1
  6
CONTINUOUS
100
AcDbCircle
 10
125.877
 20
114.876
 30
0.0
 40
2.002
  0
CIRCLE
  5
F09
100
AcDbEntity
  8
1
  6
CONTINUOUS
100
AcDbCircle
 10
115.377
 20
114.876
 30
0.0
 40
2.075
  0
ARC
  5
F0A
100
AcDbEntity
  8
1
  6
CONTINUOUS
100
AcDbCircle
 10
114.852
 20
115.401
 30
0.0
 40
0.15
100
AcDbArc
 50
270.0
 51
0.0
  0
ARC
  5
F0B
100
AcDbEntity
  8
1
  6
CONTINUOUS
100
AcDbCircle
 10
114.852
 20
114.351
 30
0.0
 40
0.15
100
AcDbArc
 50
0.0
 51
90.0
  0
ARC
  5
F0C
100
AcDbEntity
  8
1
  6
CONTINUOUS
100
AcDbCircle
 10
115.902
 20
114.351
 30
0.0
 40
0.15
100
AcDbArc
 50
90.0
 51
180.0
  0
ARC
  5
F0D
100
AcDbEntity
  8
1
  6
CONTINUOUS
100
AcDbCircle
 10
115.902
 20
115.401
 30
0.0
 40
0.15
100
AcDbArc
 50
180.0
 51
270.0
  0
CIRCLE
  5
F0E
100
AcDbEntity
  8
1
  6
CONTINUOUS
100
AcDbCircle
 10
115.377
 20
114.876
 30
0.0
 40
2.002
  0
ARC
  5
F0F
100
AcDbEntity
  8
1
  6
CONTINUOUS
100
AcDbCircle
 10
114.927
 20
217.326
 30
0.0
 40
0.5
100
AcDbArc
 50
90.0
 51
180.0
  0
ARC
  5
F10
100
AcDbEntity
  8
1
  6
CONTINUOUS
100
AcDbCircle
 10
121.327
 20
217.326
 30
0.0
 40
0.5
100
AcDbArc
 50
0.0
 51
90.0
  0
ARC
  5
F11
100
AcDbEntity
  8
1
  6
CONTINUOUS
100
AcDbCircle
 10
114.836
 20
86.307
 30
0.0
 40
19.0
100
AcDbArc
 50
66.46
 51
86.716
  0
ARC
  5
F12
100
AcDbEntity
  8
1
  6
CONTINUOUS
100
AcDbCircle
 10
110.127
 20
215.376
 30
0.0
 40
0.5
100
AcDbArc
 50
90.0
 51
180.0
  0
ARC
  5
F13
100
AcDbEntity
  8
1
  6
CONTINUOUS
100
AcDbCircle
 10
259.27
 20
238.807
 30
0.0
 40
0.15
100
AcDbArc
 50
270.0
 51
0.0
  0
ARC
  5
F14
100
AcDbEntity
  8
1
  6
CONTINUOUS
100
AcDbCircle
 10
260.07
 20
238.807
 30
0.0
 40
0.15
100
AcDbArc
 50
180.0
 51
270.0
  0
ARC
  5
F15
100
AcDbEntity
  8
1
  6
CONTINUOUS
100
AcDbCircle
 10
260.07
 20
238.007
 30
0.0
 40
0.15
100
AcDbArc
 50
90.0
 51
180.0
  0
CIRCLE
  5
F16
100
AcDbEntity
  8
1
  6
CONTINUOUS
100
AcDbCircle
 10
259.67
 20
238.407
 30
0.0
 40
1.575
  0
ARC
  5
F17
100
AcDbEntity
  8
1
  6
CONTINUOUS
100
AcDbCircle
 10
259.27
 20
238.007
 30
0.0
 40
0.15
100
AcDbArc
 50
0.0
 51
90.0
  0
CIRCLE
  5
F18
100
AcDbEntity
  8
1
  6
CONTINUOUS
100
AcDbCircle
 10
259.67
 20
238.407
 30
0.0
 40
1.512
  0
ARC
  5
F19
100
AcDbEntity
  8
1
  6
CONTINUOUS
100
AcDbCircle
 10
277.92
 20
239.157
 30
0.0
 40
5.0
100
AcDbArc
 50
13.003
 51
23.606
  0
ARC
  5
F1A
100
AcDbEntity
  8
1
  6
CONTINUOUS
100
AcDbCircle
 10
277.92
 20
239.157
 30
0.0
 40
5.0
100
AcDbArc
 50
336.394
 51
346.997
  0
ARC
  5
F1B
100
AcDbEntity
  8
1
  6
CONTINUOUS
100
AcDbCircle
 10
277.92
 20
249.657
 30
0.0
 40
5.0
100
AcDbArc
 50
13.003
 51
23.606
  0
ARC
  5
F1C
100
AcDbEntity
  8
1
  6
CONTINUOUS
100
AcDbCircle
 10
277.92
 20
249.657
 30
0.0
 40
5.0
100
AcDbArc
 50
336.394
 51
346.997
  0
ARC
  5
F1D
100
AcDbEntity
  8
1
  6
CONTINUOUS
100
AcDbCircle
 10
185.42
 20
249.657
 30
0.0
 40
5.0
100
AcDbArc
 50
193.003
 51
203.606
  0
ARC
  5
F1E
100
AcDbEntity
  8
1
  6
CONTINUOUS
100
AcDbCircle
 10
185.42
 20
249.657
 30
0.0
 40
5.0
100
AcDbArc
 50
156.394
 51
166.997
  0
ARC
  5
F1F
100
AcDbEntity
  8
1
  6
CONTINUOUS
100
AcDbCircle
 10
185.42
 20
239.157
 30
0.0
 40
5.0
100
AcDbArc
 50
193.003
 51
203.606
  0
ARC
  5
F20
100
AcDbEntity
  8
1
  6
CONTINUOUS
100
AcDbCircle
 10
185.42
 20
239.157
 30
0.0
 40
5.0
100
AcDbArc
 50
156.394
 51
166.997
  0
CIRCLE
  5
F21
100
AcDbEntity
  8
1
  6
CONTINUOUS
100
AcDbCircle
 10
193.695
 20
246.157
 30
0.0
 40
1.7
  0
ARC
  5
F22
100
AcDbEntity
  8
1
  6
CONTINUOUS
100
AcDbCircle
 10
193.695
 20
246.907
 30
0.0
 40
3.7
100
AcDbArc
 50
24.194
 51
155.806
  0
ARC
  5
F23
100
AcDbEntity
  8
1
  6
CONTINUOUS
100
AcDbCircle
 10
193.695
 20
246.907
 30
0.0
 40
3.7
100
AcDbArc
 50
204.194
 51
335.806
  0
ARC
  5
F24
100
AcDbEntity
  8
1
  6
CONTINUOUS
100
AcDbCircle
 10
193.695
 20
246.907
 30
0.0
 40
3.2
100
AcDbArc
 50
26.047
 51
153.953
  0
CIRCLE
  5
F25
100
AcDbEntity
  8
1
  6
CONTINUOUS
100
AcDbCircle
 10
193.695
 20
246.157
 30
0.0
 40
1.95
  0
ARC
  5
F26
100
AcDbEntity
  8
1
  6
CONTINUOUS
100
AcDbCircle
 10
193.695
 20
246.907
 30
0.0
 40
3.2
100
AcDbArc
 50
206.047
 51
333.953
  0
ARC
  5
F27
100
AcDbEntity
  8
1
  6
CONTINUOUS
100
AcDbCircle
 10
245.834
 20
247.232
 30
0.0
 40
1.0
100
AcDbArc
 50
170.0
 51
270.0
  0
ARC
  5
F28
100
AcDbEntity
  8
1
  6
CONTINUOUS
100
AcDbCircle
 10
251.505
 20
247.232
 30
0.0
 40
1.0
100
AcDbArc
 50
270.0
 51
10.0
  0
ARC
  5
F29
100
AcDbEntity
  8
1
  6
CONTINUOUS
100
AcDbCircle
 10
251.249
 20
248.682
 30
0.0
 40
1.0
100
AcDbArc
 50
10.0
 51
90.0
  0
ARC
  5
F2A
100
AcDbEntity
  8
1
  6
CONTINUOUS
100
AcDbCircle
 10
246.09
 20
248.682
 30
0.0
 40
1.0
100
AcDbArc
 50
90.0
 51
170.0
  0
ARC
  5
F2B
100
AcDbEntity
  8
1
  6
CONTINUOUS
100
AcDbCircle
 10
245.834
 20
247.232
 30
0.0
 40
1.25
100
AcDbArc
 50
170.0
 51
270.0
  0
ARC
  5
F2C
100
AcDbEntity
  8
1
  6
CONTINUOUS
100
AcDbCircle
 10
251.505
 20
247.232
 30
0.0
 40
1.25
100
AcDbArc
 50
270.0
 51
10.0
  0
ARC
  5
F2D
100
AcDbEntity
  8
1
  6
CONTINUOUS
100
AcDbCircle
 10
246.09
 20
248.682
 30
0.0
 40
1.25
100
AcDbArc
 50
90.0
 51
170.0
  0
ARC
  5
F2E
100
AcDbEntity
  8
1
  6
CONTINUOUS
100
AcDbCircle
 10
251.249
 20
248.682
 30
0.0
 40
1.25
100
AcDbArc
 50
10.0
 51
90.0
  0
CIRCLE
  5
F2F
100
AcDbEntity
  8
1
  6
CONTINUOUS
100
AcDbCircle
 10
248.82
 20
246.967
 30
0.0
 40
0.25
  0
CIRCLE
  5
F30
100
AcDbEntity
  8
1
  6
CONTINUOUS
100
AcDbCircle
 10
247.675
 20
246.967
 30
0.0
 40
0.25
  0
CIRCLE
  5
F31
100
AcDbEntity
  8
1
  6
CONTINUOUS
100
AcDbCircle
 10
246.53
 20
246.967
 30
0.0
 40
0.25
  0
CIRCLE
  5
F32
100
AcDbEntity
  8
1
  6
CONTINUOUS
100
AcDbCircle
 10
249.965
 20
246.967
 30
0.0
 40
0.25
  0
CIRCLE
  5
F33
100
AcDbEntity
  8
1
  6
CONTINUOUS
100
AcDbCircle
 10
251.11
 20
246.967
 30
0.0
 40
0.25
  0
CIRCLE
  5
F34
100
AcDbEntity
  8
1
  6
CONTINUOUS
100
AcDbCircle
 10
248.247
 20
247.957
 30
0.0
 40
0.25
  0
CIRCLE
  5
F35
100
AcDbEntity
  8
1
  6
CONTINUOUS
100
AcDbCircle
 10
249.392
 20
247.957
 30
0.0
 40
0.25
  0
CIRCLE
  5
F36
100
AcDbEntity
  8
1
  6
CONTINUOUS
100
AcDbCircle
 10
245.957
 20
247.957
 30
0.0
 40
0.25
  0
CIRCLE
  5
F37
100
AcDbEntity
  8
1
  6
CONTINUOUS
100
AcDbCircle
 10
250.537
 20
247.957
 30
0.0
 40
0.25
  0
CIRCLE
  5
F38
100
AcDbEntity
  8
1
  6
CONTINUOUS
100
AcDbCircle
 10
246.53
 20
248.947
 30
0.0
 40
0.25
  0
CIRCLE
  5
F39
100
AcDbEntity
  8
1
  6
CONTINUOUS
100
AcDbCircle
 10
247.675
 20
248.947
 30
0.0
 40
0.25
  0
CIRCLE
  5
F3A
100
AcDbEntity
  8
1
  6
CONTINUOUS
100
AcDbCircle
 10
248.82
 20
248.947
 30
0.0
 40
0.25
  0
CIRCLE
  5
F3B
100
AcDbEntity
  8
1
  6
CONTINUOUS
100
AcDbCircle
 10
249.965
 20
248.947
 30
0.0
 40
0.25
  0
CIRCLE
  5
F3C
100
AcDbEntity
  8
1
  6
CONTINUOUS
100
AcDbCircle
 10
251.11
 20
248.947
 30
0.0
 40
0.25
  0
CIRCLE
  5
F3D
100
AcDbEntity
  8
1
  6
CONTINUOUS
100
AcDbCircle
 10
247.102
 20
247.957
 30
0.0
 40
0.25
  0
CIRCLE
  5
F3E
100
AcDbEntity
  8
1
  6
CONTINUOUS
100
AcDbCircle
 10
242.422
 20
247.957
 30
0.0
 40
0.65
  0
CIRCLE
  5
F3F
100
AcDbEntity
  8
1
  6
CONTINUOUS
100
AcDbCircle
 10
254.917
 20
247.957
 30
0.0
 40
0.65
  0
ARC
  5
F40
100
AcDbEntity
  8
1
  6
CONTINUOUS
100
AcDbCircle
 10
224.834
 20
247.232
 30
0.0
 40
1.0
100
AcDbArc
 50
170.0
 51
270.0
  0
ARC
  5
F41
100
AcDbEntity
  8
1
  6
CONTINUOUS
100
AcDbCircle
 10
230.505
 20
247.232
 30
0.0
 40
1.0
100
AcDbArc
 50
270.0
 51
10.0
  0
ARC
  5
F42
100
AcDbEntity
  8
1
  6
CONTINUOUS
100
AcDbCircle
 10
230.249
 20
248.682
 30
0.0
 40
1.0
100
AcDbArc
 50
10.0
 51
90.0
  0
ARC
  5
F43
100
AcDbEntity
  8
1
  6
CONTINUOUS
100
AcDbCircle
 10
225.09
 20
248.682
 30
0.0
 40
1.0
100
AcDbArc
 50
90.0
 51
170.0
  0
ARC
  5
F44
100
AcDbEntity
  8
1
  6
CONTINUOUS
100
AcDbCircle
 10
224.834
 20
247.232
 30
0.0
 40
1.25
100
AcDbArc
 50
170.0
 51
270.0
  0
ARC
  5
F45
100
AcDbEntity
  8
1
  6
CONTINUOUS
100
AcDbCircle
 10
230.505
 20
247.232
 30
0.0
 40
1.25
100
AcDbArc
 50
270.0
 51
10.0
  0
ARC
  5
F46
100
AcDbEntity
  8
1
  6
CONTINUOUS
100
AcDbCircle
 10
225.09
 20
248.682
 30
0.0
 40
1.25
100
AcDbArc
 50
90.0
 51
170.0
  0
ARC
  5
F47
100
AcDbEntity
  8
1
  6
CONTINUOUS
100
AcDbCircle
 10
230.249
 20
248.682
 30
0.0
 40
1.25
100
AcDbArc
 50
10.0
 51
90.0
  0
CIRCLE
  5
F48
100
AcDbEntity
  8
1
  6
CONTINUOUS
100
AcDbCircle
 10
227.82
 20
246.967
 30
0.0
 40
0.25
  0
CIRCLE
  5
F49
100
AcDbEntity
  8
1
  6
CONTINUOUS
100
AcDbCircle
 10
226.675
 20
246.967
 30
0.0
 40
0.25
  0
CIRCLE
  5
F4A
100
AcDbEntity
  8
1
  6
CONTINUOUS
100
AcDbCircle
 10
225.53
 20
246.967
 30
0.0
 40
0.25
  0
CIRCLE
  5
F4B
100
AcDbEntity
  8
1
  6
CONTINUOUS
100
AcDbCircle
 10
228.965
 20
246.967
 30
0.0
 40
0.25
  0
CIRCLE
  5
F4C
100
AcDbEntity
  8
1
  6
CONTINUOUS
100
AcDbCircle
 10
230.11
 20
246.967
 30
0.0
 40
0.25
  0
CIRCLE
  5
F4D
100
AcDbEntity
  8
1
  6
CONTINUOUS
100
AcDbCircle
 10
227.247
 20
247.957
 30
0.0
 40
0.25
  0
CIRCLE
  5
F4E
100
AcDbEntity
  8
1
  6
CONTINUOUS
100
AcDbCircle
 10
228.392
 20
247.957
 30
0.0
 40
0.25
  0
CIRCLE
  5
F4F
100
AcDbEntity
  8
1
  6
CONTINUOUS
100
AcDbCircle
 10
224.957
 20
247.957
 30
0.0
 40
0.25
  0
CIRCLE
  5
F50
100
AcDbEntity
  8
1
  6
CONTINUOUS
100
AcDbCircle
 10
229.537
 20
247.957
 30
0.0
 40
0.25
  0
CIRCLE
  5
F51
100
AcDbEntity
  8
1
  6
CONTINUOUS
100
AcDbCircle
 10
225.53
 20
248.947
 30
0.0
 40
0.25
  0
CIRCLE
  5
F52
100
AcDbEntity
  8
1
  6
CONTINUOUS
100
AcDbCircle
 10
226.675
 20
248.947
 30
0.0
 40
0.25
  0
CIRCLE
  5
F53
100
AcDbEntity
  8
1
  6
CONTINUOUS
100
AcDbCircle
 10
227.82
 20
248.947
 30
0.0
 40
0.25
  0
CIRCLE
  5
F54
100
AcDbEntity
  8
1
  6
CONTINUOUS
100
AcDbCircle
 10
228.965
 20
248.947
 30
0.0
 40
0.25
  0
CIRCLE
  5
F55
100
AcDbEntity
  8
1
  6
CONTINUOUS
100
AcDbCircle
 10
230.11
 20
248.947
 30
0.0
 40
0.25
  0
CIRCLE
  5
F56
100
AcDbEntity
  8
1
  6
CONTINUOUS
100
AcDbCircle
 10
226.102
 20
247.957
 30
0.0
 40
0.25
  0
CIRCLE
  5
F57
100
AcDbEntity
  8
1
  6
CONTINUOUS
100
AcDbCircle
 10
221.422
 20
247.957
 30
0.0
 40
0.65
  0
CIRCLE
  5
F58
100
AcDbEntity
  8
1
  6
CONTINUOUS
100
AcDbCircle
 10
233.917
 20
247.957
 30
0.0
 40
0.65
  0
ARC
  5
F59
100
AcDbEntity
  8
1
  6
CONTINUOUS
100
AcDbCircle
 10
256.42
 20
235.857
 30
0.0
 40
0.5
100
AcDbArc
 50
270.0
 51
0.0
  0
ARC
  5
F5A
100
AcDbEntity
  8
1
  6
CONTINUOUS
100
AcDbCircle
 10
256.42
 20
240.857
 30
0.0
 40
0.5
100
AcDbArc
 50
0.0
 51
90.0
  0
ARC
  5
F5B
100
AcDbEntity
  8
1
  6
CONTINUOUS
100
AcDbCircle
 10
253.92
 20
237.957
 30
0.0
 40
0.125
100
AcDbArc
 50
6.525
 51
173.475
  0
CIRCLE
  5
F5C
100
AcDbEntity
  8
1
  6
CONTINUOUS
100
AcDbCircle
 10
253.92
 20
238.357
 30
0.0
 40
0.125
  0
ARC
  5
F5D
100
AcDbEntity
  8
1
  6
CONTINUOUS
100
AcDbCircle
 10
255.42
 20
238.557
 30
0.0
 40
0.05
100
AcDbArc
 50
330.0
 51
90.0
  0
ARC
  5
F5E
100
AcDbEntity
  8
1
  6
CONTINUOUS
100
AcDbCircle
 10
252.419
 20
238.557
 30
0.0
 40
0.05
100
AcDbArc
 50
90.0
 51
210.0
  0
ARC
  5
F5F
100
AcDbEntity
  8
1
  6
CONTINUOUS
100
AcDbCircle
 10
253.92
 20
235.957
 30
0.0
 40
0.05
100
AcDbArc
 50
210.0
 51
330.0
  0
ARC
  5
F60
100
AcDbEntity
  8
1
  6
CONTINUOUS
100
AcDbCircle
 10
253.92
 20
236.857
 30
0.0
 40
0.25
100
AcDbArc
 50
173.475
 51
6.525
  0
ARC
  5
F61
100
AcDbEntity
  8
1
  6
CONTINUOUS
100
AcDbCircle
 10
231.92
 20
241.357
 30
0.0
 40
0.125
100
AcDbArc
 50
0.0
 51
270.0
  0
CIRCLE
  5
F62
100
AcDbEntity
  8
1
  6
CONTINUOUS
100
AcDbCircle
 10
256.92
 20
241.357
 30
0.0
 40
0.125
  0
CIRCLE
  5
F63
100
AcDbEntity
  8
1
  6
CONTINUOUS
100
AcDbCircle
 10
217.17
 20
238.807
 30
0.0
 40
0.8
  0
CIRCLE
  5
F64
100
AcDbEntity
  8
1
  6
CONTINUOUS
100
AcDbCircle
 10
254.92
 20
247.982
 30
0.0
 40
1.5
  0
CIRCLE
  5
F65
100
AcDbEntity
  8
1
  6
CONTINUOUS
100
AcDbCircle
 10
242.42
 20
247.982
 30
0.0
 40
1.5
  0
CIRCLE
  5
F66
100
AcDbEntity
  8
1
  6
CONTINUOUS
100
AcDbCircle
 10
233.92
 20
247.982
 30
0.0
 40
1.5
  0
CIRCLE
  5
F67
100
AcDbEntity
  8
1
  6
CONTINUOUS
100
AcDbCircle
 10
221.422
 20
247.982
 30
0.0
 40
1.5
  0
LINE
  5
F7A
100
AcDbEntity
  8
文字
100
AcDbLine
 10
310.240667
 20
49.111421
 30
0.0
 11
416.459639
 21
49.111421
 31
0.0
  0
LWPOLYLINE
  5
F7B
100
AcDbEntity
  8
文字
100
AcDbPolyline
 90
        4
 70
     1
 43
0.0
 10
310.240667
 20
57.602636
 10
416.459639
 20
57.602636
 10
416.459639
 20
40.620205
 10
310.240667
 20
40.620205
  0
TEXT
  5
F7C
100
AcDbEntity
  8
文字
 62
   250
100
AcDbText
 10
331.810459
 20
42.893845
 30
0.0
 40
4.8
  1
ＮＶ－４４００
 11
331.810459
 21
45.293845
 31
0.0
100
AcDbText
 73
     2
  0
TEXT
  5
F7D
100
AcDbEntity
  8
文字
 62
   250
100
AcDbText
 10
331.711983
 20
50.573845
 30
0.0
 40
4.8
  1
ネットワークマルチビューア
 11
331.711983
 21
52.973845
 31
0.0
100
AcDbText
 73
     2
  0
LINE
  5
F7E
100
AcDbEntity
  8
文字
100
AcDbLine
 10
330.777117
 20
57.602636
 30
0.0
 11
330.777117
 21
40.620205
 31
0.0
  0
TEXT
  5
F7F
100
AcDbEntity
  8
文字
 62
   250
100
AcDbText
 10
315.043269
 20
42.893845
 30
0.0
 40
4.8
  1
型名
 11
315.043269
 21
45.293845
 31
0.0
100
AcDbText
 73
     2
  0
TEXT
  5
F80
100
AcDbEntity
  8
文字
 62
   250
100
AcDbText
 10
315.043269
 20
50.573845
 30
0.0
 40
4.8
  1
品名
 11
315.043269
 21
52.973845
 31
0.0
100
AcDbText
 73
     2
  0
ENDSEC
  0
SECTION
  2
OBJECTS
  0
DICTIONARY
  5
C
100
AcDbDictionary
  3
ACAD_GROUP
350
D
  3
ACAD_MLINESTYLE
350
1B
  0
DICTIONARY
  5
D
102
{ACAD_REACTORS
330
C
102
}
100
AcDbDictionary
  0
DICTIONARY
  5
1B
102
{ACAD_REACTORS
330
C
102
}
100
AcDbDictionary
  3
STANDARD
350
1C
  0
MLINESTYLE
  5
1C
102
{ACAD_REACTORS
330
1B
102
}
100
AcDbMlineStyle
  2
STANDARD
 70
     0
  3

 62
   256
 51
90.0
 52
90.0
 71
     2
 49
0.5
 62
   256
  6
BYLAYER
 49
-0.5
 62
   256
  6
BYLAYER
  0
ENDSEC
  0
EOF
