  0
SECTION
  2
HEADER
  9
$ACADVER
  1
AC1015
  9
$ACADMAINTVER
 70
    13
  9
$DWGCODEPAGE
  3
ANSI_932
  9
$INSBASE
 10
0.0
 20
0.0
 30
0.0
  9
$EXTMIN
 10
-0.0192209888438129
 20
-0.0135919849681159
 30
-0.0000000000000058
  9
$EXTMAX
 10
420.0192288123713
 20
297.0135975173196
 30
0.0000000000000104
  9
$LIMMIN
 10
0.0
 20
0.0
  9
$LIMMAX
 10
420.0
 20
297.0
  9
$ORTHOMODE
 70
     1
  9
$REGENMODE
 70
     1
  9
$FILLMODE
 70
     1
  9
$QTEXTMODE
 70
     0
  9
$MIRRTEXT
 70
     1
  9
$LTSCALE
 40
23.1
  9
$ATTMODE
 70
     1
  9
$TEXTSIZE
 40
0.2
  9
$TRACEWID
 40
0.05
  9
$TEXTSTYLE
  7
STANDARD
  9
$CLAYER
  8
0
  9
$CELTYPE
  6
ByLayer
  9
$CECOLOR
 62
   256
  9
$CELTSCALE
 40
1.0
  9
$DISPSILH
 70
     0
  9
$DIMSCALE
 40
1.0
  9
$DIMASZ
 40
2.0
  9
$DIMEXO
 40
0.0
  9
$DIMDLI
 40
1.0
  9
$DIMRND
 40
0.0
  9
$DIMDLE
 40
0.0
  9
$DIMEXE
 40
1.0
  9
$DIMTP
 40
0.0
  9
$DIMTM
 40
0.0
  9
$DIMTXT
 40
2.5
  9
$DIMCEN
 40
1.0
  9
$DIMTSZ
 40
0.0
  9
$DIMTOL
 70
     0
  9
$DIMLIM
 70
     0
  9
$DIMTIH
 70
     0
  9
$DIMTOH
 70
     1
  9
$DIMSE1
 70
     0
  9
$DIMSE2
 70
     0
  9
$DIMTAD
 70
     0
  9
$DIMZIN
 70
     0
  9
$DIMBLK
  1
OPEN
  9
$DIMASO
 70
     1
  9
$DIMSHO
 70
     1
  9
$DIMPOST
  1

  9
$DIMAPOST
  1

  9
$DIMALT
 70
     0
  9
$DIMALTD
 70
     2
  9
$DIMALTF
 40
25.4
  9
$DIMLFAC
 40
1.0
  9
$DIMTOFL
 70
     0
  9
$DIMTVP
 40
0.0
  9
$DIMTIX
 70
     0
  9
$DIMSOXD
 70
     0
  9
$DIMSAH
 70
     0
  9
$DIMBLK1
  1

  9
$DIMBLK2
  1

  9
$DIMSTYLE
  2
Standard
  9
$DIMCLRD
 70
     0
  9
$DIMCLRE
 70
     0
  9
$DIMCLRT
 70
     0
  9
$DIMTFAC
 40
1.0
  9
$DIMGAP
 40
1.0
  9
$DIMJUST
 70
     0
  9
$DIMSD1
 70
     0
  9
$DIMSD2
 70
     0
  9
$DIMTOLJ
 70
     1
  9
$DIMTZIN
 70
     0
  9
$DIMALTZ
 70
     0
  9
$DIMALTTZ
 70
     0
  9
$DIMUPT
 70
     0
  9
$DIMDEC
 70
     0
  9
$DIMTDEC
 70
     0
  9
$DIMALTU
 70
     2
  9
$DIMALTTD
 70
     2
  9
$DIMTXSTY
  7
STANDARD
  9
$DIMAUNIT
 70
     0
  9
$DIMADEC
 70
     0
  9
$DIMALTRND
 40
0.0
  9
$DIMAZIN
 70
     0
  9
$DIMDSEP
 70
    46
  9
$DIMATFIT
 70
     3
  9
$DIMFRAC
 70
     0
  9
$DIMLDRBLK
  1
OPEN
  9
$DIMLUNIT
 70
     2
  9
$DIMLWD
 70
    -2
  9
$DIMLWE
 70
    -2
  9
$DIMTMOVE
 70
     0
  9
$LUNITS
 70
     2
  9
$LUPREC
 70
     4
  9
$SKETCHINC
 40
0.1
  9
$FILLETRAD
 40
0.0
  9
$AUNITS
 70
     0
  9
$AUPREC
 70
     0
  9
$MENU
  1
.
  9
$ELEVATION
 40
0.0
  9
$PELEVATION
 40
0.0
  9
$THICKNESS
 40
0.0
  9
$LIMCHECK
 70
     0
  9
$CHAMFERA
 40
0.0
  9
$CHAMFERB
 40
0.0
  9
$CHAMFERC
 40
0.0
  9
$CHAMFERD
 40
0.0
  9
$SKPOLY
 70
     0
  9
$TDCREATE
 40
2455708.374731956
  9
$TDUCREATE
 40
2455707.999731956
  9
$TDUPDATE
 40
2455954.638865255
  9
$TDUUPDATE
 40
2455954.263865255
  9
$TDINDWG
 40
0.0168518287
  9
$TDUSRTIMER
 40
0.0168487500
  9
$USRTIMER
 70
     1
  9
$ANGBASE
 50
0.0
  9
$ANGDIR
 70
     0
  9
$PDMODE
 70
     3
  9
$PDSIZE
 40
8.0
  9
$PLINEWID
 40
0.0
  9
$SPLFRAME
 70
     0
  9
$SPLINETYPE
 70
     6
  9
$SPLINESEGS
 70
     8
  9
$HANDSEED
  5
257E
  9
$SURFTAB1
 70
     6
  9
$SURFTAB2
 70
     6
  9
$SURFTYPE
 70
     6
  9
$SURFU
 70
     6
  9
$SURFV
 70
     6
  9
$UCSBASE
  2

  9
$UCSNAME
  2

  9
$UCSORG
 10
0.0
 20
0.0
 30
0.0
  9
$UCSXDIR
 10
1.0
 20
0.0
 30
0.0
  9
$UCSYDIR
 10
0.0
 20
1.0
 30
0.0
  9
$UCSORTHOREF
  2

  9
$UCSORTHOVIEW
 70
     0
  9
$UCSORGTOP
 10
0.0
 20
0.0
 30
0.0
  9
$UCSORGBOTTOM
 10
0.0
 20
0.0
 30
0.0
  9
$UCSORGLEFT
 10
0.0
 20
0.0
 30
0.0
  9
$UCSORGRIGHT
 10
0.0
 20
0.0
 30
0.0
  9
$UCSORGFRONT
 10
0.0
 20
0.0
 30
0.0
  9
$UCSORGBACK
 10
0.0
 20
0.0
 30
0.0
  9
$PUCSBASE
  2

  9
$PUCSNAME
  2

  9
$PUCSORG
 10
0.0
 20
0.0
 30
0.0
  9
$PUCSXDIR
 10
1.0
 20
0.0
 30
0.0
  9
$PUCSYDIR
 10
0.0
 20
1.0
 30
0.0
  9
$PUCSORTHOREF
  2

  9
$PUCSORTHOVIEW
 70
     0
  9
$PUCSORGTOP
 10
0.0
 20
0.0
 30
0.0
  9
$PUCSORGBOTTOM
 10
0.0
 20
0.0
 30
0.0
  9
$PUCSORGLEFT
 10
0.0
 20
0.0
 30
0.0
  9
$PUCSORGRIGHT
 10
0.0
 20
0.0
 30
0.0
  9
$PUCSORGFRONT
 10
0.0
 20
0.0
 30
0.0
  9
$PUCSORGBACK
 10
0.0
 20
0.0
 30
0.0
  9
$USERI1
 70
     0
  9
$USERI2
 70
     0
  9
$USERI3
 70
     0
  9
$USERI4
 70
     0
  9
$USERI5
 70
     0
  9
$USERR1
 40
0.0
  9
$USERR2
 40
0.0
  9
$USERR3
 40
0.0
  9
$USERR4
 40
0.0
  9
$USERR5
 40
0.0
  9
$WORLDVIEW
 70
     1
  9
$SHADEDGE
 70
     3
  9
$SHADEDIF
 70
    70
  9
$TILEMODE
 70
     1
  9
$MAXACTVP
 70
    64
  9
$PINSBASE
 10
0.0
 20
0.0
 30
0.0
  9
$PLIMCHECK
 70
     0
  9
$PEXTMIN
 10
1.000000000000000E+20
 20
1.000000000000000E+20
 30
1.000000000000000E+20
  9
$PEXTMAX
 10
-1.000000000000000E+20
 20
-1.000000000000000E+20
 30
-1.000000000000000E+20
  9
$PLIMMIN
 10
0.0
 20
0.0
  9
$PLIMMAX
 10
12.0
 20
9.0
  9
$UNITMODE
 70
     0
  9
$VISRETAIN
 70
     1
  9
$PLINEGEN
 70
     0
  9
$PSLTSCALE
 70
     1
  9
$TREEDEPTH
 70
  3020
  9
$CMLSTYLE
  2
Standard
  9
$CMLJUST
 70
     0
  9
$CMLSCALE
 40
1.0
  9
$PROXYGRAPHICS
 70
     1
  9
$MEASUREMENT
 70
     0
  9
$CELWEIGHT
370
    -1
  9
$ENDCAPS
280
     0
  9
$JOINSTYLE
280
     0
  9
$LWDISPLAY
290
     0
  9
$INSUNITS
 70
     0
  9
$HYPERLINKBASE
  1

  9
$STYLESHEET
  1
A3.ctb
  9
$XEDIT
290
     1
  9
$CEPSNTYPE
380
     0
  9
$PSTYLEMODE
290
     1
  9
$FINGERPRINTGUID
  2
{EE850981-73A7-411E-A017-AD501EAA97E2}
  9
$VERSIONGUID
  2
{CC54104D-DD4B-4E5A-8B8C-4A0823790B17}
  9
$EXTNAMES
290
     1
  9
$PSVPSCALE
 40
0.0
  9
$OLESTARTUP
290
     0
  0
ENDSEC
  0
SECTION
  2
CLASSES
  0
CLASS
  1
ACDBDICTIONARYWDFLT
  2
AcDbDictionaryWithDefault
  3
AutoCAD 2000
 90
        0
280
     0
281
     0
  0
CLASS
  1
ACDBPLACEHOLDER
  2
AcDbPlaceHolder
  3
AutoCAD 2000
 90
        0
280
     0
281
     0
  0
CLASS
  1
LAYOUT
  2
AcDbLayout
  3
AutoCAD 2000
 90
        0
280
     0
281
     0
  0
CLASS
  1
DICTIONARYVAR
  2
AcDbDictionaryVar
  3
AutoCAD 2000
 90
        0
280
     0
281
     0
  0
ENDSEC
  0
SECTION
  2
TABLES
  0
TABLE
  2
VPORT
  5
8
330
0
100
AcDbSymbolTable
 70
     2
  0
VPORT
  5
257D
330
8
100
AcDbSymbolTableRecord
100
AcDbViewportTableRecord
  2
*Active
 70
     0
 10
0.0
 20
0.0
 11
1.0
 21
1.0
 12
210.0000039117637
 22
148.5000027661756
 13
0.0
 23
0.0
 14
1.0
 24
1.0
 15
0.0
 25
0.0
 16
0.0
 26
0.0
 36
1.0
 17
0.0
 27
0.0
 37
0.0
 40
299.24933805218
 41
1.469413233458177
 42
50.0
 43
0.0
 44
0.0
 50
0.0
 51
0.0
 71
     0
 72
   100
 73
     1
 74
     1
 75
     1
 76
     0
 77
     0
 78
     0
281
     0
 65
     1
110
0.0
120
0.0
130
0.0
111
1.0
121
0.0
131
0.0
112
0.0
122
1.0
132
0.0
 79
     0
146
0.0
  0
ENDTAB
  0
TABLE
  2
LTYPE
  5
5
330
0
100
AcDbSymbolTable
 70
     7
  0
LTYPE
  5
13
330
5
100
AcDbSymbolTableRecord
100
AcDbLinetypeTableRecord
  2
ByBlock
 70
     0
  3

 72
    65
 73
     0
 40
0.0
  0
LTYPE
  5
14
330
5
100
AcDbSymbolTableRecord
100
AcDbLinetypeTableRecord
  2
ByLayer
 70
     0
  3

 72
    65
 73
     0
 40
0.0
  0
LTYPE
  5
15
330
5
100
AcDbSymbolTableRecord
100
AcDbLinetypeTableRecord
  2
CONTINUOUS
 70
     0
  3
Solid line
 72
    65
 73
     0
 40
0.0
  0
LTYPE
  5
24
330
5
100
AcDbSymbolTableRecord
100
AcDbLinetypeTableRecord
  2
CENTER
 70
     0
  3
____ _ ____ _ ____ _ ____ _ ____ _ ____ _ ____
 72
    65
 73
     4
 40
0.6
 49
0.375
 74
     0
 49
-0.075
 74
     0
 49
0.075
 74
     0
 49
-0.075
 74
     0
  0
LTYPE
  5
25
330
5
100
AcDbSymbolTableRecord
100
AcDbLinetypeTableRecord
  2
HIDDEN
 70
     0
  3
- - - - - - - - - - - - - - - - - - - -
 72
    65
 73
     2
 40
0.2
 49
0.1
 74
     0
 49
-0.1
 74
     0
  0
LTYPE
  5
26
330
5
100
AcDbSymbolTableRecord
100
AcDbLinetypeTableRecord
  2
PHANTOM
 70
     0
  3
_____ _ _ _____ _ _ _____ _ _ _____
 72
    65
 73
     6
 40
0.8
 49
0.45
 74
     0
 49
-0.05
 74
     0
 49
0.1
 74
     0
 49
-0.05
 74
     0
 49
0.1
 74
     0
 49
-0.05
 74
     0
  0
LTYPE
  5
27
330
5
100
AcDbSymbolTableRecord
100
AcDbLinetypeTableRecord
  2
DOT
 70
     0
  3
. . . . . . . . . . . . . . . . . . . .
 72
    65
 73
     2
 40
0.2
 49
0.1
 74
     0
 49
-0.1
 74
     0
  0
LTYPE
  5
28
330
5
100
AcDbSymbolTableRecord
100
AcDbLinetypeTableRecord
  2
DASHED
 70
     0
  3
- - - - - - - - - - - - - - - - - - - -
 72
    65
 73
     2
 40
0.2
 49
0.1
 74
     0
 49
-0.1
 74
     0
  0
LTYPE
  5
2395
330
5
100
AcDbSymbolTableRecord
100
AcDbLinetypeTableRecord
  2
CONTINOUS
 70
     0
  3
Solid line
 72
    65
 73
     0
 40
0.0
  0
ENDTAB
  0
TABLE
  2
LAYER
  5
2
102
{ACAD_XDICTIONARY
360
1FF2
102
}
330
0
100
AcDbSymbolTable
 70
   124
  0
LAYER
  5
10
330
2
100
AcDbSymbolTableRecord
100
AcDbLayerTableRecord
  2
0
 70
     0
 62
     7
  6
CONTINUOUS
370
    -3
390
F
  0
LAYER
  5
29
330
2
100
AcDbSymbolTableRecord
100
AcDbLayerTableRecord
  2
DEFAULT_1
 70
     0
 62
     7
  6
CENTER
370
    -3
390
F
  0
LAYER
  5
2A
330
2
100
AcDbSymbolTableRecord
100
AcDbLayerTableRecord
  2
DEFAULT_2
 70
     0
 62
     8
  6
HIDDEN
370
    -3
390
F
  0
LAYER
  5
2B
330
2
100
AcDbSymbolTableRecord
100
AcDbLayerTableRecord
  2
DEFAULT_3
 70
     0
 62
     7
  6
PHANTOM
370
    -3
390
F
  0
LAYER
  5
2C
330
2
100
AcDbSymbolTableRecord
100
AcDbLayerTableRecord
  2
_2D_DELETED_OBJS
 70
     0
 62
     7
  6
CONTINUOUS
370
    -3
390
F
  0
LAYER
  5
2D
330
2
100
AcDbSymbolTableRecord
100
AcDbLayerTableRecord
  2
_BLACK_HOLE
 70
     0
 62
     7
  6
CONTINUOUS
370
    -3
390
F
  0
LAYER
  5
2E
330
2
100
AcDbSymbolTableRecord
100
AcDbLayerTableRecord
  2
00_COMPONENTS
 70
     0
 62
     7
  6
CONTINUOUS
370
    -3
390
F
  0
LAYER
  5
2F
330
2
100
AcDbSymbolTableRecord
100
AcDbLayerTableRecord
  2
01___PRT_ALL_DTM_PLN
 70
     0
 62
     7
  6
CONTINUOUS
370
    -3
390
F
  0
LAYER
  5
30
330
2
100
AcDbSymbolTableRecord
100
AcDbLayerTableRecord
  2
01___PRT_DEF_DTM_PLN
 70
     0
 62
     7
  6
CONTINUOUS
370
    -3
390
F
  0
LAYER
  5
31
330
2
100
AcDbSymbolTableRecord
100
AcDbLayerTableRecord
  2
02___PRT_ALL_AXES
 70
     0
 62
     7
  6
CONTINUOUS
370
    -3
390
F
  0
LAYER
  5
32
330
2
100
AcDbSymbolTableRecord
100
AcDbLayerTableRecord
  2
03___PRT_ALL_CURVES
 70
     0
 62
     7
  6
CONTINUOUS
370
    -3
390
F
  0
LAYER
  5
33
330
2
100
AcDbSymbolTableRecord
100
AcDbLayerTableRecord
  2
04___PRT_ALL_DTM_PNT
 70
     0
 62
     7
  6
CONTINUOUS
370
    -3
390
F
  0
LAYER
  5
34
330
2
100
AcDbSymbolTableRecord
100
AcDbLayerTableRecord
  2
05___PRT_ALL_DTM_CSYS
 70
     0
 62
     7
  6
CONTINUOUS
370
    -3
390
F
  0
LAYER
  5
35
330
2
100
AcDbSymbolTableRecord
100
AcDbLayerTableRecord
  2
05___PRT_DEF_DTM_CSYS
 70
     0
 62
     7
  6
CONTINUOUS
370
    -3
390
F
  0
LAYER
  5
36
330
2
100
AcDbSymbolTableRecord
100
AcDbLayerTableRecord
  2
06___PRT_ALL_SURFS
 70
     0
 62
     7
  6
CONTINUOUS
370
    -3
390
F
  0
LAYER
  5
37
330
2
100
AcDbSymbolTableRecord
100
AcDbLayerTableRecord
  2
0_COMPONENTS
 70
     0
 62
     7
  6
CONTINUOUS
370
    -3
390
F
  0
LAYER
  5
38
330
2
100
AcDbSymbolTableRecord
100
AcDbLayerTableRecord
  2
1_ALL_DIMS
 70
     0
 62
     7
  6
CONTINUOUS
370
    -3
390
F
  0
LAYER
  5
39
330
2
100
AcDbSymbolTableRecord
100
AcDbLayerTableRecord
  2
1_ALL_DRAFT_DIMS
 70
     0
 62
     7
  6
CONTINUOUS
370
    -3
390
F
  0
LAYER
  5
3A
330
2
100
AcDbSymbolTableRecord
100
AcDbLayerTableRecord
  2
1_ALL_PLANES
 70
     0
 62
     7
  6
CONTINUOUS
370
    -3
390
F
  0
LAYER
  5
3B
330
2
100
AcDbSymbolTableRecord
100
AcDbLayerTableRecord
  2
1__DEF_PRT_PLN
 70
     0
 62
     7
  6
CONTINUOUS
370
    -3
390
F
  0
LAYER
  5
3C
330
2
100
AcDbSymbolTableRecord
100
AcDbLayerTableRecord
  2
2_ALL_CSYS
 70
     0
 62
     7
  6
CONTINUOUS
370
    -3
390
F
  0
LAYER
  5
3D
330
2
100
AcDbSymbolTableRecord
100
AcDbLayerTableRecord
  2
2_ALL_NOTES
 70
     0
 62
     7
  6
CONTINUOUS
370
    -3
390
F
  0
LAYER
  5
3E
330
2
100
AcDbSymbolTableRecord
100
AcDbLayerTableRecord
  2
2__DEF_PRT_CSYS
 70
     0
 62
     7
  6
CONTINUOUS
370
    -3
390
F
  0
LAYER
  5
3F
330
2
100
AcDbSymbolTableRecord
100
AcDbLayerTableRecord
  2
3_ALL_AXES
 70
     0
 62
     7
  6
CONTINUOUS
370
    -3
390
F
  0
LAYER
  5
40
330
2
100
AcDbSymbolTableRecord
100
AcDbLayerTableRecord
  2
3_ALL_SYMBOLS
 70
     0
 62
     7
  6
CONTINUOUS
370
    -3
390
F
  0
LAYER
  5
41
330
2
100
AcDbSymbolTableRecord
100
AcDbLayerTableRecord
  2
3__ALL_HOLES
 70
     0
 62
     7
  6
CONTINUOUS
370
    -3
390
F
  0
LAYER
  5
42
330
2
100
AcDbSymbolTableRecord
100
AcDbLayerTableRecord
  2
49-H1003G001
 70
     0
 62
     7
  6
CONTINUOUS
370
    -3
390
F
  0
LAYER
  5
43
330
2
100
AcDbSymbolTableRecord
100
AcDbLayerTableRecord
  2
4_ALL_TABLES
 70
     0
 62
     7
  6
CONTINUOUS
370
    -3
390
F
  0
LAYER
  5
44
330
2
100
AcDbSymbolTableRecord
100
AcDbLayerTableRecord
  2
510210600
 70
     0
 62
     7
  6
CONTINUOUS
370
    -3
390
F
  0
LAYER
  5
45
330
2
100
AcDbSymbolTableRecord
100
AcDbLayerTableRecord
  2
5_ALL_CURVES
 70
     0
 62
     7
  6
CONTINUOUS
370
    -3
390
F
  0
LAYER
  5
46
330
2
100
AcDbSymbolTableRecord
100
AcDbLayerTableRecord
  2
5_ALL_GTOLS_FREE_
 70
     0
 62
     7
  6
CONTINUOUS
370
    -3
390
F
  0
LAYER
  5
47
330
2
100
AcDbSymbolTableRecord
100
AcDbLayerTableRecord
  2
6_ALL_SURFS
 70
     0
 62
     7
  6
CONTINUOUS
370
    -3
390
F
  0
LAYER
  5
48
330
2
100
AcDbSymbolTableRecord
100
AcDbLayerTableRecord
  2
7_ALL_DRAFT_GEOMS
 70
     0
 62
     7
  6
CONTINUOUS
370
    -3
390
F
  0
LAYER
  5
49
330
2
100
AcDbSymbolTableRecord
100
AcDbLayerTableRecord
  2
7_ALL_FEATURES
 70
     0
 62
     7
  6
CONTINUOUS
370
    -3
390
F
  0
LAYER
  5
4A
330
2
100
AcDbSymbolTableRecord
100
AcDbLayerTableRecord
  2
7_ALL_FEATURES_8
 70
     0
 62
     7
  6
CONTINUOUS
370
    -3
390
F
  0
LAYER
  5
4B
330
2
100
AcDbSymbolTableRecord
100
AcDbLayerTableRecord
  2
8_ALL_DTL_ITEMS
 70
     0
 62
     7
  6
CONTINUOUS
370
    -3
390
F
  0
LAYER
  5
4C
330
2
100
AcDbSymbolTableRecord
100
AcDbLayerTableRecord
  2
8_ALL_ROUNDS
 70
     0
 62
     7
  6
CONTINUOUS
370
    -3
390
F
  0
LAYER
  5
4D
330
2
100
AcDbSymbolTableRecord
100
AcDbLayerTableRecord
  2
8_ALL_ROUNS
 70
     0
 62
     7
  6
CONTINUOUS
370
    -3
390
F
  0
LAYER
  5
4E
330
2
100
AcDbSymbolTableRecord
100
AcDbLayerTableRecord
  2
9_ALL_COSM_SKETCH
 70
     0
 62
     7
  6
CONTINUOUS
370
    -3
390
F
  0
LAYER
  5
4F
330
2
100
AcDbSymbolTableRecord
100
AcDbLayerTableRecord
  2
9_ALL_COSM_SKETCHS
 70
     0
 62
     7
  6
CONTINUOUS
370
    -3
390
F
  0
LAYER
  5
50
330
2
100
AcDbSymbolTableRecord
100
AcDbLayerTableRecord
  2
AXIS
 70
     0
 62
     7
  6
CONTINUOUS
370
    -3
390
F
  0
LAYER
  5
51
330
2
100
AcDbSymbolTableRecord
100
AcDbLayerTableRecord
  2
COLOR11
 70
     0
 62
     7
  6
CONTINUOUS
370
    -3
390
F
  0
LAYER
  5
52
330
2
100
AcDbSymbolTableRecord
100
AcDbLayerTableRecord
  2
COLOR13
 70
     0
 62
     7
  6
CONTINUOUS
370
    -3
390
F
  0
LAYER
  5
53
330
2
100
AcDbSymbolTableRecord
100
AcDbLayerTableRecord
  2
COLOR2
 70
     0
 62
     7
  6
CONTINUOUS
370
    -3
390
F
  0
LAYER
  5
54
330
2
100
AcDbSymbolTableRecord
100
AcDbLayerTableRecord
  2
COLOR26
 70
     0
 62
     7
  6
CONTINUOUS
370
    -3
390
F
  0
LAYER
  5
55
330
2
100
AcDbSymbolTableRecord
100
AcDbLayerTableRecord
  2
COLOR31
 70
     0
 62
     7
  6
CONTINUOUS
370
    -3
390
F
  0
LAYER
  5
56
330
2
100
AcDbSymbolTableRecord
100
AcDbLayerTableRecord
  2
COLOR6
 70
     0
 62
     7
  6
CONTINUOUS
370
    -3
390
F
  0
LAYER
  5
57
330
2
100
AcDbSymbolTableRecord
100
AcDbLayerTableRecord
  2
COLOR9
 70
     0
 62
     7
  6
CONTINUOUS
370
    -3
390
F
  0
LAYER
  5
58
330
2
100
AcDbSymbolTableRecord
100
AcDbLayerTableRecord
  2
CSYS
 70
     0
 62
     7
  6
CONTINUOUS
370
    -3
390
F
  0
LAYER
  5
59
330
2
100
AcDbSymbolTableRecord
100
AcDbLayerTableRecord
  2
G1-SOMA
 70
     0
 62
     7
  6
CONTINUOUS
370
    -3
390
F
  0
LAYER
  5
5A
330
2
100
AcDbSymbolTableRecord
100
AcDbLayerTableRecord
  2
GALAEPO
 70
     0
 62
     7
  6
CONTINUOUS
370
    -3
390
F
  0
LAYER
  5
5B
330
2
100
AcDbSymbolTableRecord
100
AcDbLayerTableRecord
  2
GR01-0015
 70
     0
 62
     7
  6
CONTINUOUS
370
    -3
390
F
  0
LAYER
  5
5C
330
2
100
AcDbSymbolTableRecord
100
AcDbLayerTableRecord
  2
GR04-0006
 70
     0
 62
     7
  6
CONTINUOUS
370
    -3
390
F
  0
LAYER
  5
5D
330
2
100
AcDbSymbolTableRecord
100
AcDbLayerTableRecord
  2
GR04-0006_1
 70
     0
 62
     7
  6
CONTINUOUS
370
    -3
390
F
  0
LAYER
  5
5E
330
2
100
AcDbSymbolTableRecord
100
AcDbLayerTableRecord
  2
GR04-0016
 70
     0
 62
     7
  6
CONTINUOUS
370
    -3
390
F
  0
LAYER
  5
5F
330
2
100
AcDbSymbolTableRecord
100
AcDbLayerTableRecord
  2
GR07-0007
 70
     0
 62
     7
  6
CONTINUOUS
370
    -3
390
F
  0
LAYER
  5
60
330
2
100
AcDbSymbolTableRecord
100
AcDbLayerTableRecord
  2
INTF_GREEN
 70
     0
 62
     7
  6
CONTINUOUS
370
    -3
390
F
  0
LAYER
  5
61
330
2
100
AcDbSymbolTableRecord
100
AcDbLayerTableRecord
  2
INTF_MAGENTA
 70
     0
 62
     7
  6
CONTINUOUS
370
    -3
390
F
  0
LAYER
  5
62
330
2
100
AcDbSymbolTableRecord
100
AcDbLayerTableRecord
  2
INTF_RED
 70
     0
 62
     7
  6
CONTINUOUS
370
    -3
390
F
  0
LAYER
  5
63
330
2
100
AcDbSymbolTableRecord
100
AcDbLayerTableRecord
  2
IR_EN
 70
     0
 62
     7
  6
CONTINUOUS
370
    -3
390
F
  0
LAYER
  5
64
330
2
100
AcDbSymbolTableRecord
100
AcDbLayerTableRecord
  2
L1
 70
     0
 62
     7
  6
CONTINUOUS
370
    -3
390
F
  0
LAYER
  5
65
330
2
100
AcDbSymbolTableRecord
100
AcDbLayerTableRecord
  2
L8
 70
     0
 62
     7
  6
CONTINUOUS
370
    -3
390
F
  0
LAYER
  5
66
330
2
100
AcDbSymbolTableRecord
100
AcDbLayerTableRecord
  2
NETWORK
 70
     0
 62
     7
  6
CONTINUOUS
370
    -3
390
F
  0
LAYER
  5
67
330
2
100
AcDbSymbolTableRecord
100
AcDbLayerTableRecord
  2
NEW-ASIA
 70
     0
 62
     7
  6
CONTINUOUS
370
    -3
390
F
  0
LAYER
  5
68
330
2
100
AcDbSymbolTableRecord
100
AcDbLayerTableRecord
  2
PATTERN
 70
     0
 62
     7
  6
CONTINUOUS
370
    -3
390
F
  0
LAYER
  5
69
330
2
100
AcDbSymbolTableRecord
100
AcDbLayerTableRecord
  2
PATTERN_1
 70
     0
 62
     7
  6
CONTINUOUS
370
    -3
390
F
  0
LAYER
  5
6A
330
2
100
AcDbSymbolTableRecord
100
AcDbLayerTableRecord
  2
PATTERN_2
 70
     0
 62
     7
  6
CONTINUOUS
370
    -3
390
F
  0
LAYER
  5
6B
330
2
100
AcDbSymbolTableRecord
100
AcDbLayerTableRecord
  2
PATTERN_3
 70
     0
 62
     7
  6
CONTINUOUS
370
    -3
390
F
  0
LAYER
  5
6C
330
2
100
AcDbSymbolTableRecord
100
AcDbLayerTableRecord
  2
PLN
 70
     0
 62
     7
  6
CONTINUOUS
370
    -3
390
F
  0
LAYER
  5
6D
330
2
100
AcDbSymbolTableRecord
100
AcDbLayerTableRecord
  2
PNT
 70
     0
 62
     7
  6
CONTINUOUS
370
    -3
390
F
  0
LAYER
  5
6E
330
2
100
AcDbSymbolTableRecord
100
AcDbLayerTableRecord
  2
PRT0006
 70
     0
 62
     7
  6
CONTINUOUS
370
    -3
390
F
  0
LAYER
  5
6F
330
2
100
AcDbSymbolTableRecord
100
AcDbLayerTableRecord
  2
PRT0007
 70
     0
 62
     7
  6
CONTINUOUS
370
    -3
390
F
  0
LAYER
  5
70
330
2
100
AcDbSymbolTableRecord
100
AcDbLayerTableRecord
  2
PRT0008
 70
     0
 62
     7
  6
CONTINUOUS
370
    -3
390
F
  0
LAYER
  5
71
330
2
100
AcDbSymbolTableRecord
100
AcDbLayerTableRecord
  2
REGIST
 70
     0
 62
     7
  6
CONTINUOUS
370
    -3
390
F
  0
LAYER
  5
72
330
2
100
AcDbSymbolTableRecord
100
AcDbLayerTableRecord
  2
SCREW-4
 70
     0
 62
     7
  6
CONTINUOUS
370
    -3
390
F
  0
LAYER
  5
73
330
2
100
AcDbSymbolTableRecord
100
AcDbLayerTableRecord
  2
SCREW-4_1
 70
     0
 62
     7
  6
CONTINUOUS
370
    -3
390
F
  0
LAYER
  5
74
330
2
100
AcDbSymbolTableRecord
100
AcDbLayerTableRecord
  2
SCREW_MX1_7X3
 70
     0
 62
     7
  6
CONTINUOUS
370
    -3
390
F
  0
LAYER
  5
75
330
2
100
AcDbSymbolTableRecord
100
AcDbLayerTableRecord
  2
SCREW_MX1_7X3_1
 70
     0
 62
     7
  6
CONTINUOUS
370
    -3
390
F
  0
LAYER
  5
76
330
2
100
AcDbSymbolTableRecord
100
AcDbLayerTableRecord
  2
SCREW_MX1_7X3_2
 70
     0
 62
     7
  6
CONTINUOUS
370
    -3
390
F
  0
LAYER
  5
77
330
2
100
AcDbSymbolTableRecord
100
AcDbLayerTableRecord
  2
WIDE
 70
     0
 62
     7
  6
CONTINUOUS
370
    -3
390
F
  0
LAYER
  5
78
330
2
100
AcDbSymbolTableRecord
100
AcDbLayerTableRecord
  2
XSEC_DATUMS
 70
     0
 62
     7
  6
CONTINUOUS
370
    -3
390
F
  0
LAYER
  5
79
330
2
100
AcDbSymbolTableRecord
100
AcDbLayerTableRecord
  2
YC-19-BARREL-1
 70
     0
 62
     7
  6
CONTINUOUS
370
    -3
390
F
  0
LAYER
  5
7A
330
2
100
AcDbSymbolTableRecord
100
AcDbLayerTableRecord
  2
YC-19-CAM-1
 70
     0
 62
     7
  6
CONTINUOUS
370
    -3
390
F
  0
LAYER
  5
7B
330
2
100
AcDbSymbolTableRecord
100
AcDbLayerTableRecord
  2
YC-19-FOCUSE
 70
     0
 62
     7
  6
CONTINUOUS
370
    -3
390
F
  0
LAYER
  5
7C
330
2
100
AcDbSymbolTableRecord
100
AcDbLayerTableRecord
  2
YC-19-SCREW-1
 70
     0
 62
     7
  6
CONTINUOUS
370
    -3
390
F
  0
LAYER
  5
7D
330
2
100
AcDbSymbolTableRecord
100
AcDbLayerTableRecord
  2
YC-19-SCREW-2
 70
     0
 62
     7
  6
CONTINUOUS
370
    -3
390
F
  0
LAYER
  5
7E
330
2
100
AcDbSymbolTableRecord
100
AcDbLayerTableRecord
  2
YC-19-STICKER-240
 70
     0
 62
     7
  6
CONTINUOUS
370
    -3
390
F
  0
LAYER
  5
7F
330
2
100
AcDbSymbolTableRecord
100
AcDbLayerTableRecord
  2
YC_19_BARREL2
 70
     0
 62
     7
  6
CONTINUOUS
370
    -3
390
F
  0
LAYER
  5
80
330
2
100
AcDbSymbolTableRecord
100
AcDbLayerTableRecord
  2
YC_19_CAM2
 70
     0
 62
     7
  6
CONTINUOUS
370
    -3
390
F
  0
LAYER
  5
81
330
2
100
AcDbSymbolTableRecord
100
AcDbLayerTableRecord
  2
YC_19_REARCELL
 70
     0
 62
     7
  6
CONTINUOUS
370
    -3
390
F
  0
LAYER
  5
82
330
2
100
AcDbSymbolTableRecord
100
AcDbLayerTableRecord
  2
YC_19_REAR_ASM
 70
     0
 62
     7
  6
CONTINUOUS
370
    -3
390
F
  0
LAYER
  5
83
330
2
100
AcDbSymbolTableRecord
100
AcDbLayerTableRecord
  2
___SHELL
 70
     0
 62
     7
  6
CONTINUOUS
370
    -3
390
F
  0
LAYER
  5
2054
330
2
100
AcDbSymbolTableRecord
100
AcDbLayerTableRecord
  2
寸法
 70
     0
 62
    40
  6
CONTINUOUS
370
    -3
390
F
  0
LAYER
  5
2055
330
2
100
AcDbSymbolTableRecord
100
AcDbLayerTableRecord
  2
非表示
 70
     0
 62
     5
  6
CONTINUOUS
290
     0
370
    -3
390
F
  0
LAYER
  5
2183
330
2
100
AcDbSymbolTableRecord
100
AcDbLayerTableRecord
  2
Defpoints
 70
     0
 62
     7
  6
CONTINUOUS
290
     0
370
    -3
390
F
  0
LAYER
  5
2396
330
2
100
AcDbSymbolTableRecord
100
AcDbLayerTableRecord
  2
図面枠
 70
     0
 62
   253
  6
CONTINUOUS
370
    -3
390
F
  0
LAYER
  5
2397
330
2
100
AcDbSymbolTableRecord
100
AcDbLayerTableRecord
  2
図面枠-細
 70
     0
 62
   254
  6
CONTINUOUS
370
    -3
390
F
  0
LAYER
  5
2398
330
2
100
AcDbSymbolTableRecord
100
AcDbLayerTableRecord
  2
図面枠-太
 70
     0
 62
   252
  6
CONTINUOUS
370
    -3
390
F
  0
LAYER
  5
2399
330
2
100
AcDbSymbolTableRecord
100
AcDbLayerTableRecord
  2
文字
 70
     0
 62
     7
  6
CONTINUOUS
370
    -3
390
F
  0
LAYER
  5
239A
330
2
100
AcDbSymbolTableRecord
100
AcDbLayerTableRecord
  2
実線
 70
     0
 62
     3
  6
CONTINUOUS
370
    -3
390
F
  0
LAYER
  5
239B
330
2
100
AcDbSymbolTableRecord
100
AcDbLayerTableRecord
  2
一点鎖線
 70
     0
 62
   120
  6
CENTER
370
    -3
390
F
  0
LAYER
  5
239C
330
2
100
AcDbSymbolTableRecord
100
AcDbLayerTableRecord
  2
INTFCLR_12295
 70
     0
 62
     7
  6
CONTINUOUS
370
    -3
390
F
  0
LAYER
  5
239D
330
2
100
AcDbSymbolTableRecord
100
AcDbLayerTableRecord
  2
INTFCLR_12503
 70
     0
 62
     7
  6
CONTINUOUS
370
    -3
390
F
  0
LAYER
  5
239E
330
2
100
AcDbSymbolTableRecord
100
AcDbLayerTableRecord
  2
INTFCLR_13505
 70
     0
 62
     7
  6
CONTINUOUS
370
    -3
390
F
  0
LAYER
  5
239F
330
2
100
AcDbSymbolTableRecord
100
AcDbLayerTableRecord
  2
INTFCLR_14451
 70
     0
 62
     7
  6
CONTINUOUS
370
    -3
390
F
  0
LAYER
  5
23A0
330
2
100
AcDbSymbolTableRecord
100
AcDbLayerTableRecord
  2
INTFCLR_16683
 70
     0
 62
     7
  6
CONTINUOUS
370
    -3
390
F
  0
LAYER
  5
23A1
330
2
100
AcDbSymbolTableRecord
100
AcDbLayerTableRecord
  2
INTFCLR_18219
 70
     0
 62
     7
  6
CONTINUOUS
370
    -3
390
F
  0
LAYER
  5
23A2
330
2
100
AcDbSymbolTableRecord
100
AcDbLayerTableRecord
  2
INTFCLR_20849
 70
     0
 62
     7
  6
CONTINUOUS
370
    -3
390
F
  0
LAYER
  5
23A3
330
2
100
AcDbSymbolTableRecord
100
AcDbLayerTableRecord
  2
INTFCLR_21747
 70
     0
 62
     7
  6
CONTINUOUS
370
    -3
390
F
  0
LAYER
  5
23A4
330
2
100
AcDbSymbolTableRecord
100
AcDbLayerTableRecord
  2
INTFCLR_6641
 70
     0
 62
     7
  6
CONTINUOUS
370
    -3
390
F
  0
LAYER
  5
23A5
330
2
100
AcDbSymbolTableRecord
100
AcDbLayerTableRecord
  2
INTF_11
 70
     0
 62
     7
  6
CONTINUOUS
370
    -3
390
F
  0
LAYER
  5
23A6
330
2
100
AcDbSymbolTableRecord
100
AcDbLayerTableRecord
  2
INTF_13
 70
     0
 62
     7
  6
CONTINUOUS
370
    -3
390
F
  0
LAYER
  5
23A7
330
2
100
AcDbSymbolTableRecord
100
AcDbLayerTableRecord
  2
INTF_18
 70
     0
 62
     7
  6
CONTINUOUS
370
    -3
390
F
  0
LAYER
  5
23A8
330
2
100
AcDbSymbolTableRecord
100
AcDbLayerTableRecord
  2
INTF_2
 70
     0
 62
     7
  6
CONTINUOUS
370
    -3
390
F
  0
LAYER
  5
23A9
330
2
100
AcDbSymbolTableRecord
100
AcDbLayerTableRecord
  2
INTF_22
 70
     0
 62
     7
  6
CONTINUOUS
370
    -3
390
F
  0
LAYER
  5
23AA
330
2
100
AcDbSymbolTableRecord
100
AcDbLayerTableRecord
  2
INTF_26
 70
     0
 62
     7
  6
CONTINUOUS
370
    -3
390
F
  0
LAYER
  5
23AB
330
2
100
AcDbSymbolTableRecord
100
AcDbLayerTableRecord
  2
INTF_28
 70
     0
 62
     7
  6
CONTINUOUS
370
    -3
390
F
  0
LAYER
  5
23AC
330
2
100
AcDbSymbolTableRecord
100
AcDbLayerTableRecord
  2
INTF_30
 70
     0
 62
     7
  6
CONTINUOUS
370
    -3
390
F
  0
LAYER
  5
23AD
330
2
100
AcDbSymbolTableRecord
100
AcDbLayerTableRecord
  2
INTF_37
 70
     0
 62
     7
  6
CONTINUOUS
370
    -3
390
F
  0
LAYER
  5
23AE
330
2
100
AcDbSymbolTableRecord
100
AcDbLayerTableRecord
  2
INTF_4
 70
     0
 62
     7
  6
CONTINUOUS
370
    -3
390
F
  0
LAYER
  5
23AF
330
2
100
AcDbSymbolTableRecord
100
AcDbLayerTableRecord
  2
INTF_40
 70
     0
 62
     7
  6
CONTINUOUS
370
    -3
390
F
  0
LAYER
  5
23B0
330
2
100
AcDbSymbolTableRecord
100
AcDbLayerTableRecord
  2
INTF_7
 70
     0
 62
     7
  6
CONTINUOUS
370
    -3
390
F
  0
LAYER
  5
23B1
330
2
100
AcDbSymbolTableRecord
100
AcDbLayerTableRecord
  2
INTF_9
 70
     0
 62
     7
  6
CONTINUOUS
370
    -3
390
F
  0
LAYER
  5
23B2
330
2
100
AcDbSymbolTableRecord
100
AcDbLayerTableRecord
  2
INTF_BLANK
 70
     0
 62
     7
  6
CONTINUOUS
370
    -3
390
F
  0
ENDTAB
  0
TABLE
  2
STYLE
  5
3
330
0
100
AcDbSymbolTable
 70
     4
  0
STYLE
  5
11
330
3
100
AcDbSymbolTableRecord
100
AcDbTextStyleTableRecord
  2
STANDARD
 70
     0
 40
0.0
 41
0.8
 50
0.0
 71
     0
 42
0.2
  3
txt
  4

  0
STYLE
  5
2056
330
3
100
AcDbSymbolTableRecord
100
AcDbTextStyleTableRecord
  2
STANDARD1
 70
     0
 40
0.0
 41
0.8
 50
0.0
 71
     0
 42
2.5
  3
MONOTXT.shx
  4
BIGFONT.shx
  0
STYLE
  5
23B3
330
3
100
AcDbSymbolTableRecord
100
AcDbTextStyleTableRecord
  2
STANDARD2
 70
     4
 40
0.0
 41
1.0
 50
0.0
 71
     0
 42
2.799999952316284
  3
MONOTXT
  4
BIGFONT
  0
STYLE
  5
23B4
330
3
100
AcDbSymbolTableRecord
100
AcDbTextStyleTableRecord
  2
ARIAL-B
 70
     0
 40
0.0
 41
1.0
 50
0.0
 71
     0
 42
4.0
  3

  4

1001
ACAD
1000
Arial Black
1071
       34
  0
ENDTAB
  0
TABLE
  2
VIEW
  5
6
330
0
100
AcDbSymbolTable
 70
     0
  0
ENDTAB
  0
TABLE
  2
UCS
  5
7
330
0
100
AcDbSymbolTable
 70
     0
  0
ENDTAB
  0
TABLE
  2
APPID
  5
9
330
0
100
AcDbSymbolTable
 70
     6
  0
APPID
  5
12
330
9
100
AcDbSymbolTableRecord
100
AcDbRegAppTableRecord
  2
ACAD
 70
     0
  0
APPID
  5
23B5
330
9
100
AcDbSymbolTableRecord
100
AcDbRegAppTableRecord
  2
CONTENTBLOCKDESCRIPTION
 70
     0
  0
APPID
  5
23B6
330
9
100
AcDbSymbolTableRecord
100
AcDbRegAppTableRecord
  2
CONTENTTABDATA
 70
     0
  0
APPID
  5
23B7
330
9
100
AcDbSymbolTableRecord
100
AcDbRegAppTableRecord
  2
CONTENTCURRENTTAB
 70
     0
  0
APPID
  5
23B8
330
9
100
AcDbSymbolTableRecord
100
AcDbRegAppTableRecord
  2
CONTENTBLOCKICON
 70
     0
  0
APPID
  5
23B9
330
9
100
AcDbSymbolTableRecord
100
AcDbRegAppTableRecord
  2
CONTENTLONGBLOCKNAME
 70
     0
  0
ENDTAB
  0
TABLE
  2
DIMSTYLE
  5
A
330
0
100
AcDbSymbolTable
 70
     2
100
AcDbDimStyleTable
 71
     1
340
1FF0
  0
DIMSTYLE
105
1FF0
330
A
100
AcDbSymbolTableRecord
100
AcDbDimStyleTableRecord
  2
Standard
 70
     0
340
11
  0
DIMSTYLE
105
2057
330
A
100
AcDbSymbolTableRecord
100
AcDbDimStyleTableRecord
  2
STANDARD-2
 70
     0
 41
2.0
 42
1.0
 44
1.0
 73
     0
 74
     0
 77
     3
 78
     9
140
2.5
144
1.03
147
1.0
172
     1
173
     1
271
     0
272
     0
284
     9
340
11
341
204E
343
204E
344
204E
  0
ENDTAB
  0
TABLE
  2
BLOCK_RECORD
  5
1
330
0
100
AcDbSymbolTable
 70
    18
  0
BLOCK_RECORD
  5
1E
330
1
100
AcDbSymbolTableRecord
100
AcDbBlockTableRecord
  2
*Model_Space
340
21
  0
BLOCK_RECORD
  5
1A
330
1
100
AcDbSymbolTableRecord
100
AcDbBlockTableRecord
  2
*Paper_Space
340
1D
  0
BLOCK_RECORD
  5
86
330
1
100
AcDbSymbolTableRecord
100
AcDbBlockTableRecord
  2
*D0
340
0
  0
BLOCK_RECORD
  5
8C
330
1
100
AcDbSymbolTableRecord
100
AcDbBlockTableRecord
  2
_OPEN
340
0
102
{BLKREFS
331
8D
331
8E
331
96
331
97
331
9F
331
A0
331
A8
331
A9
331
B1
331
B2
331
BA
331
BB
331
C3
331
C4
331
2189
331
218A
331
2196
331
2197
331
21A2
331
21A3
331
21AC
331
21AD
331
21B5
331
21B6
331
21BF
331
21C0
331
21C9
331
21CA
331
21D6
331
21D7
331
21E2
331
21E3
331
21EC
331
21ED
331
21F5
331
21F6
331
21FF
331
2200
331
2208
331
2209
331
2211
331
2212
331
221A
331
221B
331
2223
331
2224
331
222D
331
222E
331
223A
331
223B
331
2247
331
2248
331
2253
331
2254
331
225C
331
225D
331
2278
331
2279
331
2282
331
2283
331
228B
331
228C
331
2295
331
2296
331
22A8
331
22A9
331
22B2
331
22B3
331
22C4
331
22C5
331
22CD
331
22CE
331
22D6
331
22D7
331
22DF
331
22E0
331
22E8
331
22E9
331
22F1
331
22F2
331
22FA
331
22FB
331
2303
331
2304
331
230C
331
230D
331
2315
331
2316
331
231E
331
231F
331
2327
331
2328
331
2330
331
2331
331
2339
331
233A
331
2342
331
2343
331
234B
331
234C
331
2354
331
2355
331
235D
331
235E
331
2366
331
2367
331
236F
331
2370
331
2378
331
2379
102
}
  0
BLOCK_RECORD
  5
90
330
1
100
AcDbSymbolTableRecord
100
AcDbBlockTableRecord
  2
*D2
340
0
  0
BLOCK_RECORD
  5
99
330
1
100
AcDbSymbolTableRecord
100
AcDbBlockTableRecord
  2
*D3
340
0
  0
BLOCK_RECORD
  5
A2
330
1
100
AcDbSymbolTableRecord
100
AcDbBlockTableRecord
  2
*D4
340
0
  0
BLOCK_RECORD
  5
AB
330
1
100
AcDbSymbolTableRecord
100
AcDbBlockTableRecord
  2
*D5
340
0
  0
BLOCK_RECORD
  5
B4
330
1
100
AcDbSymbolTableRecord
100
AcDbBlockTableRecord
  2
*D6
340
0
  0
BLOCK_RECORD
  5
BD
330
1
100
AcDbSymbolTableRecord
100
AcDbBlockTableRecord
  2
*D7
340
0
  0
BLOCK_RECORD
  5
C6
330
1
100
AcDbSymbolTableRecord
100
AcDbBlockTableRecord
  2
K_GAIKEI_JISB0405V_BL0
340
0
102
{BLKREFS
331
862
102
}
  0
BLOCK_RECORD
  5
204E
330
1
100
AcDbSymbolTableRecord
100
AcDbBlockTableRecord
  2
_OPEN30
340
0
102
{BLKREFS
331
2527
331
252B
331
252C
331
2531
331
2532
331
2537
331
2538
331
253F
331
2540
331
2547
331
2548
331
254E
331
254F
331
2552
331
2553
331
2559
331
255A
331
255D
331
255E
331
2563
331
2564
331
2569
331
256C
331
256F
331
2572
102
}
  0
BLOCK_RECORD
  5
2184
330
1
100
AcDbSymbolTableRecord
100
AcDbBlockTableRecord
  2
*D10
340
0
  0
BLOCK_RECORD
  5
2191
330
1
100
AcDbSymbolTableRecord
100
AcDbBlockTableRecord
  2
*D11
340
0
  0
BLOCK_RECORD
  5
21C4
330
1
100
AcDbSymbolTableRecord
100
AcDbBlockTableRecord
  2
*D12
340
0
  0
BLOCK_RECORD
  5
21D1
330
1
100
AcDbSymbolTableRecord
100
AcDbBlockTableRecord
  2
*D13
340
0
  0
BLOCK_RECORD
  5
2228
330
1
100
AcDbSymbolTableRecord
100
AcDbBlockTableRecord
  2
*D14
340
0
  0
BLOCK_RECORD
  5
2235
330
1
100
AcDbSymbolTableRecord
100
AcDbBlockTableRecord
  2
*D15
340
0
  0
BLOCK_RECORD
  5
2242
330
1
100
AcDbSymbolTableRecord
100
AcDbBlockTableRecord
  2
*D16
340
0
  0
BLOCK_RECORD
  5
2384
330
1
100
AcDbSymbolTableRecord
100
AcDbBlockTableRecord
  2
A$C5F064851
340
0
  0
ENDTAB
  0
ENDSEC
  0
SECTION
  2
BLOCKS
  0
BLOCK
  5
1F
330
1E
100
AcDbEntity
  8
0
100
AcDbBlockBegin
  2
*Model_Space
 70
     0
 10
0.0
 20
0.0
 30
0.0
  3
*Model_Space
  1

  0
ENDBLK
  5
20
330
1E
100
AcDbEntity
  8
0
100
AcDbBlockEnd
  0
BLOCK
  5
1B
330
1A
100
AcDbEntity
 67
     1
  8
0
100
AcDbBlockBegin
  2
*Paper_Space
 70
     0
 10
0.0
 20
0.0
 30
0.0
  3
*Paper_Space
  1

  0
ENDBLK
  5
1C
330
1A
100
AcDbEntity
 67
     1
  8
0
100
AcDbBlockEnd
  0
BLOCK
  5
87
330
86
100
AcDbEntity
  8
1_ALL_DRAFT_DIMS
  6
Continuous
 62
     2
100
AcDbBlockBegin
  2
*D0
 70
     1
 10
0.0
 20
0.0
 30
0.0
  3
*D0
  1

  0
LINE
  5
88
330
86
100
AcDbEntity
  8
1_ALL_DRAFT_DIMS
  6
Continuous
 62
     2
100
AcDbLine
 10
36.0923743106
 20
132.6646531675
 30
0.0
 11
25.3270522086
 21
132.6646531675
 31
0.0
  0
LINE
  5
89
330
86
100
AcDbEntity
  8
1_ALL_DRAFT_DIMS
  6
Continuous
 62
     2
100
AcDbLine
 10
51.8635772428
 20
189.6559256349999
 30
0.0
 11
25.3270522086
 21
189.6559256349999
 31
0.0
  0
LINE
  5
8A
330
86
100
AcDbEntity
  8
1_ALL_DRAFT_DIMS
  6
Continuous
 62
     2
100
AcDbLine
 10
26.3270522086
 20
132.6646531675
 30
0.0
 11
26.3270522086
 21
161.1602894013
 31
0.0
  0
LINE
  5
8B
330
86
100
AcDbEntity
  8
1_ALL_DRAFT_DIMS
  6
Continuous
 62
     2
100
AcDbLine
 10
26.3270522086
 20
189.6559256349999
 30
0.0
 11
26.3270522086
 21
161.1602894013
 31
0.0
  0
INSERT
  5
8D
330
86
100
AcDbEntity
  8
1_ALL_DRAFT_DIMS
  6
Continuous
 62
     2
100
AcDbBlockReference
  2
_OPEN
 10
26.3270522086
 20
132.6646531675
 30
0.0
 41
2.0
 42
2.0
 43
2.0
 50
270.0
  0
INSERT
  5
8E
330
86
100
AcDbEntity
  8
1_ALL_DRAFT_DIMS
  6
Continuous
 62
     2
100
AcDbBlockReference
  2
_OPEN
 10
26.3270522086
 20
189.6559256349999
 30
0.0
 41
2.0
 42
2.0
 43
2.0
 50
90.0
  0
ENDBLK
  5
8F
330
86
100
AcDbEntity
  8
0
  6
ByBlock
 62
     0
100
AcDbBlockEnd
  0
BLOCK
  5
817
330
8C
100
AcDbEntity
  8
0
100
AcDbBlockBegin
  2
_OPEN
 70
     0
 10
0.0
 20
0.0
 30
0.0
  3
_OPEN
  1

  0
LINE
  5
818
330
8C
100
AcDbEntity
  8
0
  6
ByBlock
 62
     0
100
AcDbLine
 10
0.0
 20
0.0
 30
0.0
 11
-1.0
 21
0.3125
 31
0.0
  0
LINE
  5
819
330
8C
100
AcDbEntity
  8
0
  6
ByBlock
 62
     0
100
AcDbLine
 10
-1.0
 20
-0.3125
 30
0.0
 11
0.0
 21
0.0
 31
0.0
  0
LINE
  5
81A
330
8C
100
AcDbEntity
  8
0
  6
ByBlock
 62
     0
100
AcDbLine
 10
-1.0
 20
0.0
 30
0.0
 11
0.0
 21
0.0
 31
0.0
  0
ENDBLK
  5
81B
330
8C
100
AcDbEntity
  8
0
  6
ByBlock
 62
     0
100
AcDbBlockEnd
  0
BLOCK
  5
91
330
90
100
AcDbEntity
  8
1_ALL_DRAFT_DIMS
  6
Continuous
 62
     2
100
AcDbBlockBegin
  2
*D2
 70
     1
 10
0.0
 20
0.0
 30
0.0
  3
*D2
  1

  0
LINE
  5
92
330
90
100
AcDbEntity
  8
1_ALL_DRAFT_DIMS
  6
Continuous
 62
     2
100
AcDbLine
 10
34.4146126761
 20
156.1559256349999
 30
0.0
 11
34.4146126761
 21
117.9991486975
 31
0.0
  0
LINE
  5
93
330
90
100
AcDbEntity
  8
1_ALL_DRAFT_DIMS
  6
Continuous
 62
     2
100
AcDbLine
 10
104.4146126761
 20
156.1559256349999
 30
0.0
 11
104.4146126761
 21
117.9991486975
 31
0.0
  0
LINE
  5
94
330
90
100
AcDbEntity
  8
1_ALL_DRAFT_DIMS
  6
Continuous
 62
     2
100
AcDbLine
 10
34.4146126761
 20
118.9991486975
 30
0.0
 11
69.41461267609999
 21
118.9991486975
 31
0.0
  0
LINE
  5
95
330
90
100
AcDbEntity
  8
1_ALL_DRAFT_DIMS
  6
Continuous
 62
     2
100
AcDbLine
 10
104.4146126761
 20
118.9991486975
 30
0.0
 11
69.41461267609999
 21
118.9991486975
 31
0.0
  0
INSERT
  5
96
330
90
100
AcDbEntity
  8
1_ALL_DRAFT_DIMS
  6
Continuous
 62
     2
100
AcDbBlockReference
  2
_OPEN
 10
34.4146126761
 20
118.9991486975
 30
0.0
 41
2.0
 42
2.0
 43
2.0
 50
180.0
  0
INSERT
  5
97
330
90
100
AcDbEntity
  8
1_ALL_DRAFT_DIMS
  6
Continuous
 62
     2
100
AcDbBlockReference
  2
_OPEN
 10
104.4146126761
 20
118.9991486975
 30
0.0
 41
2.0
 42
2.0
 43
2.0
  0
ENDBLK
  5
98
330
90
100
AcDbEntity
  8
0
  6
ByBlock
 62
     0
100
AcDbBlockEnd
  0
BLOCK
  5
9A
330
99
100
AcDbEntity
  8
1_ALL_DRAFT_DIMS
  6
Continuous
 62
     2
100
AcDbBlockBegin
  2
*D3
 70
     1
 10
0.0
 20
0.0
 30
0.0
  3
*D3
  1

  0
LINE
  5
9B
330
99
100
AcDbEntity
  8
1_ALL_DRAFT_DIMS
  6
Continuous
 62
     2
100
AcDbLine
 10
206.4323001009999
 20
91.7220687278
 30
0.0
 11
206.4323001009999
 21
127.6120750541
 31
0.0
  0
LINE
  5
9C
330
99
100
AcDbEntity
  8
1_ALL_DRAFT_DIMS
  6
Continuous
 62
     2
100
AcDbLine
 10
125.6101328780999
 20
85.5592871067
 30
0.0
 11
125.6101328780999
 21
127.6120750541
 31
0.0
  0
LINE
  5
9D
330
99
100
AcDbEntity
  8
1_ALL_DRAFT_DIMS
  6
Continuous
 62
     2
100
AcDbLine
 10
206.4323001009999
 20
126.6120750541
 30
0.0
 11
166.0212164895999
 21
126.6120750541
 31
0.0
  0
LINE
  5
9E
330
99
100
AcDbEntity
  8
1_ALL_DRAFT_DIMS
  6
Continuous
 62
     2
100
AcDbLine
 10
125.6101328780999
 20
126.6120750541
 30
0.0
 11
166.0212164895999
 21
126.6120750541
 31
0.0
  0
INSERT
  5
9F
330
99
100
AcDbEntity
  8
1_ALL_DRAFT_DIMS
  6
Continuous
 62
     2
100
AcDbBlockReference
  2
_OPEN
 10
206.4323001009999
 20
126.6120750541
 30
0.0
 41
2.0
 42
2.0
 43
2.0
  0
INSERT
  5
A0
330
99
100
AcDbEntity
  8
1_ALL_DRAFT_DIMS
  6
Continuous
 62
     2
100
AcDbBlockReference
  2
_OPEN
 10
125.6101328780999
 20
126.6120750541
 30
0.0
 41
2.0
 42
2.0
 43
2.0
 50
180.0
  0
ENDBLK
  5
A1
330
99
100
AcDbEntity
  8
0
  6
ByBlock
 62
     0
100
AcDbBlockEnd
  0
BLOCK
  5
A3
330
A2
100
AcDbEntity
  8
1_ALL_DRAFT_DIMS
  6
Continuous
 62
     2
100
AcDbBlockBegin
  2
*D4
 70
     1
 10
0.0
 20
0.0
 30
0.0
  3
*D4
  1

  0
LINE
  5
A4
330
A2
100
AcDbEntity
  8
1_ALL_DRAFT_DIMS
  6
Continuous
 62
     2
100
AcDbLine
 10
206.4323001009999
 20
91.7220687278
 30
0.0
 11
206.4323001009999
 21
127.6120750541
 31
0.0
  0
LINE
  5
A5
330
A2
100
AcDbEntity
  8
1_ALL_DRAFT_DIMS
  6
Continuous
 62
     2
100
AcDbLine
 10
236.4323001009998
 20
90.12271302149999
 30
0.0
 11
236.4323001009998
 21
127.6120750541
 31
0.0
  0
LINE
  5
A6
330
A2
100
AcDbEntity
  8
1_ALL_DRAFT_DIMS
  6
Continuous
 62
     2
100
AcDbLine
 10
206.4323001009999
 20
126.6120750541
 30
0.0
 11
221.4323001009999
 21
126.6120750541
 31
0.0
  0
LINE
  5
A7
330
A2
100
AcDbEntity
  8
1_ALL_DRAFT_DIMS
  6
Continuous
 62
     2
100
AcDbLine
 10
236.4323001009998
 20
126.6120750541
 30
0.0
 11
221.4323001009999
 21
126.6120750541
 31
0.0
  0
INSERT
  5
A8
330
A2
100
AcDbEntity
  8
1_ALL_DRAFT_DIMS
  6
Continuous
 62
     2
100
AcDbBlockReference
  2
_OPEN
 10
206.4323001009999
 20
126.6120750541
 30
0.0
 41
2.0
 42
2.0
 43
2.0
 50
180.0
  0
INSERT
  5
A9
330
A2
100
AcDbEntity
  8
1_ALL_DRAFT_DIMS
  6
Continuous
 62
     2
100
AcDbBlockReference
  2
_OPEN
 10
236.4323001009998
 20
126.6120750541
 30
0.0
 41
2.0
 42
2.0
 43
2.0
  0
ENDBLK
  5
AA
330
A2
100
AcDbEntity
  8
0
  6
ByBlock
 62
     0
100
AcDbBlockEnd
  0
BLOCK
  5
AC
330
AB
100
AcDbEntity
  8
1_ALL_DRAFT_DIMS
  6
Continuous
 62
     2
100
AcDbBlockBegin
  2
*D5
 70
     1
 10
0.0
 20
0.0
 30
0.0
  3
*D5
  1

  0
LINE
  5
AD
330
AB
100
AcDbEntity
  8
1_ALL_DRAFT_DIMS
  6
Continuous
 62
     2
100
AcDbLine
 10
206.4323001009999
 20
241.385396645
 30
0.0
 11
206.4323001009999
 21
270.5735097061
 31
0.0
  0
LINE
  5
AE
330
AB
100
AcDbEntity
  8
1_ALL_DRAFT_DIMS
  6
Continuous
 62
     2
100
AcDbLine
 10
125.6101328780999
 20
231.8341125344999
 30
0.0
 11
125.6101328780999
 21
270.5735097061
 31
0.0
  0
LINE
  5
AF
330
AB
100
AcDbEntity
  8
1_ALL_DRAFT_DIMS
  6
Continuous
 62
     2
100
AcDbLine
 10
206.4323001009999
 20
269.5735097061
 30
0.0
 11
166.0212164895999
 21
269.5735097061
 31
0.0
  0
LINE
  5
B0
330
AB
100
AcDbEntity
  8
1_ALL_DRAFT_DIMS
  6
Continuous
 62
     2
100
AcDbLine
 10
125.6101328780999
 20
269.5735097061
 30
0.0
 11
166.0212164895999
 21
269.5735097061
 31
0.0
  0
INSERT
  5
B1
330
AB
100
AcDbEntity
  8
1_ALL_DRAFT_DIMS
  6
Continuous
 62
     2
100
AcDbBlockReference
  2
_OPEN
 10
206.4323001009999
 20
269.5735097061
 30
0.0
 41
2.0
 42
2.0
 43
2.0
  0
INSERT
  5
B2
330
AB
100
AcDbEntity
  8
1_ALL_DRAFT_DIMS
  6
Continuous
 62
     2
100
AcDbBlockReference
  2
_OPEN
 10
125.6101328780999
 20
269.5735097061
 30
0.0
 41
2.0
 42
2.0
 43
2.0
 50
180.0
  0
ENDBLK
  5
B3
330
AB
100
AcDbEntity
  8
0
  6
ByBlock
 62
     0
100
AcDbBlockEnd
  0
BLOCK
  5
B5
330
B4
100
AcDbEntity
  8
1_ALL_DRAFT_DIMS
  6
Continuous
 62
     2
100
AcDbBlockBegin
  2
*D6
 70
     1
 10
0.0
 20
0.0
 30
0.0
  3
*D6
  1

  0
LINE
  5
B6
330
B4
100
AcDbEntity
  8
1_ALL_DRAFT_DIMS
  6
Continuous
 62
     2
100
AcDbLine
 10
125.6101328780999
 20
231.8341125344999
 30
0.0
 11
125.6101328780999
 21
275.5018408032
 31
0.0
  0
LINE
  5
B7
330
B4
100
AcDbEntity
  8
1_ALL_DRAFT_DIMS
  6
Continuous
 62
     2
100
AcDbLine
 10
305.2597484157999
 20
263.9064172611999
 30
0.0
 11
305.2597484157999
 21
275.5018408032
 31
0.0
  0
LINE
  5
B8
330
B4
100
AcDbEntity
  8
1_ALL_DRAFT_DIMS
  6
Continuous
 62
     2
100
AcDbLine
 10
125.6101328780999
 20
274.5018408032
 30
0.0
 11
215.434940647
 21
274.5018408032
 31
0.0
  0
LINE
  5
B9
330
B4
100
AcDbEntity
  8
1_ALL_DRAFT_DIMS
  6
Continuous
 62
     2
100
AcDbLine
 10
305.2597484157999
 20
274.5018408032
 30
0.0
 11
215.434940647
 21
274.5018408032
 31
0.0
  0
INSERT
  5
BA
330
B4
100
AcDbEntity
  8
1_ALL_DRAFT_DIMS
  6
Continuous
 62
     2
100
AcDbBlockReference
  2
_OPEN
 10
125.6101328780999
 20
274.5018408032
 30
0.0
 41
2.0
 42
2.0
 43
2.0
 50
180.0
  0
INSERT
  5
BB
330
B4
100
AcDbEntity
  8
1_ALL_DRAFT_DIMS
  6
Continuous
 62
     2
100
AcDbBlockReference
  2
_OPEN
 10
305.2597484157999
 20
274.5018408032
 30
0.0
 41
2.0
 42
2.0
 43
2.0
  0
ENDBLK
  5
BC
330
B4
100
AcDbEntity
  8
0
  6
ByBlock
 62
     0
100
AcDbBlockEnd
  0
BLOCK
  5
BE
330
BD
100
AcDbEntity
  8
1_ALL_DRAFT_DIMS
  6
Continuous
 62
     2
100
AcDbBlockBegin
  2
*D7
 70
     1
 10
0.0
 20
0.0
 30
0.0
  3
*D7
  1

  0
LINE
  5
BF
330
BD
100
AcDbEntity
  8
1_ALL_DRAFT_DIMS
  6
Continuous
 62
     2
100
AcDbLine
 10
102.7015438746998
 20
132.6559256349999
 30
0.0
 11
115.4156907116
 21
132.6559256349999
 31
0.0
  0
LINE
  5
C0
330
BD
100
AcDbEntity
  8
1_ALL_DRAFT_DIMS
  6
Continuous
 62
     2
100
AcDbLine
 10
102.7359700127
 20
180.6559256349999
 30
0.0
 11
115.4156907116
 21
180.6559256349999
 31
0.0
  0
LINE
  5
C1
330
BD
100
AcDbEntity
  8
1_ALL_DRAFT_DIMS
  6
Continuous
 62
     2
100
AcDbLine
 10
114.4156907116
 20
132.6559256349999
 30
0.0
 11
114.4156907116
 21
156.6559256349998
 31
0.0
  0
LINE
  5
C2
330
BD
100
AcDbEntity
  8
1_ALL_DRAFT_DIMS
  6
Continuous
 62
     2
100
AcDbLine
 10
114.4156907116
 20
180.6559256349999
 30
0.0
 11
114.4156907116
 21
156.6559256349998
 31
0.0
  0
INSERT
  5
C3
330
BD
100
AcDbEntity
  8
1_ALL_DRAFT_DIMS
  6
Continuous
 62
     2
100
AcDbBlockReference
  2
_OPEN
 10
114.4156907116
 20
132.6559256349999
 30
0.0
 41
2.0
 42
2.0
 43
2.0
 50
270.0
  0
INSERT
  5
C4
330
BD
100
AcDbEntity
  8
1_ALL_DRAFT_DIMS
  6
Continuous
 62
     2
100
AcDbBlockReference
  2
_OPEN
 10
114.4156907116
 20
180.6559256349999
 30
0.0
 41
2.0
 42
2.0
 43
2.0
 50
90.0
  0
ENDBLK
  5
C5
330
BD
100
AcDbEntity
  8
0
  6
ByBlock
 62
     0
100
AcDbBlockEnd
  0
BLOCK
  5
C7
330
C6
100
AcDbEntity
  8
3_ALL_SYMBOLS
  6
Continuous
 62
     2
100
AcDbBlockBegin
  2
K_GAIKEI_JISB0405V_BL0
 70
     0
 10
388.36506751
 20
64.172553822
 30
0.0
  3
K_GAIKEI_JISB0405V_BL0
  1

  0
LINE
  5
C8
330
C6
100
AcDbEntity
  8
3_ALL_SYMBOLS
  6
Continuous
 62
     2
100
AcDbLine
 10
374.8206994629
 20
76.84299865719999
 30
0.0
 11
375.383203125
 21
76.84299865719999
 31
0.0
  0
LWPOLYLINE
  5
C9
330
C6
100
AcDbEntity
  8
3_ALL_SYMBOLS
  6
Continuous
 62
     2
100
AcDbPolyline
 90
        4
 70
     0
 43
0.0
 10
375.1332128905999
 20
77.28050079350001
 10
375.1332128905999
 20
75.5304986572
 10
375.0707153319999
 20
75.4680010986
 10
374.8206994629
 20
75.5304986572
  0
LWPOLYLINE
  5
CF
330
C6
100
AcDbEntity
  8
3_ALL_SYMBOLS
  6
Continuous
 62
     2
100
AcDbPolyline
 90
        3
 70
     0
 43
0.0
 10
374.7582019043
 20
76.0929959106
 10
375.1332128905999
 20
76.3429989624
 10
375.383203125
 20
76.53049804689999
  0
LWPOLYLINE
  5
D4
330
C6
100
AcDbEntity
  8
3_ALL_SYMBOLS
  6
Continuous
 62
     2
100
AcDbPolyline
 90
        6
 70
     0
 43
0.0
 10
375.5706958008
 20
77.28050079350001
 10
375.5706958008
 20
76.5929956055
 10
375.6331933594
 20
76.53049804689999
 10
376.3832153319999
 20
76.53049804689999
 10
376.5082104491999
 20
76.5929956055
 10
376.5082104491999
 20
76.7805010986
  0
LINE
  5
DC
330
C6
100
AcDbEntity
  8
3_ALL_SYMBOLS
  6
Continuous
 62
     2
100
AcDbLine
 10
375.5706958008
 20
76.9680001831
 30
0.0
 11
376.4457128905998
 21
77.15549926760001
 31
0.0
  0
LWPOLYLINE
  5
DD
330
C6
100
AcDbEntity
  8
3_ALL_SYMBOLS
  6
Continuous
 62
     2
100
AcDbPolyline
 90
        5
 70
     0
 43
0.0
 10
375.5706958008
 20
76.2805014038
 10
375.5706958008
 20
75.5304986572
 10
376.4457128905998
 20
75.5304986572
 10
376.4457128905998
 20
76.2805014038
 10
375.5706958008
 20
76.2805014038
  0
LINE
  5
E4
330
C6
100
AcDbEntity
  8
3_ALL_SYMBOLS
  6
Continuous
 62
     2
100
AcDbLine
 10
375.5706958008
 20
75.90549682619998
 30
0.0
 11
376.4457128905998
 21
75.90549682619998
 31
0.0
  0
LWPOLYLINE
  5
E5
330
C6
100
AcDbEntity
  8
3_ALL_SYMBOLS
  6
Continuous
 62
     2
100
AcDbPolyline
 90
        6
 70
     0
 43
0.0
 10
376.8206982422
 20
76.71799713129998
 10
376.8206982422
 20
77.0929953003
 10
378.4457116698998
 20
77.0929953003
 10
378.5082092285
 20
77.0929953003
 10
378.5707067870998
 20
77.03049774170001
 10
378.5082092285
 20
76.71799713129998
  0
LINE
  5
ED
330
C6
100
AcDbEntity
  8
3_ALL_SYMBOLS
  6
Continuous
 62
     2
100
AcDbLine
 10
377.6957153319999
 20
77.0929953003
 30
0.0
 11
377.6957153319999
 21
77.28050079350001
 31
0.0
  0
LINE
  5
EE
330
C6
100
AcDbEntity
  8
3_ALL_SYMBOLS
  6
Continuous
 62
     2
100
AcDbLine
 10
377.0707141113
 20
76.71799713129998
 30
0.0
 11
378.3207165527
 21
76.71799713129998
 31
0.0
  0
LINE
  5
EF
330
C6
100
AcDbEntity
  8
3_ALL_SYMBOLS
  6
Continuous
 62
     2
100
AcDbLine
 10
377.6957153319999
 20
76.71799713129998
 30
0.0
 11
377.6957153319999
 21
75.5304986572
 31
0.0
  0
LINE
  5
F0
330
C6
100
AcDbEntity
  8
3_ALL_SYMBOLS
  6
Continuous
 62
     2
100
AcDbLine
 10
377.6957153319999
 20
76.1554998779
 30
0.0
 11
378.4457116698998
 21
76.1554998779
 31
0.0
  0
LWPOLYLINE
  5
F1
330
C6
100
AcDbEntity
  8
3_ALL_SYMBOLS
  6
Continuous
 62
     2
100
AcDbPolyline
 90
        4
 70
     0
 43
0.0
 10
377.1957092285
 20
76.405496521
 10
377.0707141113
 20
76.0304983521
 10
376.9456933594
 20
75.7179977417
 10
376.7582006836
 20
75.4680010986
  0
LWPOLYLINE
  5
F7
330
C6
100
AcDbEntity
  8
3_ALL_SYMBOLS
  6
Continuous
 62
     2
100
AcDbPolyline
 90
        5
 70
     0
 43
0.0
 10
377.0707141113
 20
76.0304983521
 10
377.2582067870998
 20
75.7804953003
 10
377.4456994628997
 20
75.5929962158
 10
377.6957153319999
 20
75.5304986572
 10
378.5707067870998
 20
75.4680010986
  0
LINE
  5
FE
330
C6
100
AcDbEntity
  8
3_ALL_SYMBOLS
  6
Continuous
 62
     2
100
AcDbLine
 10
378.9457177733999
 20
77.28050079350001
 30
0.0
 11
378.9457177733999
 21
75.7804953003
 31
0.0
  0
LINE
  5
FF
330
C6
100
AcDbEntity
  8
3_ALL_SYMBOLS
  6
Continuous
 62
     2
100
AcDbLine
 10
378.7581994628999
 20
75.5929962158
 30
0.0
 11
379.8207092285
 21
76.2179974365
 31
0.0
  0
LINE
  5
100
330
C6
100
AcDbEntity
  8
3_ALL_SYMBOLS
  6
Continuous
 62
     2
100
AcDbLine
 10
378.9457177733999
 20
75.7804953003
 30
0.0
 11
378.9457177733999
 21
75.7179977417
 31
0.0
  0
LINE
  5
101
330
C6
100
AcDbEntity
  8
3_ALL_SYMBOLS
  6
Continuous
 62
     2
100
AcDbLine
 10
379.2582055664
 20
77.21799682619998
 30
0.0
 11
379.8207092285
 21
76.53049804689999
 31
0.0
  0
LWPOLYLINE
  5
102
330
C6
100
AcDbEntity
  8
3_ALL_SYMBOLS
  6
Continuous
 62
     2
100
AcDbPolyline
 90
        7
 70
     0
 43
0.0
 10
379.1332104491999
 20
75.4680010986
 10
379.5706933594
 20
75.5929962158
 10
379.8832067870998
 20
75.7179977417
 10
380.0706994628999
 20
75.90549682619998
 10
380.1956945800997
 20
76.1554998779
 10
380.3207153319998
 20
76.5929956055
 10
380.3207153319998
 20
77.28050079350001
  0
LINE
  5
10B
330
C6
100
AcDbEntity
  8
3_ALL_SYMBOLS
  6
Continuous
 62
     2
100
AcDbLine
 10
380.1956945800997
 20
76.1554998779
 30
0.0
 11
380.5707055664
 21
75.4680010986
 31
0.0
  0
LWPOLYLINE
  5
10C
330
C6
100
AcDbEntity
  8
3_ALL_SYMBOLS
  6
Continuous
 62
     2
100
AcDbPolyline
 90
        9
 70
     0
 43
0.0
 10
380.7581982422
 20
76.3429989624
 10
381.0707116698998
 20
77.03049774170001
 10
381.0707116698998
 20
77.28050079350001
 10
381.6332153319999
 20
77.28050079350001
 10
381.7582104491999
 20
77.15549926760001
 10
381.6957128905999
 20
76.71799713129998
 10
381.4456970215
 20
76.2179974365
 10
381.1332092284999
 20
75.7804953003
 10
380.7581982422
 20
75.4680010986
  0
LINE
  5
117
330
C6
100
AcDbEntity
  8
3_ALL_SYMBOLS
  6
Continuous
 62
     2
100
AcDbLine
 10
380.9457165527
 20
76.65549957279998
 30
0.0
 11
381.5081945800999
 21
76.3429989624
 31
0.0
  0
LINE
  5
118
330
C6
100
AcDbEntity
  8
3_ALL_SYMBOLS
  6
Continuous
 62
     2
100
AcDbLine
 10
382.0706982422
 20
77.28050079350001
 30
0.0
 11
382.0706982422
 21
75.4680010986
 31
0.0
  0
LINE
  5
119
330
C6
100
AcDbEntity
  8
3_ALL_SYMBOLS
  6
Continuous
 62
     2
100
AcDbLine
 10
382.0706982422
 20
76.53049804689999
 30
0.0
 11
382.5707043457
 21
76.2805014038
 31
0.0
  0
LWPOLYLINE
  5
11A
330
C6
100
AcDbEntity
  8
3_ALL_SYMBOLS
  6
Continuous
 62
     2
100
AcDbPolyline
 90
       23
 70
     0
 43
0.0
 10
383.7582092285
 20
77.0929953003
 10
383.6957116699
 20
76.53049804689999
 10
383.5707165526999
 20
75.96800079350001
 10
383.4456958008
 20
75.6555001831
 10
383.3207006836
 20
75.5304986572
 10
383.1957055664
 20
75.5304986572
 10
383.0082128905999
 20
75.6555001831
 10
382.9457153319999
 20
75.90549682619998
 10
382.8832177733999
 20
76.1554998779
 10
382.8832177733999
 20
76.46800048829998
 10
383.0082128905999
 20
76.84299865719999
 10
383.3207006836
 20
77.0929953003
 10
383.7582092285
 20
77.0929953003
 10
384.0706970214997
 20
77.03049774170001
 10
384.3207128905999
 20
76.9054962158
 10
384.5082055664
 20
76.65549957279998
 10
384.570703125
 20
76.405496521
 10
384.570703125
 20
76.0929959106
 10
384.5082055664
 20
75.90549682619998
 10
384.3832104491998
 20
75.7179977417
 10
384.1957177733999
 20
75.5929962158
 10
384.0081994629
 20
75.5304986572
 10
383.7582092285
 20
75.4680010986
  0
LINE
  5
133
330
C6
100
AcDbEntity
  8
3_ALL_SYMBOLS
  6
Continuous
 62
     2
100
AcDbLine
 10
384.7581958008
 20
76.84299865719999
 30
0.0
 11
386.5082043456998
 21
76.84299865719999
 31
0.0
  0
LWPOLYLINE
  5
134
330
C6
100
AcDbEntity
  8
3_ALL_SYMBOLS
  6
Continuous
 62
     2
100
AcDbPolyline
 90
        4
 70
     0
 43
0.0
 10
386.0706958008
 20
77.21799682619998
 10
386.0706958008
 20
75.5929962158
 10
385.9457006836
 20
75.4680010986
 10
385.3831970214999
 20
75.5929962158
  0
LINE
  5
13A
330
C6
100
AcDbEntity
  8
3_ALL_SYMBOLS
  6
Continuous
 62
     2
100
AcDbLine
 10
385.1957043456998
 20
76.53049804689999
 30
0.0
 11
385.5707153319999
 21
76.0304983521
 31
0.0
  0
LINE
  5
13B
330
C6
100
AcDbEntity
  8
3_ALL_SYMBOLS
  6
Continuous
 62
     2
100
AcDbLine
 10
386.8832153319999
 20
77.21799682619998
 30
0.0
 11
387.195703125
 21
76.9054962158
 31
0.0
  0
LINE
  5
13C
330
C6
100
AcDbEntity
  8
3_ALL_SYMBOLS
  6
Continuous
 62
     2
100
AcDbLine
 10
386.7581945801
 20
76.7805010986
 30
0.0
 11
387.0707080077999
 21
76.46800048829998
 31
0.0
  0
LWPOLYLINE
  5
13D
330
C6
100
AcDbEntity
  8
3_ALL_SYMBOLS
  6
Continuous
 62
     2
100
AcDbPolyline
 90
        3
 70
     0
 43
0.0
 10
386.7581945801
 20
75.5304986572
 10
387.0082104491999
 20
75.8429992676
 10
387.195703125
 20
76.2179974365
  0
LWPOLYLINE
  5
142
330
C6
100
AcDbEntity
  8
3_ALL_SYMBOLS
  6
Continuous
 62
     2
100
AcDbPolyline
 90
        3
 70
     0
 43
0.0
 10
387.3831958008
 20
76.9680001831
 10
388.4457055664
 20
76.9680001831
 10
388.508203125
 20
76.9680001831
  0
LINE
  5
147
330
C6
100
AcDbEntity
  8
3_ALL_SYMBOLS
  6
Continuous
 62
     2
100
AcDbLine
 10
387.9456994628997
 20
77.28050079350001
 30
0.0
 11
387.9456994628997
 21
76.405496521
 31
0.0
  0
LINE
  5
148
330
C6
100
AcDbEntity
  8
3_ALL_SYMBOLS
  6
Continuous
 62
     2
100
AcDbLine
 10
387.3206982422
 20
76.405496521
 30
0.0
 11
388.5707006836
 21
76.405496521
 31
0.0
  0
LINE
  5
149
330
C6
100
AcDbEntity
  8
3_ALL_SYMBOLS
  6
Continuous
 62
     2
100
AcDbLine
 10
387.9456994628997
 20
76.405496521
 30
0.0
 11
387.5082165527
 21
75.5304986572
 31
0.0
  0
LINE
  5
14A
330
C6
100
AcDbEntity
  8
3_ALL_SYMBOLS
  6
Continuous
 62
     2
100
AcDbLine
 10
387.3206982422
 20
75.4680010986
 30
0.0
 11
388.4457055664
 21
75.7179977417
 31
0.0
  0
LINE
  5
14B
330
C6
100
AcDbEntity
  8
3_ALL_SYMBOLS
  6
Continuous
 62
     2
100
AcDbLine
 10
388.1957153319999
 20
76.0929959106
 30
0.0
 11
388.5707006836
 21
75.4680010986
 31
0.0
  0
LWPOLYLINE
  5
14C
330
C6
100
AcDbEntity
  8
3_ALL_SYMBOLS
  6
Continuous
 62
     2
100
AcDbPolyline
 90
        3
 70
     0
 43
0.0
 10
388.9457116698999
 20
77.28050079350001
 10
388.8832141112998
 20
76.2805014038
 10
388.9457116698999
 20
75.4680010986
  0
LWPOLYLINE
  5
151
330
C6
100
AcDbEntity
  8
3_ALL_SYMBOLS
  6
Continuous
 62
     2
100
AcDbPolyline
 90
        4
 70
     0
 43
0.0
 10
389.2581994628999
 20
77.03049774170001
 10
389.8832006836
 20
77.03049774170001
 10
390.3207092285
 20
76.9680001831
 10
389.9456982422
 20
76.5929956055
  0
LWPOLYLINE
  5
157
330
C6
100
AcDbEntity
  8
3_ALL_SYMBOLS
  6
Continuous
 62
     2
100
AcDbPolyline
 90
        8
 70
     0
 43
0.0
 10
389.3831945801
 20
76.1554998779
 10
389.2581994628999
 20
75.96800079350001
 10
389.1957019043
 20
75.8429992676
 10
389.1957019043
 20
75.7179977417
 10
389.2581994628999
 20
75.6555001831
 10
389.6957080077999
 20
75.5929962158
 10
390.1332165527
 20
75.5929962158
 10
390.5082019043
 20
75.6555001831
  0
LWPOLYLINE
  5
161
330
C6
100
AcDbEntity
  8
3_ALL_SYMBOLS
  6
Continuous
 62
     2
100
AcDbPolyline
 90
        3
 70
     0
 43
0.0
 10
390.8207153319999
 20
76.9680001831
 10
391.6332092285
 20
76.9680001831
 10
391.6957067870998
 20
76.9680001831
  0
LINE
  5
166
330
C6
100
AcDbEntity
  8
3_ALL_SYMBOLS
  6
Continuous
 62
     2
100
AcDbLine
 10
391.2581982422
 20
76.9680001831
 30
0.0
 11
391.2581982422
 21
77.28050079350001
 31
0.0
  0
LWPOLYLINE
  5
167
330
C6
100
AcDbEntity
  8
3_ALL_SYMBOLS
  6
Continuous
 62
     2
100
AcDbPolyline
 90
        5
 70
     0
 43
0.0
 10
391.5082141112998
 20
76.9680001831
 10
391.3831933594
 20
76.53049804689999
 10
391.2581982422
 20
76.1554998779
 10
391.0707055664
 20
75.8429992676
 10
390.7582177733999
 20
75.4680010986
  0
LINE
  5
16E
330
C6
100
AcDbEntity
  8
3_ALL_SYMBOLS
  6
Continuous
 62
     2
100
AcDbLine
 10
390.8832128905999
 20
76.7805010986
 30
0.0
 11
391.5707116699
 21
75.6555001831
 31
0.0
  0
LINE
  5
16F
330
C6
100
AcDbEntity
  8
3_ALL_SYMBOLS
  6
Continuous
 62
     2
100
AcDbLine
 10
391.7582043457
 20
76.84299865719999
 30
0.0
 11
392.5706982422
 21
76.84299865719999
 31
0.0
  0
LWPOLYLINE
  5
170
330
C6
100
AcDbEntity
  8
3_ALL_SYMBOLS
  6
Continuous
 62
     2
100
AcDbPolyline
 90
        5
 70
     0
 43
0.0
 10
392.3207080077999
 20
77.28050079350001
 10
392.3207080077999
 20
75.5304986572
 10
392.2582104491999
 20
75.4680010986
 10
392.1957128905999
 20
75.4680010986
 10
391.8207019042998
 20
75.5929962158
  0
LINE
  5
177
330
C6
100
AcDbEntity
  8
3_ALL_SYMBOLS
  6
Continuous
 62
     2
100
AcDbLine
 10
391.7582043457
 20
76.5929956055
 30
0.0
 11
392.0707177733999
 21
75.96800079350001
 31
0.0
  0
LINE
  5
178
330
C6
100
AcDbEntity
  8
3_ALL_SYMBOLS
  6
Continuous
 62
     2
100
AcDbLine
 10
392.8207141112999
 20
76.9680001831
 30
0.0
 11
394.5706970214999
 21
76.9680001831
 31
0.0
  0
LWPOLYLINE
  5
179
330
C6
100
AcDbEntity
  8
3_ALL_SYMBOLS
  6
Continuous
 62
     2
100
AcDbPolyline
 90
       17
 70
     0
 43
0.0
 10
394.1332141112998
 20
77.28050079350001
 10
394.1332141112998
 20
76.2179974365
 10
394.0707165526998
 20
76.0929959106
 10
393.9456958008
 20
75.96800079350001
 10
393.6957055664
 20
75.90549682619998
 10
393.4457153319998
 20
75.90549682619998
 10
393.2581970215
 20
75.96800079350001
 10
393.1332019042998
 20
76.0929959106
 10
393.0707043457
 20
76.2179974365
 10
393.0707043457
 20
76.3429989624
 10
393.1332019042998
 20
76.53049804689999
 10
393.2581970215
 20
76.65549957279998
 10
393.4457153319998
 20
76.71799713129998
 10
393.758203125
 20
76.71799713129998
 10
393.9456958008
 20
76.65549957279998
 10
394.0707165526998
 20
76.53049804689999
 10
394.1332141112998
 20
76.405496521
  0
LWPOLYLINE
  5
18C
330
C6
100
AcDbEntity
  8
3_ALL_SYMBOLS
  6
Continuous
 62
     2
100
AcDbPolyline
 90
        6
 70
     0
 43
0.0
 10
394.1332141112998
 20
76.2179974365
 10
394.1332141112998
 20
75.96800079350001
 10
394.0707165526998
 20
75.7804953003
 10
393.9456958008
 20
75.6555001831
 10
393.758203125
 20
75.5304986572
 10
393.3832177733999
 20
75.4680010986
  0
LWPOLYLINE
  5
194
330
C6
100
AcDbEntity
  8
3_ALL_SYMBOLS
  6
Continuous
 62
     2
100
AcDbPolyline
 90
       25
 70
     0
 43
0.0
 10
395.070703125
 20
77.0929953003
 10
396.1957104491999
 20
77.0929953003
 10
394.8832104491998
 20
76.1554998779
 10
395.5707092284999
 20
76.53049804689999
 10
395.9456945800997
 20
76.5929956055
 10
396.2582080077999
 20
76.5929956055
 10
396.4457006836
 20
76.53049804689999
 10
396.5706958008
 20
76.3429989624
 10
396.5706958008
 20
76.1554998779
 10
396.5706958008
 20
76.0929959106
 10
396.5081982422
 20
75.96800079350001
 10
396.383203125
 20
75.7804953003
 10
396.1957104491999
 20
75.6555001831
 10
395.9456945800997
 20
75.5929962158
 10
395.6332067871
 20
75.5929962158
 10
395.3832165526998
 20
75.6555001831
 10
395.1956982422
 20
75.7804953003
 10
395.1332006836
 20
75.8429992676
 10
395.1332006836
 20
75.90549682619998
 10
395.1956982422
 20
75.96800079350001
 10
395.3206933594
 20
76.0304983521
 10
395.5082116699
 20
76.0304983521
 10
395.6957043456998
 20
75.96800079350001
 10
395.8206994629
 20
75.8429992676
 10
395.9456945800997
 20
75.5929962158
  0
LINE
  5
1AF
330
C6
100
AcDbEntity
  8
3_ALL_SYMBOLS
  6
Continuous
 62
     2
100
AcDbLine
 10
396.7582141113
 20
76.84299865719999
 30
0.0
 11
398.5081970214999
 21
76.84299865719999
 31
0.0
  0
LWPOLYLINE
  5
1B0
330
C6
100
AcDbEntity
  8
3_ALL_SYMBOLS
  6
Continuous
 62
     2
100
AcDbPolyline
 90
        4
 70
     0
 43
0.0
 10
398.0707141113
 20
77.21799682619998
 10
398.0707141113
 20
75.5929962158
 10
397.9456933594
 20
75.4680010986
 10
397.3832153319999
 20
75.5929962158
  0
LINE
  5
1B6
330
C6
100
AcDbEntity
  8
3_ALL_SYMBOLS
  6
Continuous
 62
     2
100
AcDbLine
 10
397.1956970215
 20
76.53049804689999
 30
0.0
 11
397.5707080077999
 21
76.0304983521
 31
0.0
  0
LINE
  5
1B7
330
C6
100
AcDbEntity
  8
3_ALL_SYMBOLS
  6
Continuous
 62
     2
100
AcDbLine
 10
398.8832080077999
 20
77.21799682619998
 30
0.0
 11
399.1956958008
 21
76.9054962158
 31
0.0
  0
LINE
  5
1B8
330
C6
100
AcDbEntity
  8
3_ALL_SYMBOLS
  6
Continuous
 62
     2
100
AcDbLine
 10
398.7582128905998
 20
76.7805010986
 30
0.0
 11
399.0707006836
 21
76.46800048829998
 31
0.0
  0
LWPOLYLINE
  5
1B9
330
C6
100
AcDbEntity
  8
3_ALL_SYMBOLS
  6
Continuous
 62
     2
100
AcDbPolyline
 90
        3
 70
     0
 43
0.0
 10
398.7582128905998
 20
75.5304986572
 10
399.008203125
 20
75.8429992676
 10
399.1956958008
 20
76.2179974365
  0
LWPOLYLINE
  5
1BE
330
C6
100
AcDbEntity
  8
3_ALL_SYMBOLS
  6
Continuous
 62
     2
100
AcDbPolyline
 90
        3
 70
     0
 43
0.0
 10
399.3832141113
 20
76.9680001831
 10
400.4456982421998
 20
76.9680001831
 10
400.5081958008
 20
76.9680001831
  0
LINE
  5
1C3
330
C6
100
AcDbEntity
  8
3_ALL_SYMBOLS
  6
Continuous
 62
     2
100
AcDbLine
 10
399.9457177733999
 20
77.28050079350001
 30
0.0
 11
399.9457177733999
 21
76.405496521
 31
0.0
  0
LINE
  5
1C4
330
C6
100
AcDbEntity
  8
3_ALL_SYMBOLS
  6
Continuous
 62
     2
100
AcDbLine
 10
399.3207165527
 20
76.405496521
 30
0.0
 11
400.5706933594
 21
76.405496521
 31
0.0
  0
LINE
  5
1C5
330
C6
100
AcDbEntity
  8
3_ALL_SYMBOLS
  6
Continuous
 62
     2
100
AcDbLine
 10
399.9457177733999
 20
76.405496521
 30
0.0
 11
399.5082092285
 21
75.5304986572
 31
0.0
  0
LINE
  5
1C6
330
C6
100
AcDbEntity
  8
3_ALL_SYMBOLS
  6
Continuous
 62
     2
100
AcDbLine
 10
399.3207165527
 20
75.4680010986
 30
0.0
 11
400.4456982421998
 21
75.7179977417
 31
0.0
  0
LINE
  5
1C7
330
C6
100
AcDbEntity
  8
3_ALL_SYMBOLS
  6
Continuous
 62
     2
100
AcDbLine
 10
400.1957080077999
 20
76.0929959106
 30
0.0
 11
400.5706933594
 21
75.4680010986
 31
0.0
  0
LINE
  5
1C8
330
C6
100
AcDbEntity
  8
3_ALL_SYMBOLS
  6
Continuous
 62
     2
100
AcDbLine
 10
400.9457043457
 20
76.65549957279998
 30
0.0
 11
402.3831994628999
 21
76.65549957279998
 31
0.0
  0
LINE
  5
1C9
330
C6
100
AcDbEntity
  8
3_ALL_SYMBOLS
  6
Continuous
 62
     2
100
AcDbLine
 10
400.8207092284999
 20
76.3429989624
 30
0.0
 11
402.5081945801
 21
76.3429989624
 31
0.0
  0
LINE
  5
1CA
330
C6
100
AcDbEntity
  8
3_ALL_SYMBOLS
  6
Continuous
 62
     2
100
AcDbLine
 10
401.6957006835998
 20
76.9680001831
 30
0.0
 11
401.6957006835998
 21
76.3429989624
 31
0.0
  0
LINE
  5
1CB
330
C6
100
AcDbEntity
  8
3_ALL_SYMBOLS
  6
Continuous
 62
     2
100
AcDbLine
 10
402.1957067870998
 20
77.28050079350001
 30
0.0
 11
402.0082141112998
 21
76.9680001831
 31
0.0
  0
LINE
  5
1CC
330
C6
100
AcDbEntity
  8
3_ALL_SYMBOLS
  6
Continuous
 62
     2
100
AcDbLine
 10
401.3832128905999
 20
76.9680001831
 30
0.0
 11
401.1956945800998
 21
77.28050079350001
 31
0.0
  0
LINE
  5
1CD
330
C6
100
AcDbEntity
  8
3_ALL_SYMBOLS
  6
Continuous
 62
     2
100
AcDbLine
 10
400.8832067871
 20
76.9680001831
 30
0.0
 11
402.4456970214997
 21
76.9680001831
 31
0.0
  0
LINE
  5
1CE
330
C6
100
AcDbEntity
  8
3_ALL_SYMBOLS
  6
Continuous
 62
     2
100
AcDbLine
 10
401.3832128905999
 20
76.3429989624
 30
0.0
 11
400.7582116698999
 21
75.4680010986
 31
0.0
  0
LINE
  5
1CF
330
C6
100
AcDbEntity
  8
3_ALL_SYMBOLS
  6
Continuous
 62
     2
100
AcDbLine
 10
401.4457104492
 20
76.0929959106
 30
0.0
 11
402.4456970214997
 21
76.0929959106
 31
0.0
  0
LINE
  5
1D0
330
C6
100
AcDbEntity
  8
3_ALL_SYMBOLS
  6
Continuous
 62
     2
100
AcDbLine
 10
401.9457165527
 20
76.0929959106
 30
0.0
 11
401.9457165527
 21
75.5304986572
 31
0.0
  0
LINE
  5
1D1
330
C6
100
AcDbEntity
  8
3_ALL_SYMBOLS
  6
Continuous
 62
     2
100
AcDbLine
 10
401.1956945800998
 20
75.5304986572
 30
0.0
 11
402.5707177733996
 21
75.5304986572
 31
0.0
  0
LWPOLYLINE
  5
1D2
330
C6
100
AcDbEntity
  8
3_ALL_SYMBOLS
  6
Continuous
 62
     2
100
AcDbPolyline
 90
       10
 70
     0
 43
0.0
 10
372.8831982422
 20
74.2804962158
 10
372.6957055664
 20
74.15550109859998
 10
372.5707104491998
 20
74.0304995728
 10
372.4457153319999
 20
73.84300048829998
 10
372.3832177733999
 20
73.5304998779
 10
372.3832177733999
 20
73.2179992676
 10
372.4457153319999
 20
72.9054986572
 10
372.5707104491998
 20
72.71799957279998
 10
372.6957055664
 20
72.59299804689999
 10
372.8831982422
 20
72.467996521
  0
LWPOLYLINE
  5
1DE
330
C6
100
AcDbEntity
  8
3_ALL_SYMBOLS
  6
Continuous
 62
     2
100
AcDbPolyline
 90
       11
 70
     0
 43
0.0
 10
375.1957104491999
 20
74.2804962158
 10
375.1957104491999
 20
73.0305001831
 10
375.1332128905999
 20
72.78049713129998
 10
375.0707153319999
 20
72.65549560550001
 10
374.9456945801
 20
72.53050048829995
 10
374.8206994629
 20
72.467996521
 10
374.5082116698998
 20
72.467996521
 10
374.3206933594
 20
72.53050048829995
 10
374.1956982422
 20
72.65549560550001
 10
374.1332006836
 20
72.78049713129998
 10
374.070703125
 20
72.96799621579999
  0
LINE
  5
1EB
330
C6
100
AcDbEntity
  8
3_ALL_SYMBOLS
  6
Continuous
 62
     2
100
AcDbLine
 10
376.695703125
 20
74.2804962158
 30
0.0
 11
376.695703125
 21
72.467996521
 31
0.0
  0
LINE
  5
1EC
330
C6
100
AcDbEntity
  8
3_ALL_SYMBOLS
  6
Continuous
 62
     2
100
AcDbLine
 10
376.5082104491999
 20
72.467996521
 30
0.0
 11
376.8831958008
 21
72.467996521
 31
0.0
  0
LINE
  5
1ED
330
C6
100
AcDbEntity
  8
3_ALL_SYMBOLS
  6
Continuous
 62
     2
100
AcDbLine
 10
376.5082104491999
 20
74.2804962158
 30
0.0
 11
376.8831958008
 21
74.2804962158
 31
0.0
  0
LWPOLYLINE
  5
1EE
330
C6
100
AcDbEntity
  8
3_ALL_SYMBOLS
  6
Continuous
 62
     2
100
AcDbPolyline
 90
       22
 70
     0
 43
0.0
 10
379.3832006836
 20
73.9054980469
 10
379.2582055664
 20
74.0929971313
 10
379.0707128905999
 20
74.2179986572
 10
378.8206970215
 20
74.2804962158
 10
378.5082092285
 20
74.2804962158
 10
378.1956958008
 20
74.2179986572
 10
378.0707006836
 20
74.0929971313
 10
378.008203125
 20
73.9054980469
 10
378.008203125
 20
73.7179989624
 10
378.1956958008
 20
73.5304998779
 10
378.3832141112998
 20
73.46799591060001
 10
378.9457177733999
 20
73.34300079350001
 10
379.2582055664
 20
73.2179992676
 10
379.3832006836
 20
73.0305001831
 10
379.3832006836
 20
72.78049713129998
 10
379.320703125
 20
72.65549560550001
 10
379.1957080077999
 20
72.53050048829995
 10
378.8831945801
 20
72.467996521
 10
378.5707067870998
 20
72.467996521
 10
378.2581933594
 20
72.53050048829995
 10
378.0707006836
 20
72.65549560550001
 10
377.9457055664
 20
72.8430010986
  0
LWPOLYLINE
  5
206
330
C6
100
AcDbEntity
  8
3_ALL_SYMBOLS
  6
Continuous
 62
     2
100
AcDbPolyline
 90
       11
 70
     0
 43
0.0
 10
382.0706982422
 20
74.2804962158
 10
382.0706982422
 20
72.53050048829995
 10
383.0707104491999
 20
72.53050048829995
 10
383.258203125
 20
72.59299804689999
 10
383.3831982422
 20
72.71799957279998
 10
383.4456958008
 20
72.9054986572
 10
383.4456958008
 20
73.0305001831
 10
383.3831982422
 20
73.2179992676
 10
383.258203125
 20
73.34300079350001
 10
383.0707104491999
 20
73.4054983521
 10
382.0706982422
 20
73.4054983521
  0
LWPOLYLINE
  5
213
330
C6
100
AcDbEntity
  8
3_ALL_SYMBOLS
  6
Continuous
 62
     2
100
AcDbPolyline
 90
        9
 70
     0
 43
0.0
 10
382.0706982422
 20
74.2804962158
 10
383.0707104491999
 20
74.2804962158
 10
383.258203125
 20
74.2179986572
 10
383.3831982422
 20
74.0929971313
 10
383.4456958008
 20
73.9054980469
 10
383.4456958008
 20
73.780496521
 10
383.3831982422
 20
73.5929974365
 10
383.258203125
 20
73.46799591060001
 10
383.0707104491999
 20
73.4054983521
  0
LWPOLYLINE
  5
21E
330
C6
100
AcDbEntity
  8
3_ALL_SYMBOLS
  6
Continuous
 62
     2
100
AcDbPolyline
 90
       25
 70
     0
 43
0.0
 10
386.7581945801
 20
74.2804962158
 10
386.5707019043
 20
74.2804962158
 10
386.3832092284999
 20
74.2179986572
 10
386.2582141113
 20
74.15550109859998
 10
386.1331933594
 20
74.0304995728
 10
386.0081982422
 20
73.84300048829998
 10
385.9457006836
 20
73.5304998779
 10
385.9457006836
 20
73.2179992676
 10
386.0081982422
 20
72.9054986572
 10
386.1331933594
 20
72.71799957279998
 10
386.2582141113
 20
72.59299804689999
 10
386.3832092284999
 20
72.53050048829995
 10
386.5707019043
 20
72.467996521
 10
386.7581945801
 20
72.467996521
 10
386.9457128905999
 20
72.53050048829995
 10
387.0707080077999
 20
72.59299804689999
 10
387.195703125
 20
72.71799957279998
 10
387.3206982422
 20
72.9054986572
 10
387.3831958008
 20
73.2179992676
 10
387.3831958008
 20
73.5304998779
 10
387.3206982422
 20
73.84300048829998
 10
387.195703125
 20
74.0304995728
 10
387.0707080077999
 20
74.15550109859998
 10
386.9457128905999
 20
74.2179986572
 10
386.7581945801
 20
74.2804962158
  0
LWPOLYLINE
  5
239
330
C6
100
AcDbEntity
  8
3_ALL_SYMBOLS
  6
Continuous
 62
     2
100
AcDbPolyline
 90
        4
 70
     0
 43
0.0
 10
389.0707067870998
 20
72.467996521
 10
389.0707067870998
 20
74.2804962158
 10
387.8832019043
 20
72.9054986572
 10
389.3831945801
 20
72.9054986572
  0
LWPOLYLINE
  5
23F
330
C6
100
AcDbEntity
  8
3_ALL_SYMBOLS
  6
Continuous
 62
     2
100
AcDbPolyline
 90
       25
 70
     0
 43
0.0
 10
390.7582177733999
 20
74.2804962158
 10
390.5706994628999
 20
74.2804962158
 10
390.3832067870998
 20
74.2179986572
 10
390.2582116698998
 20
74.15550109859998
 10
390.1332165527
 20
74.0304995728
 10
390.0081958008
 20
73.84300048829998
 10
389.9456982422
 20
73.5304998779
 10
389.9456982422
 20
73.2179992676
 10
390.0081958008
 20
72.9054986572
 10
390.1332165527
 20
72.71799957279998
 10
390.2582116698998
 20
72.59299804689999
 10
390.3832067870998
 20
72.53050048829995
 10
390.5706994628999
 20
72.467996521
 10
390.7582177733999
 20
72.467996521
 10
390.9457104491999
 20
72.53050048829995
 10
391.0707055664
 20
72.59299804689999
 10
391.1957006836
 20
72.71799957279998
 10
391.3206958008
 20
72.9054986572
 10
391.3831933594
 20
73.2179992676
 10
391.3831933594
 20
73.5304998779
 10
391.3206958008
 20
73.84300048829998
 10
391.1957006836
 20
74.0304995728
 10
391.0707055664
 20
74.15550109859998
 10
390.9457104491999
 20
74.2179986572
 10
390.7582177733999
 20
74.2804962158
  0
LINE
  5
25A
330
C6
100
AcDbEntity
  8
3_ALL_SYMBOLS
  6
Continuous
 62
     2
100
AcDbLine
 10
391.9456970215
 20
74.2804962158
 30
0.0
 11
393.3832177733999
 21
74.2804962158
 31
0.0
  0
LWPOLYLINE
  5
25B
330
C6
100
AcDbEntity
  8
3_ALL_SYMBOLS
  6
Continuous
 62
     2
100
AcDbPolyline
 90
       19
 70
     0
 43
0.0
 10
391.9456970215
 20
74.2804962158
 10
391.9456970215
 20
73.4054983521
 10
392.1332153319998
 20
73.5304998779
 10
392.2582104491999
 20
73.5929974365
 10
392.5082006836
 20
73.6555014038
 10
392.7582165526998
 20
73.6555014038
 10
393.0082067871
 20
73.5929974365
 10
393.1956994629
 20
73.46799591060001
 10
393.3206945801
 20
73.34300079350001
 10
393.3832177733999
 20
73.2179992676
 10
393.3832177733999
 20
72.96799621579999
 10
393.3206945801
 20
72.78049713129998
 10
393.1956994629
 20
72.65549560550001
 10
393.0082067871
 20
72.53050048829995
 10
392.7582165526998
 20
72.467996521
 10
392.5082006836
 20
72.467996521
 10
392.3207080077999
 20
72.53050048829995
 10
392.0707177733999
 20
72.65549560550001
 10
391.9456970215
 20
72.78049713129998
  0
LWPOLYLINE
  5
270
330
C6
100
AcDbEntity
  8
3_ALL_SYMBOLS
  6
Continuous
 62
     2
100
AcDbPolyline
 90
        3
 70
     0
 43
0.0
 10
395.9456945800997
 20
74.2804962158
 10
396.6331933594
 20
72.467996521
 10
397.3832153319999
 20
74.2804962158
  0
LINE
  5
275
330
C6
100
AcDbEntity
  8
3_ALL_SYMBOLS
  6
Continuous
 62
     2
100
AcDbLine
 10
398.1332116698999
 20
74.2804962158
 30
0.0
 11
397.9456933594
 21
73.9054980469
 31
0.0
  0
LINE
  5
276
330
C6
100
AcDbEntity
  8
3_ALL_SYMBOLS
  6
Continuous
 62
     2
100
AcDbLine
 10
397.8206982422
 20
74.0304995728
 30
0.0
 11
398.0707141113
 21
73.6555014038
 31
0.0
  0
LINE
  5
277
330
C6
100
AcDbEntity
  8
3_ALL_SYMBOLS
  6
Continuous
 62
     2
100
AcDbLine
 10
398.3832019043
 20
74.0929971313
 30
0.0
 11
397.8831958008
 21
73.34300079350001
 31
0.0
  0
LINE
  5
278
330
C6
100
AcDbEntity
  8
3_ALL_SYMBOLS
  6
Continuous
 62
     2
100
AcDbLine
 10
397.7582006836
 20
73.34300079350001
 30
0.0
 11
398.3207043456998
 21
73.4054983521
 31
0.0
  0
LINE
  5
279
330
C6
100
AcDbEntity
  8
3_ALL_SYMBOLS
  6
Continuous
 62
     2
100
AcDbLine
 10
398.3207043456998
 20
73.5929974365
 30
0.0
 11
398.4456994628999
 21
73.28049682619997
 31
0.0
  0
LINE
  5
27A
330
C6
100
AcDbEntity
  8
3_ALL_SYMBOLS
  6
Continuous
 62
     2
100
AcDbLine
 10
398.3207043456998
 20
73.4054983521
 30
0.0
 11
398.3832019043
 21
73.4054983521
 31
0.0
  0
LINE
  5
27B
330
C6
100
AcDbEntity
  8
3_ALL_SYMBOLS
  6
Continuous
 62
     2
100
AcDbLine
 10
398.1332116698999
 20
73.34300079350001
 30
0.0
 11
398.1332116698999
 21
72.467996521
 31
0.0
  0
LINE
  5
27C
330
C6
100
AcDbEntity
  8
3_ALL_SYMBOLS
  6
Continuous
 62
     2
100
AcDbLine
 10
397.7582006836
 20
72.53050048829995
 30
0.0
 11
397.9456933594
 21
73.15549530030001
 31
0.0
  0
LINE
  5
27D
330
C6
100
AcDbEntity
  8
3_ALL_SYMBOLS
  6
Continuous
 62
     2
100
AcDbLine
 10
398.3207043456998
 20
73.2179992676
 30
0.0
 11
398.3832019043
 21
72.9054986572
 31
0.0
  0
LWPOLYLINE
  5
27E
330
C6
100
AcDbEntity
  8
3_ALL_SYMBOLS
  6
Continuous
 62
     2
100
AcDbPolyline
 90
        5
 70
     0
 43
0.0
 10
398.2582067871
 20
72.53050048829995
 10
398.5081970214999
 20
72.9054986572
 10
398.6957153319999
 20
73.28049682619997
 10
398.8207104491999
 20
73.780496521
 10
398.8207104491999
 20
74.2179986572
  0
LWPOLYLINE
  5
285
330
C6
100
AcDbEntity
  8
3_ALL_SYMBOLS
  6
Continuous
 62
     2
100
AcDbPolyline
 90
        9
 70
     0
 43
0.0
 10
398.5081970214999
 20
74.2179986572
 10
399.3207165527
 20
74.2179986572
 10
399.1956958008
 20
73.7179989624
 10
399.4457116698999
 20
73.7179989624
 10
399.5082092285
 20
73.6555014038
 10
399.4457116698999
 20
73.34300079350001
 10
399.1956958008
 20
72.96799621579999
 10
398.8832080077999
 20
72.65549560550001
 10
398.5706945801
 20
72.467996521
  0
LWPOLYLINE
  5
290
330
C6
100
AcDbEntity
  8
3_ALL_SYMBOLS
  6
Continuous
 62
     2
100
AcDbPolyline
 90
        5
 70
     0
 43
0.0
 10
398.8207104491999
 20
73.780496521
 10
398.9457055664
 20
73.34300079350001
 10
399.1331982422
 20
72.9054986572
 10
399.3207165527
 20
72.65549560550001
 10
399.5707067870998
 20
72.467996521
  0
LINE
  5
297
330
C6
100
AcDbEntity
  8
3_ALL_SYMBOLS
  6
Continuous
 62
     2
100
AcDbLine
 10
399.8206970214997
 20
74.2179986572
 30
0.0
 11
400.1332104491998
 21
73.9679956055
 31
0.0
  0
LINE
  5
298
330
C6
100
AcDbEntity
  8
3_ALL_SYMBOLS
  6
Continuous
 62
     2
100
AcDbLine
 10
399.7581994628997
 20
73.84300048829998
 30
0.0
 11
400.0707128905998
 21
73.5929974365
 31
0.0
  0
LWPOLYLINE
  5
299
330
C6
100
AcDbEntity
  8
3_ALL_SYMBOLS
  6
Continuous
 62
     2
100
AcDbPolyline
 90
        3
 70
     0
 43
0.0
 10
399.7581994628997
 20
73.0305001831
 10
400.0707128905998
 20
73.28049682619997
 10
400.2582055663998
 20
73.5304998779
  0
LWPOLYLINE
  5
29E
330
C6
100
AcDbEntity
  8
3_ALL_SYMBOLS
  6
Continuous
 62
     2
100
AcDbPolyline
 90
        3
 70
     0
 43
0.0
 10
400.1332104491998
 20
73.780496521
 10
400.4456982421998
 20
74.0304995728
 10
400.5706933594
 20
74.2804962158
  0
LWPOLYLINE
  5
2A3
330
C6
100
AcDbEntity
  8
3_ALL_SYMBOLS
  6
Continuous
 62
     2
100
AcDbPolyline
 90
        3
 70
     0
 43
0.0
 10
400.4456982421998
 20
74.0304995728
 10
400.4456982421998
 20
73.0929977417
 10
401.5082080077998
 20
73.0929977417
  0
LINE
  5
2A8
330
C6
100
AcDbEntity
  8
3_ALL_SYMBOLS
  6
Continuous
 62
     2
100
AcDbLine
 10
400.4456982421998
 20
73.4054983521
 30
0.0
 11
401.4457104492
 21
73.4054983521
 31
0.0
  0
LINE
  5
2A9
330
C6
100
AcDbEntity
  8
3_ALL_SYMBOLS
  6
Continuous
 62
     2
100
AcDbLine
 10
400.4456982421998
 20
73.7179989624
 30
0.0
 11
401.4457104492
 21
73.7179989624
 31
0.0
  0
LINE
  5
2AA
330
C6
100
AcDbEntity
  8
3_ALL_SYMBOLS
  6
Continuous
 62
     2
100
AcDbLine
 10
400.4456982421998
 20
74.0304995728
 30
0.0
 11
401.5082080077998
 21
74.0304995728
 31
0.0
  0
LINE
  5
2AB
330
C6
100
AcDbEntity
  8
3_ALL_SYMBOLS
  6
Continuous
 62
     2
100
AcDbLine
 10
400.9457043457
 20
74.0304995728
 30
0.0
 11
400.9457043457
 21
73.0929977417
 31
0.0
  0
LINE
  5
2AC
330
C6
100
AcDbEntity
  8
3_ALL_SYMBOLS
  6
Continuous
 62
     2
100
AcDbLine
 10
400.9457043457
 20
74.0304995728
 30
0.0
 11
401.0706994629
 21
74.2804962158
 31
0.0
  0
LINE
  5
2AD
330
C6
100
AcDbEntity
  8
3_ALL_SYMBOLS
  6
Continuous
 62
     2
100
AcDbLine
 10
399.7581994628997
 20
72.8430010986
 30
0.0
 11
401.5707055664
 21
72.8430010986
 31
0.0
  0
LINE
  5
2AE
330
C6
100
AcDbEntity
  8
3_ALL_SYMBOLS
  6
Continuous
 62
     2
100
AcDbLine
 10
400.6332165526997
 20
73.0929977417
 30
0.0
 11
400.6332165526997
 21
72.467996521
 31
0.0
  0
LWPOLYLINE
  5
2AF
330
C6
100
AcDbEntity
  8
3_ALL_SYMBOLS
  6
Continuous
 62
     2
100
AcDbPolyline
 90
        5
 70
     0
 43
0.0
 10
402.0082141112998
 20
74.2804962158
 10
402.0082141112998
 20
72.53050048829995
 10
401.9457165527
 20
72.467996521
 10
401.8831933593999
 20
72.467996521
 10
401.7581982422
 20
72.53050048829995
  0
LINE
  5
2B6
330
C6
100
AcDbEntity
  8
3_ALL_SYMBOLS
  6
Continuous
 62
     2
100
AcDbLine
 10
401.7581982422
 20
73.0305001831
 30
0.0
 11
402.1957067870998
 21
73.34300079350001
 31
0.0
  0
LINE
  5
2B7
330
C6
100
AcDbEntity
  8
3_ALL_SYMBOLS
  6
Continuous
 62
     2
100
AcDbLine
 10
401.7581982422
 20
73.84300048829998
 30
0.0
 11
402.1957067870998
 21
73.84300048829998
 31
0.0
  0
LWPOLYLINE
  5
2B8
330
C6
100
AcDbEntity
  8
3_ALL_SYMBOLS
  6
Continuous
 62
     2
100
AcDbPolyline
 90
       10
 70
     0
 43
0.0
 10
402.1957067870998
 20
73.46799591060001
 10
402.3207019043
 20
73.7179989624
 10
402.3831994628999
 20
73.9679956055
 10
402.3831994628999
 20
74.2179986572
 10
402.6957128905999
 20
74.2179986572
 10
402.6957128905999
 20
73.780496521
 10
402.6332153319999
 20
73.4054983521
 10
402.5081945801
 20
73.0305001831
 10
402.3207019043
 20
72.65549560550001
 10
402.1957067870998
 20
72.467996521
  0
LWPOLYLINE
  5
2C4
330
C6
100
AcDbEntity
  8
3_ALL_SYMBOLS
  6
Continuous
 62
     2
100
AcDbPolyline
 90
        7
 70
     0
 43
0.0
 10
402.3831994628999
 20
73.9679956055
 10
402.3831994628999
 20
73.5304998779
 10
402.5081945801
 20
73.0305001831
 10
402.6332153319999
 20
72.78049713129998
 10
402.8207080077999
 20
72.65549560550001
 10
403.1331958008
 20
72.53050048829995
 10
403.5707043457
 20
72.467996521
  0
LWPOLYLINE
  5
2CD
330
C6
100
AcDbEntity
  8
3_ALL_SYMBOLS
  6
Continuous
 62
     2
100
AcDbPolyline
 90
       11
 70
     0
 43
0.0
 10
402.7582104491998
 20
72.9054986572
 10
402.8832055664
 20
73.15549530030001
 10
402.945703125
 20
73.46799591060001
 10
402.945703125
 20
74.2179986572
 10
403.2582165526996
 20
74.2179986572
 10
403.2582165526996
 20
73.0929977417
 10
403.2582165526996
 20
72.96799621579999
 10
403.3207141113
 20
72.9054986572
 10
403.5082067871
 20
72.9054986572
 10
403.5707043457
 20
72.96799621579999
 10
403.5707043457
 20
73.34300079350001
  0
LWPOLYLINE
  5
2DA
330
C6
100
AcDbEntity
  8
3_ALL_SYMBOLS
  6
Continuous
 62
     2
100
AcDbPolyline
 90
       10
 70
     0
 43
0.0
 10
404.3831982422
 20
74.2804962158
 10
404.5707165527
 20
74.15550109859998
 10
404.6957116698996
 20
74.0304995728
 10
404.8207067871
 20
73.84300048829998
 10
404.8832043456997
 20
73.5304998779
 10
404.8832043456997
 20
73.2179992676
 10
404.8207067871
 20
72.9054986572
 10
404.6957116698996
 20
72.71799957279998
 10
404.5707165527
 20
72.59299804689999
 10
404.3831982422
 20
72.467996521
  0
LWPOLYLINE
  5
2E6
330
C6
100
AcDbEntity
  8
3_ALL_SYMBOLS
  6
Continuous
 62
     2
100
AcDbPolyline
 90
        5
 70
     0
 43
0.0
 10
379.8207092285
 20
71.21800048829998
 10
379.8207092285
 20
69.842996521
 10
380.1956945800997
 20
69.842996521
 10
380.1956945800997
 20
71.21800048829998
 10
379.8207092285
 20
71.21800048829998
  0
LWPOLYLINE
  5
2ED
330
C6
100
AcDbEntity
  8
3_ALL_SYMBOLS
  6
Continuous
 62
     2
100
AcDbPolyline
 90
        3
 70
     0
 43
0.0
 10
380.4457104491999
 20
71.21800048829998
 10
381.0082141112999
 20
71.21800048829998
 10
381.4456970215
 20
71.28049804689999
  0
LWPOLYLINE
  5
2F2
330
C6
100
AcDbEntity
  8
3_ALL_SYMBOLS
  6
Continuous
 62
     2
100
AcDbPolyline
 90
        5
 70
     0
 43
0.0
 10
381.0082141112999
 20
71.21800048829998
 10
381.0082141112999
 20
69.5304959106
 10
380.9457165527
 20
69.4679983521
 10
380.8831933594
 20
69.4679983521
 10
380.5082080077998
 20
69.6554974365
  0
LINE
  5
2F9
330
C6
100
AcDbEntity
  8
3_ALL_SYMBOLS
  6
Continuous
 62
     2
100
AcDbLine
 10
380.4457104491999
 20
70.15549713129999
 30
0.0
 11
381.5707177733999
 21
70.15549713129999
 31
0.0
  0
LINE
  5
2FA
330
C6
100
AcDbEntity
  8
3_ALL_SYMBOLS
  6
Continuous
 62
     2
100
AcDbLine
 10
380.5082080077998
 20
70.9679974365
 30
0.0
 11
380.6957006836
 21
70.3429962158
 31
0.0
  0
LINE
  5
2FB
330
C6
100
AcDbEntity
  8
3_ALL_SYMBOLS
  6
Continuous
 62
     2
100
AcDbLine
 10
381.2582043457
 20
70.3429962158
 30
0.0
 11
381.5081945800999
 21
70.9679974365
 31
0.0
  0
LWPOLYLINE
  5
2FC
330
C6
100
AcDbEntity
  8
3_ALL_SYMBOLS
  6
Continuous
 62
     2
100
AcDbPolyline
 90
       21
 70
     0
 43
0.0
 10
381.7582104491999
 20
71.0929989624
 10
382.5707043457
 20
71.21800048829998
 10
382.1956933594
 20
70.84299591060001
 10
382.1331958008
 20
70.78049835209998
 10
382.0082006836
 20
70.59299926760001
 10
381.945703125
 20
70.46799774170001
 10
381.8832055664
 20
70.2180010986
 10
381.8832055664
 20
69.96799804689999
 10
381.945703125
 20
69.7804989624
 10
382.0082006836
 20
69.6554974365
 10
382.1331958008
 20
69.5304959106
 10
382.3207141113
 20
69.4679983521
 10
382.5707043457
 20
69.4679983521
 10
382.6956994629
 20
69.5304959106
 10
382.8206945800999
 20
69.6554974365
 10
382.9457153319999
 20
69.842996521
 10
383.0082128905999
 20
70.0304956055
 10
383.0707104491999
 20
70.28049865719999
 10
383.0707104491999
 20
70.5304953003
 10
383.0082128905999
 20
71.0305014038
 10
383.5707165526999
 20
70.3429962158
  0
LINE
  5
313
330
C6
100
AcDbEntity
  8
3_ALL_SYMBOLS
  6
Continuous
 62
     2
100
AcDbLine
 10
383.3831982422
 20
71.28049804689999
 30
0.0
 11
383.5707165526999
 21
71.0929989624
 31
0.0
  0
LINE
  5
314
330
C6
100
AcDbEntity
  8
3_ALL_SYMBOLS
  6
Continuous
 62
     2
100
AcDbLine
 10
383.258203125
 20
71.21800048829998
 30
0.0
 11
383.4456958008
 21
71.0305014038
 31
0.0
  0
LINE
  5
315
330
C6
100
AcDbEntity
  8
3_ALL_SYMBOLS
  6
Continuous
 62
     2
100
AcDbLine
 10
383.7582092285
 20
70.84299591060001
 30
0.0
 11
385.5082177733999
 21
70.84299591060001
 31
0.0
  0
LWPOLYLINE
  5
316
330
C6
100
AcDbEntity
  8
3_ALL_SYMBOLS
  6
Continuous
 62
     2
100
AcDbPolyline
 90
        4
 70
     0
 43
0.0
 10
385.0707092284999
 20
71.21800048829998
 10
385.0707092284999
 20
69.5929998779
 10
384.9457141112998
 20
69.4679983521
 10
384.3832104491998
 20
69.5929998779
  0
LINE
  5
31C
330
C6
100
AcDbEntity
  8
3_ALL_SYMBOLS
  6
Continuous
 62
     2
100
AcDbLine
 10
384.1957177733999
 20
70.5304953003
 30
0.0
 11
384.570703125
 21
70.0304956055
 31
0.0
  0
LINE
  5
31D
330
C6
100
AcDbEntity
  8
3_ALL_SYMBOLS
  6
Continuous
 62
     2
100
AcDbLine
 10
385.883203125
 20
71.21800048829998
 30
0.0
 11
386.1957165527
 21
70.9054998779
 31
0.0
  0
LINE
  5
31E
330
C6
100
AcDbEntity
  8
3_ALL_SYMBOLS
  6
Continuous
 62
     2
100
AcDbLine
 10
385.7582080077999
 20
70.78049835209998
 30
0.0
 11
386.0706958008
 21
70.46799774170001
 31
0.0
  0
LWPOLYLINE
  5
31F
330
C6
100
AcDbEntity
  8
3_ALL_SYMBOLS
  6
Continuous
 62
     2
100
AcDbPolyline
 90
        3
 70
     0
 43
0.0
 10
385.7582080077999
 20
69.5304959106
 10
386.0081982422
 20
69.842996521
 10
386.1957165527
 20
70.2180010986
  0
LWPOLYLINE
  5
324
330
C6
100
AcDbEntity
  8
3_ALL_SYMBOLS
  6
Continuous
 62
     2
100
AcDbPolyline
 90
        3
 70
     0
 43
0.0
 10
386.3832092284999
 20
70.9679974365
 10
387.4456933594
 20
70.9679974365
 10
387.5082165527
 20
70.9679974365
  0
LINE
  5
329
330
C6
100
AcDbEntity
  8
3_ALL_SYMBOLS
  6
Continuous
 62
     2
100
AcDbLine
 10
386.9457128905999
 20
71.28049804689999
 30
0.0
 11
386.9457128905999
 21
70.4055001831
 31
0.0
  0
LINE
  5
32A
330
C6
100
AcDbEntity
  8
3_ALL_SYMBOLS
  6
Continuous
 62
     2
100
AcDbLine
 10
386.3207116698998
 20
70.4055001831
 30
0.0
 11
387.5707141113
 21
70.4055001831
 31
0.0
  0
LINE
  5
32B
330
C6
100
AcDbEntity
  8
3_ALL_SYMBOLS
  6
Continuous
 62
     2
100
AcDbLine
 10
386.9457128905999
 20
70.4055001831
 30
0.0
 11
386.5082043456998
 21
69.5304959106
 31
0.0
  0
LINE
  5
32C
330
C6
100
AcDbEntity
  8
3_ALL_SYMBOLS
  6
Continuous
 62
     2
100
AcDbLine
 10
386.3207116698998
 20
69.4679983521
 30
0.0
 11
387.4456933594
 21
69.7180014038
 31
0.0
  0
LINE
  5
32D
330
C6
100
AcDbEntity
  8
3_ALL_SYMBOLS
  6
Continuous
 62
     2
100
AcDbLine
 10
387.195703125
 20
70.09299957279998
 30
0.0
 11
387.5707141113
 21
69.4679983521
 31
0.0
  0
LINE
  5
32E
330
C6
100
AcDbEntity
  8
3_ALL_SYMBOLS
  6
Continuous
 62
     2
100
AcDbLine
 10
401.0082019042997
 20
70.71800079350001
 30
0.0
 11
400.7582116698999
 21
70.46799774170001
 31
0.0
  0
LINE
  5
32F
330
C6
100
AcDbEntity
  8
3_ALL_SYMBOLS
  6
Continuous
 62
     2
100
AcDbLine
 10
401.0082019042997
 20
70.71800079350001
 30
0.0
 11
401.1956945800998
 21
71.0929989624
 31
0.0
  0
LWPOLYLINE
  5
330
330
C6
100
AcDbEntity
  8
3_ALL_SYMBOLS
  6
Continuous
 62
     2
100
AcDbPolyline
 90
        5
 70
     0
 43
0.0
 10
401.2582177734
 20
71.28049804689999
 10
402.0082141112998
 20
71.28049804689999
 10
402.0707116698998
 20
71.21800048829998
 10
402.3207019043
 20
70.78049835209998
 10
402.5707177733996
 20
70.4055001831
  0
LINE
  5
337
330
C6
100
AcDbEntity
  8
3_ALL_SYMBOLS
  6
Continuous
 62
     2
100
AcDbLine
 10
401.5707055664
 20
70.65549682619998
 30
0.0
 11
401.0082019042997
 21
69.5929998779
 31
0.0
  0
LINE
  5
338
330
C6
100
AcDbEntity
  8
3_ALL_SYMBOLS
  6
Continuous
 62
     2
100
AcDbLine
 10
400.7582116698999
 20
69.5929998779
 30
0.0
 11
402.3207019043
 21
69.7180014038
 31
0.0
  0
LINE
  5
339
330
C6
100
AcDbEntity
  8
3_ALL_SYMBOLS
  6
Continuous
 62
     2
100
AcDbLine
 10
401.9457165527
 20
70.3429962158
 30
0.0
 11
402.5707177733996
 21
69.4679983521
 31
0.0
  0
LINE
  5
33A
330
C6
100
AcDbEntity
  8
3_ALL_SYMBOLS
  6
Continuous
 62
     2
100
AcDbLine
 10
402.945703125
 20
70.65549682619998
 30
0.0
 11
404.3831982422
 21
70.65549682619998
 31
0.0
  0
LINE
  5
33B
330
C6
100
AcDbEntity
  8
3_ALL_SYMBOLS
  6
Continuous
 62
     2
100
AcDbLine
 10
402.8207080077999
 20
70.3429962158
 30
0.0
 11
404.5081933594
 21
70.3429962158
 31
0.0
  0
LINE
  5
33C
330
C6
100
AcDbEntity
  8
3_ALL_SYMBOLS
  6
Continuous
 62
     2
100
AcDbLine
 10
403.6956994628996
 20
70.9679974365
 30
0.0
 11
403.6956994628996
 21
70.3429962158
 31
0.0
  0
LINE
  5
33D
330
C6
100
AcDbEntity
  8
3_ALL_SYMBOLS
  6
Continuous
 62
     2
100
AcDbLine
 10
404.1957055664
 20
71.28049804689999
 30
0.0
 11
404.0082128905998
 21
70.9679974365
 31
0.0
  0
LINE
  5
33E
330
C6
100
AcDbEntity
  8
3_ALL_SYMBOLS
  6
Continuous
 62
     2
100
AcDbLine
 10
403.3832116699
 20
70.9679974365
 30
0.0
 11
403.1956933594
 21
71.28049804689999
 31
0.0
  0
LINE
  5
33F
330
C6
100
AcDbEntity
  8
3_ALL_SYMBOLS
  6
Continuous
 62
     2
100
AcDbLine
 10
402.8832055664
 20
70.9679974365
 30
0.0
 11
404.4456958008
 21
70.9679974365
 31
0.0
  0
LINE
  5
340
330
C6
100
AcDbEntity
  8
3_ALL_SYMBOLS
  6
Continuous
 62
     2
100
AcDbLine
 10
403.3832116699
 20
70.3429962158
 30
0.0
 11
402.7582104491998
 21
69.4679983521
 31
0.0
  0
LINE
  5
341
330
C6
100
AcDbEntity
  8
3_ALL_SYMBOLS
  6
Continuous
 62
     2
100
AcDbLine
 10
403.4457092284999
 20
70.09299957279998
 30
0.0
 11
404.4456958008
 21
70.09299957279998
 31
0.0
  0
LINE
  5
342
330
C6
100
AcDbEntity
  8
3_ALL_SYMBOLS
  6
Continuous
 62
     2
100
AcDbLine
 10
403.9457153319998
 20
70.09299957279998
 30
0.0
 11
403.9457153319998
 21
69.5304959106
 31
0.0
  0
LINE
  5
343
330
C6
100
AcDbEntity
  8
3_ALL_SYMBOLS
  6
Continuous
 62
     2
100
AcDbLine
 10
403.1956933594
 20
69.5304959106
 30
0.0
 11
404.5707165527
 21
69.5304959106
 31
0.0
  0
LWPOLYLINE
  5
344
330
C6
100
AcDbEntity
  8
3_ALL_SYMBOLS
  6
Continuous
 62
     2
100
AcDbPolyline
 90
       30
 70
     0
 43
0.0
 10
391.3831933594
 20
67.9054953003
 10
391.2581982422
 20
68.09300079350001
 10
391.0707055664
 20
68.21799591060001
 10
390.8207153319999
 20
68.2804998779
 10
390.6331970215
 20
68.2804998779
 10
390.3832067870998
 20
68.21799591060001
 10
390.1957141112998
 20
68.09300079350001
 10
390.0706933594
 20
67.9054953003
 10
389.9456982422
 20
67.5304971313
 10
389.9456982422
 20
67.1554989624
 10
390.0081958008
 20
66.90549591060001
 10
390.0706933594
 20
66.78050079350001
 10
390.1957141112998
 20
66.6554992676
 10
390.3832067870998
 20
66.5304977417
 10
390.5706994628999
 20
66.4680001831
 10
390.8207153319999
 20
66.4680001831
 10
391.0707055664
 20
66.5304977417
 10
391.1957006836
 20
66.59299530030001
 10
391.3206958008
 20
66.78050079350001
 10
391.3831933594
 20
66.9679998779
 10
391.3831933594
 20
67.1554989624
 10
391.3206958008
 20
67.3429980469
 10
391.1957006836
 20
67.4679995728
 10
391.0082080077998
 20
67.59300109859999
 10
390.8207153319999
 20
67.6554986572
 10
390.5706994628999
 20
67.6554986572
 10
390.3832067870998
 20
67.59300109859999
 10
390.1957141112998
 20
67.4679995728
 10
390.0706933594
 20
67.3429980469
 10
389.9456982422
 20
67.1554989624
  0
LINE
  5
364
330
C6
100
AcDbEntity
  8
3_ALL_SYMBOLS
  6
Continuous
 62
     2
100
AcDbLine
 10
391.9456970215
 20
68.2804998779
 30
0.0
 11
391.9456970215
 21
66.78050079350001
 31
0.0
  0
LINE
  5
365
330
C6
100
AcDbEntity
  8
3_ALL_SYMBOLS
  6
Continuous
 62
     2
100
AcDbLine
 10
391.7582043457
 20
66.59299530030001
 30
0.0
 11
392.8207141112999
 21
67.217996521
 31
0.0
  0
LINE
  5
366
330
C6
100
AcDbEntity
  8
3_ALL_SYMBOLS
  6
Continuous
 62
     2
100
AcDbLine
 10
391.9456970215
 20
66.78050079350001
 30
0.0
 11
391.9456970215
 21
66.71799682619999
 31
0.0
  0
LINE
  5
367
330
C6
100
AcDbEntity
  8
3_ALL_SYMBOLS
  6
Continuous
 62
     2
100
AcDbLine
 10
392.2582104491999
 20
68.21799591060001
 30
0.0
 11
392.8207141112999
 21
67.5304971313
 31
0.0
  0
LWPOLYLINE
  5
368
330
C6
100
AcDbEntity
  8
3_ALL_SYMBOLS
  6
Continuous
 62
     2
100
AcDbPolyline
 90
        7
 70
     0
 43
0.0
 10
392.1332153319998
 20
66.4680001831
 10
392.5706982422
 20
66.59299530030001
 10
392.8832116699
 20
66.71799682619999
 10
393.0707043457
 20
66.90549591060001
 10
393.1956994629
 20
67.1554989624
 10
393.3206945801
 20
67.59300109859999
 10
393.3206945801
 20
68.2804998779
  0
LINE
  5
371
330
C6
100
AcDbEntity
  8
3_ALL_SYMBOLS
  6
Continuous
 62
     2
100
AcDbLine
 10
393.1956994629
 20
67.1554989624
 30
0.0
 11
393.5707104491999
 21
66.4680001831
 31
0.0
  0
LINE
  5
372
330
C6
100
AcDbEntity
  8
3_ALL_SYMBOLS
  6
Continuous
 62
     2
100
AcDbLine
 10
393.758203125
 20
68.09300079350001
 30
0.0
 11
395.5082116699
 21
68.09300079350001
 31
0.0
  0
LINE
  5
373
330
C6
100
AcDbEntity
  8
3_ALL_SYMBOLS
  6
Continuous
 62
     2
100
AcDbLine
 10
394.5706970214999
 20
68.09300079350001
 30
0.0
 11
394.5706970214999
 21
66.4680001831
 31
0.0
  0
LINE
  5
374
330
C6
100
AcDbEntity
  8
3_ALL_SYMBOLS
  6
Continuous
 62
     2
100
AcDbLine
 10
394.5706970214999
 20
67.7805001831
 30
0.0
 11
395.3832165526998
 21
67.1554989624
 31
0.0
  0
LINE
  5
375
330
C6
100
AcDbEntity
  8
3_ALL_SYMBOLS
  6
Continuous
 62
     2
100
AcDbLine
 10
398.0082165526998
 20
67.4054956055
 30
0.0
 11
399.2581933594
 21
67.4054956055
 31
0.0
  0
LINE
  5
376
330
C6
100
AcDbEntity
  8
3_ALL_SYMBOLS
  6
Continuous
 62
     2
100
AcDbLine
 10
398.6332177733999
 20
67.96799926760001
 30
0.0
 11
398.6332177733999
 21
66.8429983521
 31
0.0
  0
LINE
  5
377
330
C6
100
AcDbEntity
  8
3_ALL_SYMBOLS
  6
Continuous
 62
     2
100
AcDbLine
 10
398.0082165526998
 20
66.71799682619999
 30
0.0
 11
399.2581933594
 21
66.71799682619999
 31
0.0
  0
LWPOLYLINE
  5
378
330
C6
100
AcDbEntity
  8
3_ALL_SYMBOLS
  6
Continuous
 62
     2
100
AcDbPolyline
 90
       25
 70
     0
 43
0.0
 10
400.7582116698999
 20
68.2804998779
 10
400.5706933594
 20
68.2804998779
 10
400.3832006836
 20
68.21799591060001
 10
400.2582055663998
 20
68.15549835209999
 10
400.1332104491998
 20
68.03049682619999
 10
400.0082153319999
 20
67.8429977417
 10
399.9457177733999
 20
67.5304971313
 10
399.9457177733999
 20
67.217996521
 10
400.0082153319999
 20
66.90549591060001
 10
400.1332104491998
 20
66.71799682619999
 10
400.2582055663998
 20
66.59299530030001
 10
400.3832006836
 20
66.5304977417
 10
400.5706933594
 20
66.4680001831
 10
400.7582116698999
 20
66.4680001831
 10
400.9457043457
 20
66.5304977417
 10
401.0706994629
 20
66.59299530030001
 10
401.1956945800998
 20
66.71799682619999
 10
401.3207153319997
 20
66.90549591060001
 10
401.3832128905999
 20
67.217996521
 10
401.3832128905999
 20
67.5304971313
 10
401.3207153319997
 20
67.8429977417
 10
401.1956945800998
 20
68.03049682619999
 10
401.0706994629
 20
68.15549835209999
 10
400.9457043457
 20
68.21799591060001
 10
400.7582116698999
 20
68.2804998779
  0
LINE
  5
393
330
C6
100
AcDbEntity
  8
3_ALL_SYMBOLS
  6
Continuous
 62
     2
100
AcDbLine
 10
401.8831933593999
 20
66.6554992676
 30
0.0
 11
402.0082141112998
 21
66.6554992676
 31
0.0
  0
LWPOLYLINE
  5
394
330
C6
100
AcDbEntity
  8
3_ALL_SYMBOLS
  6
Continuous
 62
     2
100
AcDbPolyline
 90
        6
 70
     0
 43
0.0
 10
401.9457165527
 20
66.71799682619999
 10
401.9457165527
 20
66.59299530030001
 10
401.8831933593999
 20
66.6554992676
 10
401.9457165527
 20
66.71799682619999
 10
402.0082141112998
 20
66.6554992676
 10
401.9457165527
 20
66.59299530030001
  0
LINE
  5
39C
330
C6
100
AcDbEntity
  8
3_ALL_SYMBOLS
  6
Continuous
 62
     2
100
AcDbLine
 10
403.9457153319998
 20
68.2804998779
 30
0.0
 11
405.3832104491998
 21
68.2804998779
 31
0.0
  0
LWPOLYLINE
  5
39D
330
C6
100
AcDbEntity
  8
3_ALL_SYMBOLS
  6
Continuous
 62
     2
100
AcDbPolyline
 90
       19
 70
     0
 43
0.0
 10
403.9457153319998
 20
68.2804998779
 10
403.9457153319998
 20
67.4054956055
 10
404.1332080077999
 20
67.5304971313
 10
404.258203125
 20
67.59300109859999
 10
404.5081933594
 20
67.6554986572
 10
404.7582092285
 20
67.6554986572
 10
405.0081994629
 20
67.59300109859999
 10
405.1957177733997
 20
67.4679995728
 10
405.3207128906
 20
67.3429980469
 10
405.3832104491998
 20
67.217996521
 10
405.3832104491998
 20
66.9679998779
 10
405.3207128906
 20
66.78050079350001
 10
405.1957177733997
 20
66.6554992676
 10
405.0081994629
 20
66.5304977417
 10
404.7582092285
 20
66.4680001831
 10
404.5081933594
 20
66.4680001831
 10
404.3207006835998
 20
66.5304977417
 10
404.0707104491999
 20
66.6554992676
 10
403.9457153319998
 20
66.78050079350001
  0
LWPOLYLINE
  5
3B2
330
C6
100
AcDbEntity
  8
3_ALL_SYMBOLS
  6
Continuous
 62
     2
100
AcDbPolyline
 90
       30
 70
     0
 43
0.0
 10
377.3832019043
 20
64.9054971313
 10
377.2582067870998
 20
65.0929962158
 10
377.0707141113
 20
65.2179977417
 10
376.8206982422
 20
65.2804953003
 10
376.6332055664
 20
65.2804953003
 10
376.3832153319999
 20
65.2179977417
 10
376.1956970214999
 20
65.0929962158
 10
376.0707019043
 20
64.9054971313
 10
375.9457067871
 20
64.5304989624
 10
375.9457067871
 20
64.15550079350001
 10
376.0082043456998
 20
63.90549774170001
 10
376.0707019043
 20
63.7804962158
 10
376.1956970214999
 20
63.6555010986
 10
376.3832153319999
 20
63.53049957279999
 10
376.5707080077999
 20
63.4679956055
 10
376.8206982422
 20
63.4679956055
 10
377.0707141113
 20
63.53049957279999
 10
377.1957092285
 20
63.5929971313
 10
377.3207043456998
 20
63.7804962158
 10
377.3832019043
 20
63.9679953003
 10
377.3832019043
 20
64.15550079350001
 10
377.3207043456998
 20
64.3429998779
 10
377.1957092285
 20
64.4680014038
 10
377.0082165527
 20
64.592996521
 10
376.8206982422
 20
64.65550048829999
 10
376.5707080077999
 20
64.65550048829999
 10
376.3832153319999
 20
64.592996521
 10
376.1956970214999
 20
64.4680014038
 10
376.0707019043
 20
64.3429998779
 10
375.9457067871
 20
64.15550079350001
  0
LINE
  5
3D2
330
C6
100
AcDbEntity
  8
3_ALL_SYMBOLS
  6
Continuous
 62
     2
100
AcDbLine
 10
377.8832080077999
 20
64.9680010986
 30
0.0
 11
379.5081958008
 21
64.9680010986
 31
0.0
  0
LINE
  5
3D3
330
C6
100
AcDbEntity
  8
3_ALL_SYMBOLS
  6
Continuous
 62
     2
100
AcDbLine
 10
378.6332043457
 20
65.2804953003
 30
0.0
 11
377.9457055664
 21
64.09299682619999
 31
0.0
  0
LWPOLYLINE
  5
3D4
330
C6
100
AcDbEntity
  8
3_ALL_SYMBOLS
  6
Continuous
 62
     2
100
AcDbPolyline
 90
        7
 70
     0
 43
0.0
 10
378.1331982422
 20
64.4054974365
 10
378.5082092285
 20
64.592996521
 10
378.6957019043
 20
64.65550048829999
 10
378.8831945801
 20
64.65550048829999
 10
379.0082153319999
 20
64.592996521
 10
379.0707128905999
 20
64.4054974365
 10
379.0707128905999
 20
63.8430001831
  0
LWPOLYLINE
  5
3DD
330
C6
100
AcDbEntity
  8
3_ALL_SYMBOLS
  6
Continuous
 62
     2
100
AcDbPolyline
 90
        9
 70
     0
 43
0.0
 10
379.5706933594
 20
64.4054974365
 10
379.0707128905999
 20
64.28049591060001
 10
378.6332043457
 20
64.09299682619999
 10
378.4457116698998
 20
63.90549774170001
 10
378.3832141112998
 20
63.7804962158
 10
378.3832141112998
 20
63.6555010986
 10
378.5707067870998
 20
63.53049957279999
 10
378.9457177733999
 20
63.4679956055
 10
379.4456982422
 20
63.4679956055
  0
LWPOLYLINE
  5
3E8
330
C6
100
AcDbEntity
  8
3_ALL_SYMBOLS
  6
Continuous
 62
     2
100
AcDbPolyline
 90
        5
 70
     0
 43
0.0
 10
380.0082019042998
 20
65.0929962158
 10
380.5707055664
 20
65.0929962158
 10
380.9457165527
 20
65.0304986572
 10
381.1957067870998
 20
64.9054971313
 10
380.8206958008
 20
64.65550048829999
  0
LWPOLYLINE
  5
3EF
330
C6
100
AcDbEntity
  8
3_ALL_SYMBOLS
  6
Continuous
 62
     2
100
AcDbPolyline
 90
        9
 70
     0
 43
0.0
 10
380.1331970215
 20
64.28049591060001
 10
379.8832067870998
 20
64.03049926760001
 10
379.8207092285
 20
63.90549774170001
 10
379.8207092285
 20
63.7179986572
 10
379.9457043457
 20
63.5929971313
 10
380.2582177733999
 20
63.53049957279999
 10
380.6957006836
 20
63.4679956055
 10
381.0707116698998
 20
63.4679956055
 10
381.5081945800999
 20
63.53049957279999
  0
LINE
  5
3FA
330
C6
100
AcDbEntity
  8
3_ALL_SYMBOLS
  6
Continuous
 62
     2
100
AcDbLine
 10
382.3832116699
 20
65.2179977417
 30
0.0
 11
383.3207006836
 21
65.0929962158
 31
0.0
  0
LWPOLYLINE
  5
3FB
330
C6
100
AcDbEntity
  8
3_ALL_SYMBOLS
  6
Continuous
 62
     2
100
AcDbPolyline
 90
       12
 70
     0
 43
0.0
 10
382.0706982422
 20
64.78049560550001
 10
383.258203125
 20
64.78049560550001
 10
381.8207080078
 20
63.53049957279999
 10
382.5082067870998
 20
64.03049926760001
 10
382.6956994629
 20
64.09299682619999
 10
382.8206945800999
 20
64.09299682619999
 10
382.8832177733999
 20
64.03049926760001
 10
382.8832177733999
 20
63.90549774170001
 10
382.8832177733999
 20
63.6555010986
 10
382.9457153319999
 20
63.53049957279999
 10
383.1332080077999
 20
63.4679956055
 10
383.5707165526999
 20
63.4679956055
  0
LWPOLYLINE
  5
409
330
C6
100
AcDbEntity
  8
3_ALL_SYMBOLS
  6
Continuous
 62
     2
100
AcDbPolyline
 90
       15
 70
     0
 43
0.0
 10
387.9456994628997
 20
64.9054971313
 10
388.0081970215
 20
65.0304986572
 10
388.1332177733998
 20
65.1555001831
 10
388.2582128905998
 20
65.2179977417
 10
388.508203125
 20
65.2804953003
 10
388.8207165526998
 20
65.2804953003
 10
389.0707067870998
 20
65.2179977417
 10
389.1957019043
 20
65.1555001831
 10
389.3206970215
 20
65.0304986572
 10
389.3831945801
 20
64.9054971313
 10
389.3831945801
 20
64.71799804689999
 10
389.3206970215
 20
64.592996521
 10
389.1957019043
 20
64.4680014038
 10
388.9457116698999
 20
64.4054974365
 10
388.3207104491999
 20
64.4054974365
  0
LWPOLYLINE
  5
41A
330
C6
100
AcDbEntity
  8
3_ALL_SYMBOLS
  6
Continuous
 62
     2
100
AcDbPolyline
 90
       13
 70
     0
 43
0.0
 10
388.9457116698999
 20
64.4054974365
 10
389.1957019043
 20
64.28049591060001
 10
389.3206970215
 20
64.15550079350001
 10
389.3831945801
 20
64.03049926760001
 10
389.3831945801
 20
63.8430001831
 10
389.3206970215
 20
63.7179986572
 10
389.1957019043
 20
63.5929971313
 10
389.0707067870998
 20
63.53049957279999
 10
388.8207165526998
 20
63.4679956055
 10
388.508203125
 20
63.4679956055
 10
388.2582128905998
 20
63.53049957279999
 10
388.0706945801
 20
63.6555010986
 10
387.9456994628997
 20
63.7804962158
  0
LWPOLYLINE
  5
429
330
C6
100
AcDbEntity
  8
3_ALL_SYMBOLS
  6
Continuous
 62
     2
100
AcDbPolyline
 90
       25
 70
     0
 43
0.0
 10
390.7582177733999
 20
65.2804953003
 10
390.5706994628999
 20
65.2804953003
 10
390.3832067870998
 20
65.2179977417
 10
390.2582116698998
 20
65.1555001831
 10
390.1332165527
 20
65.0304986572
 10
390.0081958008
 20
64.8429995728
 10
389.9456982422
 20
64.5304989624
 10
389.9456982422
 20
64.21799835209999
 10
390.0081958008
 20
63.90549774170001
 10
390.1332165527
 20
63.7179986572
 10
390.2582116698998
 20
63.5929971313
 10
390.3832067870998
 20
63.53049957279999
 10
390.5706994628999
 20
63.4679956055
 10
390.7582177733999
 20
63.4679956055
 10
390.9457104491999
 20
63.53049957279999
 10
391.0707055664
 20
63.5929971313
 10
391.1957006836
 20
63.7179986572
 10
391.3206958008
 20
63.90549774170001
 10
391.3831933594
 20
64.21799835209999
 10
391.3831933594
 20
64.5304989624
 10
391.3206958008
 20
64.8429995728
 10
391.1957006836
 20
65.0304986572
 10
391.0707055664
 20
65.1555001831
 10
390.9457104491999
 20
65.2179977417
 10
390.7582177733999
 20
65.2804953003
  0
LINE
  5
444
330
C6
100
AcDbEntity
  8
3_ALL_SYMBOLS
  6
Continuous
 62
     2
100
AcDbLine
 10
391.9456970215
 20
65.2804953003
 30
0.0
 11
391.9456970215
 21
63.7804962158
 31
0.0
  0
LINE
  5
445
330
C6
100
AcDbEntity
  8
3_ALL_SYMBOLS
  6
Continuous
 62
     2
100
AcDbLine
 10
391.7582043457
 20
63.5929971313
 30
0.0
 11
392.8207141112999
 21
64.21799835209999
 31
0.0
  0
LINE
  5
446
330
C6
100
AcDbEntity
  8
3_ALL_SYMBOLS
  6
Continuous
 62
     2
100
AcDbLine
 10
391.9456970215
 20
63.7804962158
 30
0.0
 11
391.9456970215
 21
63.7179986572
 31
0.0
  0
LINE
  5
447
330
C6
100
AcDbEntity
  8
3_ALL_SYMBOLS
  6
Continuous
 62
     2
100
AcDbLine
 10
392.2582104491999
 20
65.2179977417
 30
0.0
 11
392.8207141112999
 21
64.5304989624
 31
0.0
  0
LWPOLYLINE
  5
448
330
C6
100
AcDbEntity
  8
3_ALL_SYMBOLS
  6
Continuous
 62
     2
100
AcDbPolyline
 90
        7
 70
     0
 43
0.0
 10
392.1332153319998
 20
63.4679956055
 10
392.5706982422
 20
63.5929971313
 10
392.8832116699
 20
63.7179986572
 10
393.0707043457
 20
63.90549774170001
 10
393.1956994629
 20
64.15550079350001
 10
393.3206945801
 20
64.592996521
 10
393.3206945801
 20
65.2804953003
  0
LINE
  5
451
330
C6
100
AcDbEntity
  8
3_ALL_SYMBOLS
  6
Continuous
 62
     2
100
AcDbLine
 10
393.1956994629
 20
64.15550079350001
 30
0.0
 11
393.5707104491999
 21
63.4679956055
 31
0.0
  0
LINE
  5
452
330
C6
100
AcDbEntity
  8
3_ALL_SYMBOLS
  6
Continuous
 62
     2
100
AcDbLine
 10
393.758203125
 20
65.0929962158
 30
0.0
 11
395.5082116699
 21
65.0929962158
 31
0.0
  0
LINE
  5
453
330
C6
100
AcDbEntity
  8
3_ALL_SYMBOLS
  6
Continuous
 62
     2
100
AcDbLine
 10
394.5706970214999
 20
65.0929962158
 30
0.0
 11
394.5706970214999
 21
63.4679956055
 31
0.0
  0
LINE
  5
454
330
C6
100
AcDbEntity
  8
3_ALL_SYMBOLS
  6
Continuous
 62
     2
100
AcDbLine
 10
394.5706970214999
 20
64.78049560550001
 30
0.0
 11
395.3832165526998
 21
64.15550079350001
 31
0.0
  0
LINE
  5
455
330
C6
100
AcDbEntity
  8
3_ALL_SYMBOLS
  6
Continuous
 62
     2
100
AcDbLine
 10
398.0082165526998
 20
64.4054974365
 30
0.0
 11
399.2581933594
 21
64.4054974365
 31
0.0
  0
LINE
  5
456
330
C6
100
AcDbEntity
  8
3_ALL_SYMBOLS
  6
Continuous
 62
     2
100
AcDbLine
 10
398.6332177733999
 20
64.9680010986
 30
0.0
 11
398.6332177733999
 21
63.8430001831
 31
0.0
  0
LINE
  5
457
330
C6
100
AcDbEntity
  8
3_ALL_SYMBOLS
  6
Continuous
 62
     2
100
AcDbLine
 10
398.0082165526998
 20
63.7179986572
 30
0.0
 11
399.2581933594
 21
63.7179986572
 31
0.0
  0
LWPOLYLINE
  5
458
330
C6
100
AcDbEntity
  8
3_ALL_SYMBOLS
  6
Continuous
 62
     2
100
AcDbPolyline
 90
        3
 70
     0
 43
0.0
 10
400.8207092284999
 20
63.4679956055
 10
400.8207092284999
 20
65.2804953003
 10
400.320703125
 20
64.78049560550001
  0
LWPOLYLINE
  5
45D
330
C6
100
AcDbEntity
  8
3_ALL_SYMBOLS
  6
Continuous
 62
     2
100
AcDbPolyline
 90
       15
 70
     0
 43
0.0
 10
373.9457080077999
 20
61.9054989624
 10
374.0082055664
 20
62.0305004883
 10
374.1332006836
 20
62.1554956055
 10
374.2581958008
 20
62.2179995728
 10
374.5082116698998
 20
62.2804971313
 10
374.8206994629
 20
62.2804971313
 10
375.0707153319999
 20
62.2179995728
 10
375.1957104491999
 20
62.1554956055
 10
375.3207055664
 20
62.0305004883
 10
375.383203125
 20
61.9054989624
 10
375.383203125
 20
61.7179998779
 10
375.3207055664
 20
61.59299835209999
 10
375.1957104491999
 20
61.4679968262
 10
374.9456945801
 20
61.4054992676
 10
374.3206933594
 20
61.4054992676
  0
LWPOLYLINE
  5
46E
330
C6
100
AcDbEntity
  8
3_ALL_SYMBOLS
  6
Continuous
 62
     2
100
AcDbPolyline
 90
       13
 70
     0
 43
0.0
 10
374.9456945801
 20
61.4054992676
 10
375.1957104491999
 20
61.2804977417
 10
375.3207055664
 20
61.1554962158
 10
375.383203125
 20
61.03050109859999
 10
375.383203125
 20
60.8429956055
 10
375.3207055664
 20
60.7180004883
 10
375.1957104491999
 20
60.59299896239998
 10
375.0707153319999
 20
60.5305014038
 10
374.8206994629
 20
60.4679974365
 10
374.5082116698998
 20
60.4679974365
 10
374.2581958008
 20
60.5305014038
 10
374.070703125
 20
60.655496521
 10
373.9457080077999
 20
60.7804980469
  0
LWPOLYLINE
  5
47D
330
C6
100
AcDbEntity
  8
3_ALL_SYMBOLS
  6
Continuous
 62
     2
100
AcDbPolyline
 90
       25
 70
     0
 43
0.0
 10
376.7582006836
 20
62.2804971313
 10
376.5707080077999
 20
62.2804971313
 10
376.3832153319999
 20
62.2179995728
 10
376.2581945801
 20
62.1554956055
 10
376.1331994628997
 20
62.0305004883
 10
376.0082043456998
 20
61.8430014038
 10
375.9457067871
 20
61.5305007935
 10
375.9457067871
 20
61.2180001831
 10
376.0082043456998
 20
60.9054995728
 10
376.1331994628997
 20
60.7180004883
 10
376.2581945801
 20
60.59299896239998
 10
376.3832153319999
 20
60.5305014038
 10
376.5707080077999
 20
60.4679974365
 10
376.7582006836
 20
60.4679974365
 10
376.9456933594
 20
60.5305014038
 10
377.0707141113
 20
60.59299896239998
 10
377.1957092285
 20
60.7180004883
 10
377.3207043456998
 20
60.9054995728
 10
377.3832019043
 20
61.2180001831
 10
377.3832019043
 20
61.5305007935
 10
377.3207043456998
 20
61.8430014038
 10
377.1957092285
 20
62.0305004883
 10
377.0707141113
 20
62.1554956055
 10
376.9456933594
 20
62.2179995728
 10
376.7582006836
 20
62.2804971313
  0
LINE
  5
498
330
C6
100
AcDbEntity
  8
3_ALL_SYMBOLS
  6
Continuous
 62
     2
100
AcDbLine
 10
377.8832080077999
 20
61.96799652100001
 30
0.0
 11
379.5081958008
 21
61.96799652100001
 31
0.0
  0
LINE
  5
499
330
C6
100
AcDbEntity
  8
3_ALL_SYMBOLS
  6
Continuous
 62
     2
100
AcDbLine
 10
378.6332043457
 20
62.2804971313
 30
0.0
 11
377.9457055664
 21
61.0929986572
 31
0.0
  0
LWPOLYLINE
  5
49A
330
C6
100
AcDbEntity
  8
3_ALL_SYMBOLS
  6
Continuous
 62
     2
100
AcDbPolyline
 90
        7
 70
     0
 43
0.0
 10
378.1331982422
 20
61.4054992676
 10
378.5082092285
 20
61.59299835209999
 10
378.6957019043
 20
61.6554959106
 10
378.8831945801
 20
61.6554959106
 10
379.0082153319999
 20
61.59299835209999
 10
379.0707128905999
 20
61.4054992676
 10
379.0707128905999
 20
60.8429956055
  0
LWPOLYLINE
  5
4A3
330
C6
100
AcDbEntity
  8
3_ALL_SYMBOLS
  6
Continuous
 62
     2
100
AcDbPolyline
 90
        9
 70
     0
 43
0.0
 10
379.5706933594
 20
61.4054992676
 10
379.0707128905999
 20
61.2804977417
 10
378.6332043457
 20
61.0929986572
 10
378.4457116698998
 20
60.9054995728
 10
378.3832141112998
 20
60.7804980469
 10
378.3832141112998
 20
60.655496521
 10
378.5707067870998
 20
60.5305014038
 10
378.9457177733999
 20
60.4679974365
 10
379.4456982422
 20
60.4679974365
  0
LWPOLYLINE
  5
4AE
330
C6
100
AcDbEntity
  8
3_ALL_SYMBOLS
  6
Continuous
 62
     2
100
AcDbPolyline
 90
        5
 70
     0
 43
0.0
 10
380.0082019042998
 20
62.09299804689999
 10
380.5707055664
 20
62.09299804689999
 10
380.9457165527
 20
62.0305004883
 10
381.1957067870998
 20
61.9054989624
 10
380.8206958008
 20
61.6554959106
  0
LWPOLYLINE
  5
4B5
330
C6
100
AcDbEntity
  8
3_ALL_SYMBOLS
  6
Continuous
 62
     2
100
AcDbPolyline
 90
        9
 70
     0
 43
0.0
 10
380.1331970215
 20
61.2804977417
 10
379.8832067870998
 20
61.03050109859999
 10
379.8207092285
 20
60.9054995728
 10
379.8207092285
 20
60.7180004883
 10
379.9457043457
 20
60.59299896239998
 10
380.2582177733999
 20
60.5305014038
 10
380.6957006836
 20
60.4679974365
 10
381.0707116698998
 20
60.4679974365
 10
381.5081945800999
 20
60.5305014038
  0
LINE
  5
4C0
330
C6
100
AcDbEntity
  8
3_ALL_SYMBOLS
  6
Continuous
 62
     2
100
AcDbLine
 10
382.3832116699
 20
62.2179995728
 30
0.0
 11
383.3207006836
 21
62.09299804689999
 31
0.0
  0
LWPOLYLINE
  5
4C1
330
C6
100
AcDbEntity
  8
3_ALL_SYMBOLS
  6
Continuous
 62
     2
100
AcDbPolyline
 90
       12
 70
     0
 43
0.0
 10
382.0706982422
 20
61.78049743649999
 10
383.258203125
 20
61.78049743649999
 10
381.8207080078
 20
60.5305014038
 10
382.5082067870998
 20
61.03050109859999
 10
382.6956994629
 20
61.0929986572
 10
382.8206945800999
 20
61.0929986572
 10
382.8832177733999
 20
61.03050109859999
 10
382.8832177733999
 20
60.9054995728
 10
382.8832177733999
 20
60.655496521
 10
382.9457153319999
 20
60.5305014038
 10
383.1332080077999
 20
60.4679974365
 10
383.5707165526999
 20
60.4679974365
  0
LWPOLYLINE
  5
4CF
330
C6
100
AcDbEntity
  8
3_ALL_SYMBOLS
  6
Continuous
 62
     2
100
AcDbPolyline
 90
        3
 70
     0
 43
0.0
 10
386.8207177733999
 20
60.4679974365
 10
386.8207177733999
 20
62.2804971313
 10
386.3207116698998
 20
61.78049743649999
  0
LWPOLYLINE
  5
4D4
330
C6
100
AcDbEntity
  8
3_ALL_SYMBOLS
  6
Continuous
 62
     2
100
AcDbPolyline
 90
       19
 70
     0
 43
0.0
 10
387.9456994628997
 20
61.8430014038
 10
388.0081970215
 20
61.96799652100001
 10
388.1332177733998
 20
62.09299804689999
 10
388.3207104491999
 20
62.2179995728
 10
388.5707006836
 20
62.2804971313
 10
388.8207165526998
 20
62.2804971313
 10
389.0707067870998
 20
62.2179995728
 10
389.2581994628999
 20
62.09299804689999
 10
389.3831945801
 20
61.9054989624
 10
389.3831945801
 20
61.7179998779
 10
389.3206970215
 20
61.59299835209999
 10
389.1957019043
 20
61.4679968262
 10
388.8832141112998
 20
61.34299530029998
 10
388.5707006836
 20
61.2180001831
 10
388.3207104491999
 20
61.03050109859999
 10
388.1332177733998
 20
60.8429956055
 10
388.0081970215
 20
60.655496521
 10
387.9456994628997
 20
60.4679974365
 10
389.3831945801
 20
60.4679974365
  0
LWPOLYLINE
  5
4E9
330
C6
100
AcDbEntity
  8
3_ALL_SYMBOLS
  6
Continuous
 62
     2
100
AcDbPolyline
 90
       25
 70
     0
 43
0.0
 10
390.7582177733999
 20
62.2804971313
 10
390.5706994628999
 20
62.2804971313
 10
390.3832067870998
 20
62.2179995728
 10
390.2582116698998
 20
62.1554956055
 10
390.1332165527
 20
62.0305004883
 10
390.0081958008
 20
61.8430014038
 10
389.9456982422
 20
61.5305007935
 10
389.9456982422
 20
61.2180001831
 10
390.0081958008
 20
60.9054995728
 10
390.1332165527
 20
60.7180004883
 10
390.2582116698998
 20
60.59299896239998
 10
390.3832067870998
 20
60.5305014038
 10
390.5706994628999
 20
60.4679974365
 10
390.7582177733999
 20
60.4679974365
 10
390.9457104491999
 20
60.5305014038
 10
391.0707055664
 20
60.59299896239998
 10
391.1957006836
 20
60.7180004883
 10
391.3206958008
 20
60.9054995728
 10
391.3831933594
 20
61.2180001831
 10
391.3831933594
 20
61.5305007935
 10
391.3206958008
 20
61.8430014038
 10
391.1957006836
 20
62.0305004883
 10
391.0707055664
 20
62.1554956055
 10
390.9457104491999
 20
62.2179995728
 10
390.7582177733999
 20
62.2804971313
  0
LINE
  5
504
330
C6
100
AcDbEntity
  8
3_ALL_SYMBOLS
  6
Continuous
 62
     2
100
AcDbLine
 10
391.9456970215
 20
62.2804971313
 30
0.0
 11
391.9456970215
 21
60.7804980469
 31
0.0
  0
LINE
  5
505
330
C6
100
AcDbEntity
  8
3_ALL_SYMBOLS
  6
Continuous
 62
     2
100
AcDbLine
 10
391.7582043457
 20
60.59299896239998
 30
0.0
 11
392.8207141112999
 21
61.2180001831
 31
0.0
  0
LINE
  5
506
330
C6
100
AcDbEntity
  8
3_ALL_SYMBOLS
  6
Continuous
 62
     2
100
AcDbLine
 10
391.9456970215
 20
60.7804980469
 30
0.0
 11
391.9456970215
 21
60.7180004883
 31
0.0
  0
LINE
  5
507
330
C6
100
AcDbEntity
  8
3_ALL_SYMBOLS
  6
Continuous
 62
     2
100
AcDbLine
 10
392.2582104491999
 20
62.2179995728
 30
0.0
 11
392.8207141112999
 21
61.5305007935
 31
0.0
  0
LWPOLYLINE
  5
508
330
C6
100
AcDbEntity
  8
3_ALL_SYMBOLS
  6
Continuous
 62
     2
100
AcDbPolyline
 90
        7
 70
     0
 43
0.0
 10
392.1332153319998
 20
60.4679974365
 10
392.5706982422
 20
60.59299896239998
 10
392.8832116699
 20
60.7180004883
 10
393.0707043457
 20
60.9054995728
 10
393.1956994629
 20
61.1554962158
 10
393.3206945801
 20
61.59299835209999
 10
393.3206945801
 20
62.2804971313
  0
LINE
  5
511
330
C6
100
AcDbEntity
  8
3_ALL_SYMBOLS
  6
Continuous
 62
     2
100
AcDbLine
 10
393.1956994629
 20
61.1554962158
 30
0.0
 11
393.5707104491999
 21
60.4679974365
 31
0.0
  0
LINE
  5
512
330
C6
100
AcDbEntity
  8
3_ALL_SYMBOLS
  6
Continuous
 62
     2
100
AcDbLine
 10
393.758203125
 20
62.09299804689999
 30
0.0
 11
395.5082116699
 21
62.09299804689999
 31
0.0
  0
LINE
  5
513
330
C6
100
AcDbEntity
  8
3_ALL_SYMBOLS
  6
Continuous
 62
     2
100
AcDbLine
 10
394.5706970214999
 20
62.09299804689999
 30
0.0
 11
394.5706970214999
 21
60.4679974365
 31
0.0
  0
LINE
  5
514
330
C6
100
AcDbEntity
  8
3_ALL_SYMBOLS
  6
Continuous
 62
     2
100
AcDbLine
 10
394.5706970214999
 20
61.78049743649999
 30
0.0
 11
395.3832165526998
 21
61.1554962158
 31
0.0
  0
LINE
  5
515
330
C6
100
AcDbEntity
  8
3_ALL_SYMBOLS
  6
Continuous
 62
     2
100
AcDbLine
 10
398.0082165526998
 20
61.4054992676
 30
0.0
 11
399.2581933594
 21
61.4054992676
 31
0.0
  0
LINE
  5
516
330
C6
100
AcDbEntity
  8
3_ALL_SYMBOLS
  6
Continuous
 62
     2
100
AcDbLine
 10
398.6332177733999
 20
61.96799652100001
 30
0.0
 11
398.6332177733999
 21
60.8429956055
 31
0.0
  0
LINE
  5
517
330
C6
100
AcDbEntity
  8
3_ALL_SYMBOLS
  6
Continuous
 62
     2
100
AcDbLine
 10
398.0082165526998
 20
60.7180004883
 30
0.0
 11
399.2581933594
 21
60.7180004883
 31
0.0
  0
LWPOLYLINE
  5
518
330
C6
100
AcDbEntity
  8
3_ALL_SYMBOLS
  6
Continuous
 62
     2
100
AcDbPolyline
 90
        3
 70
     0
 43
0.0
 10
400.8207092284999
 20
60.4679974365
 10
400.8207092284999
 20
62.2804971313
 10
400.320703125
 20
61.78049743649999
  0
LINE
  5
51D
330
C6
100
AcDbEntity
  8
3_ALL_SYMBOLS
  6
Continuous
 62
     2
100
AcDbLine
 10
401.8831933593999
 20
60.655496521
 30
0.0
 11
402.0082141112998
 21
60.655496521
 31
0.0
  0
LWPOLYLINE
  5
51E
330
C6
100
AcDbEntity
  8
3_ALL_SYMBOLS
  6
Continuous
 62
     2
100
AcDbPolyline
 90
        6
 70
     0
 43
0.0
 10
401.9457165527
 20
60.7180004883
 10
401.9457165527
 20
60.59299896239998
 10
401.8831933593999
 20
60.655496521
 10
401.9457165527
 20
60.7180004883
 10
402.0082141112998
 20
60.655496521
 10
401.9457165527
 20
60.59299896239998
  0
LINE
  5
526
330
C6
100
AcDbEntity
  8
3_ALL_SYMBOLS
  6
Continuous
 62
     2
100
AcDbLine
 10
403.9457153319998
 20
62.2804971313
 30
0.0
 11
405.3832104491998
 21
62.2804971313
 31
0.0
  0
LWPOLYLINE
  5
527
330
C6
100
AcDbEntity
  8
3_ALL_SYMBOLS
  6
Continuous
 62
     2
100
AcDbPolyline
 90
       19
 70
     0
 43
0.0
 10
403.9457153319998
 20
62.2804971313
 10
403.9457153319998
 20
61.4054992676
 10
404.1332080077999
 20
61.5305007935
 10
404.258203125
 20
61.59299835209999
 10
404.5081933594
 20
61.6554959106
 10
404.7582092285
 20
61.6554959106
 10
405.0081994629
 20
61.59299835209999
 10
405.1957177733997
 20
61.4679968262
 10
405.3207128906
 20
61.34299530029998
 10
405.3832104491998
 20
61.2180001831
 10
405.3832104491998
 20
60.9679971313
 10
405.3207128906
 20
60.7804980469
 10
405.1957177733997
 20
60.655496521
 10
405.0081994629
 20
60.5305014038
 10
404.7582092285
 20
60.4679974365
 10
404.5081933594
 20
60.4679974365
 10
404.3207006835998
 20
60.5305014038
 10
404.0707104491999
 20
60.655496521
 10
403.9457153319998
 20
60.7804980469
  0
LWPOLYLINE
  5
53C
330
C6
100
AcDbEntity
  8
3_ALL_SYMBOLS
  6
Continuous
 62
     2
100
AcDbPolyline
 90
        3
 70
     0
 43
0.0
 10
372.8207006836
 20
57.4679992676
 10
372.8207006836
 20
59.2804989624
 10
372.3206945800999
 20
58.7804992676
  0
LWPOLYLINE
  5
541
330
C6
100
AcDbEntity
  8
3_ALL_SYMBOLS
  6
Continuous
 62
     2
100
AcDbPolyline
 90
       19
 70
     0
 43
0.0
 10
373.9457080077999
 20
58.8429968262
 10
374.0082055664
 20
58.9679983521
 10
374.1332006836
 20
59.09299987789999
 10
374.3206933594
 20
59.2180014038
 10
374.5707092284999
 20
59.2804989624
 10
374.8206994629
 20
59.2804989624
 10
375.0707153319999
 20
59.2180014038
 10
375.2582080077999
 20
59.09299987789999
 10
375.383203125
 20
58.9055007935
 10
375.383203125
 20
58.71799530029999
 10
375.3207055664
 20
58.5930001831
 10
375.1957104491999
 20
58.46799865720001
 10
374.8831970214999
 20
58.3429971313
 10
374.5707092284999
 20
58.2179956055
 10
374.3206933594
 20
58.030496521
 10
374.1332006836
 20
57.8429974365
 10
374.0082055664
 20
57.65549835209998
 10
373.9457080077999
 20
57.4679992676
 10
375.383203125
 20
57.4679992676
  0
LWPOLYLINE
  5
556
330
C6
100
AcDbEntity
  8
3_ALL_SYMBOLS
  6
Continuous
 62
     2
100
AcDbPolyline
 90
       25
 70
     0
 43
0.0
 10
376.7582006836
 20
59.2804989624
 10
376.5707080077999
 20
59.2804989624
 10
376.3832153319999
 20
59.2180014038
 10
376.2581945801
 20
59.1554974365
 10
376.1331994628997
 20
59.0304959106
 10
376.0082043456998
 20
58.8429968262
 10
375.9457067871
 20
58.5304962158
 10
375.9457067871
 20
58.2179956055
 10
376.0082043456998
 20
57.9055014038
 10
376.1331994628997
 20
57.7179959106
 10
376.2581945801
 20
57.5930007935
 10
376.3832153319999
 20
57.5304968262
 10
376.5707080077999
 20
57.4679992676
 10
376.7582006836
 20
57.4679992676
 10
376.9456933594
 20
57.5304968262
 10
377.0707141113
 20
57.5930007935
 10
377.1957092285
 20
57.7179959106
 10
377.3207043456998
 20
57.9055014038
 10
377.3832019043
 20
58.2179956055
 10
377.3832019043
 20
58.5304962158
 10
377.3207043456998
 20
58.8429968262
 10
377.1957092285
 20
59.0304959106
 10
377.0707141113
 20
59.1554974365
 10
376.9456933594
 20
59.2180014038
 10
376.7582006836
 20
59.2804989624
  0
LINE
  5
571
330
C6
100
AcDbEntity
  8
3_ALL_SYMBOLS
  6
Continuous
 62
     2
100
AcDbLine
 10
377.8832080077999
 20
58.9679983521
 30
0.0
 11
379.5081958008
 21
58.9679983521
 31
0.0
  0
LINE
  5
572
330
C6
100
AcDbEntity
  8
3_ALL_SYMBOLS
  6
Continuous
 62
     2
100
AcDbLine
 10
378.6332043457
 20
59.2804989624
 30
0.0
 11
377.9457055664
 21
58.09300048829999
 31
0.0
  0
LWPOLYLINE
  5
573
330
C6
100
AcDbEntity
  8
3_ALL_SYMBOLS
  6
Continuous
 62
     2
100
AcDbPolyline
 90
        7
 70
     0
 43
0.0
 10
378.1331982422
 20
58.4055010986
 10
378.5082092285
 20
58.5930001831
 10
378.6957019043
 20
58.6554977417
 10
378.8831945801
 20
58.6554977417
 10
379.0082153319999
 20
58.5930001831
 10
379.0707128905999
 20
58.4055010986
 10
379.0707128905999
 20
57.8429974365
  0
LWPOLYLINE
  5
57C
330
C6
100
AcDbEntity
  8
3_ALL_SYMBOLS
  6
Continuous
 62
     2
100
AcDbPolyline
 90
        9
 70
     0
 43
0.0
 10
379.5706933594
 20
58.4055010986
 10
379.0707128905999
 20
58.2804995728
 10
378.6332043457
 20
58.09300048829999
 10
378.4457116698998
 20
57.9055014038
 10
378.3832141112998
 20
57.7804998779
 10
378.3832141112998
 20
57.65549835209998
 10
378.5707067870998
 20
57.5304968262
 10
378.9457177733999
 20
57.4679992676
 10
379.4456982422
 20
57.4679992676
  0
LWPOLYLINE
  5
587
330
C6
100
AcDbEntity
  8
3_ALL_SYMBOLS
  6
Continuous
 62
     2
100
AcDbPolyline
 90
        5
 70
     0
 43
0.0
 10
380.0082019042998
 20
59.09299987789999
 10
380.5707055664
 20
59.09299987789999
 10
380.9457165527
 20
59.0304959106
 10
381.1957067870998
 20
58.9055007935
 10
380.8206958008
 20
58.6554977417
  0
LWPOLYLINE
  5
58E
330
C6
100
AcDbEntity
  8
3_ALL_SYMBOLS
  6
Continuous
 62
     2
100
AcDbPolyline
 90
        9
 70
     0
 43
0.0
 10
380.1331970215
 20
58.2804995728
 10
379.8832067870998
 20
58.030496521
 10
379.8207092285
 20
57.9055014038
 10
379.8207092285
 20
57.7179959106
 10
379.9457043457
 20
57.5930007935
 10
380.2582177733999
 20
57.5304968262
 10
380.6957006836
 20
57.4679992676
 10
381.0707116698998
 20
57.4679992676
 10
381.5081945800999
 20
57.5304968262
  0
LINE
  5
599
330
C6
100
AcDbEntity
  8
3_ALL_SYMBOLS
  6
Continuous
 62
     2
100
AcDbLine
 10
382.3832116699
 20
59.2180014038
 30
0.0
 11
383.3207006836
 21
59.09299987789999
 31
0.0
  0
LWPOLYLINE
  5
59A
330
C6
100
AcDbEntity
  8
3_ALL_SYMBOLS
  6
Continuous
 62
     2
100
AcDbPolyline
 90
       12
 70
     0
 43
0.0
 10
382.0706982422
 20
58.7804992676
 10
383.258203125
 20
58.7804992676
 10
381.8207080078
 20
57.5304968262
 10
382.5082067870998
 20
58.030496521
 10
382.6956994629
 20
58.09300048829999
 10
382.8206945800999
 20
58.09300048829999
 10
382.8832177733999
 20
58.030496521
 10
382.8832177733999
 20
57.9055014038
 10
382.8832177733999
 20
57.65549835209998
 10
382.9457153319999
 20
57.5304968262
 10
383.1332080077999
 20
57.4679992676
 10
383.5707165526999
 20
57.4679992676
  0
LWPOLYLINE
  5
5A8
330
C6
100
AcDbEntity
  8
3_ALL_SYMBOLS
  6
Continuous
 62
     2
100
AcDbPolyline
 90
        4
 70
     0
 43
0.0
 10
387.0707080077999
 20
57.4679992676
 10
387.0707080077999
 20
59.2804989624
 10
385.883203125
 20
57.9055014038
 10
387.3831958008
 20
57.9055014038
  0
LWPOLYLINE
  5
5AE
330
C6
100
AcDbEntity
  8
3_ALL_SYMBOLS
  6
Continuous
 62
     2
100
AcDbPolyline
 90
       25
 70
     0
 43
0.0
 10
388.7581933594
 20
59.2804989624
 10
388.5707006836
 20
59.2804989624
 10
388.3832080077999
 20
59.2180014038
 10
388.2582128905998
 20
59.1554974365
 10
388.1332177733998
 20
59.0304959106
 10
388.0081970215
 20
58.8429968262
 10
387.9456994628997
 20
58.5304962158
 10
387.9456994628997
 20
58.2179956055
 10
388.0081970215
 20
57.9055014038
 10
388.1332177733998
 20
57.7179959106
 10
388.2582128905998
 20
57.5930007935
 10
388.3832080077999
 20
57.5304968262
 10
388.5707006836
 20
57.4679992676
 10
388.7581933594
 20
57.4679992676
 10
388.9457116698999
 20
57.5304968262
 10
389.0707067870998
 20
57.5930007935
 10
389.1957019043
 20
57.7179959106
 10
389.3206970215
 20
57.9055014038
 10
389.3831945801
 20
58.2179956055
 10
389.3831945801
 20
58.5304962158
 10
389.3206970215
 20
58.8429968262
 10
389.1957019043
 20
59.0304959106
 10
389.0707067870998
 20
59.1554974365
 10
388.9457116698999
 20
59.2180014038
 10
388.7581933594
 20
59.2804989624
  0
LWPOLYLINE
  5
5C9
330
C6
100
AcDbEntity
  8
3_ALL_SYMBOLS
  6
Continuous
 62
     2
100
AcDbPolyline
 90
       25
 70
     0
 43
0.0
 10
390.7582177733999
 20
59.2804989624
 10
390.5706994628999
 20
59.2804989624
 10
390.3832067870998
 20
59.2180014038
 10
390.2582116698998
 20
59.1554974365
 10
390.1332165527
 20
59.0304959106
 10
390.0081958008
 20
58.8429968262
 10
389.9456982422
 20
58.5304962158
 10
389.9456982422
 20
58.2179956055
 10
390.0081958008
 20
57.9055014038
 10
390.1332165527
 20
57.7179959106
 10
390.2582116698998
 20
57.5930007935
 10
390.3832067870998
 20
57.5304968262
 10
390.5706994628999
 20
57.4679992676
 10
390.7582177733999
 20
57.4679992676
 10
390.9457104491999
 20
57.5304968262
 10
391.0707055664
 20
57.5930007935
 10
391.1957006836
 20
57.7179959106
 10
391.3206958008
 20
57.9055014038
 10
391.3831933594
 20
58.2179956055
 10
391.3831933594
 20
58.5304962158
 10
391.3206958008
 20
58.8429968262
 10
391.1957006836
 20
59.0304959106
 10
391.0707055664
 20
59.1554974365
 10
390.9457104491999
 20
59.2180014038
 10
390.7582177733999
 20
59.2804989624
  0
LINE
  5
5E4
330
C6
100
AcDbEntity
  8
3_ALL_SYMBOLS
  6
Continuous
 62
     2
100
AcDbLine
 10
391.9456970215
 20
59.2804989624
 30
0.0
 11
391.9456970215
 21
57.7804998779
 31
0.0
  0
LINE
  5
5E5
330
C6
100
AcDbEntity
  8
3_ALL_SYMBOLS
  6
Continuous
 62
     2
100
AcDbLine
 10
391.7582043457
 20
57.5930007935
 30
0.0
 11
392.8207141112999
 21
58.2179956055
 31
0.0
  0
LINE
  5
5E6
330
C6
100
AcDbEntity
  8
3_ALL_SYMBOLS
  6
Continuous
 62
     2
100
AcDbLine
 10
391.9456970215
 20
57.7804998779
 30
0.0
 11
391.9456970215
 21
57.7179959106
 31
0.0
  0
LINE
  5
5E7
330
C6
100
AcDbEntity
  8
3_ALL_SYMBOLS
  6
Continuous
 62
     2
100
AcDbLine
 10
392.2582104491999
 20
59.2180014038
 30
0.0
 11
392.8207141112999
 21
58.5304962158
 31
0.0
  0
LWPOLYLINE
  5
5E8
330
C6
100
AcDbEntity
  8
3_ALL_SYMBOLS
  6
Continuous
 62
     2
100
AcDbPolyline
 90
        7
 70
     0
 43
0.0
 10
392.1332153319998
 20
57.4679992676
 10
392.5706982422
 20
57.5930007935
 10
392.8832116699
 20
57.7179959106
 10
393.0707043457
 20
57.9055014038
 10
393.1956994629
 20
58.15549804689999
 10
393.3206945801
 20
58.5930001831
 10
393.3206945801
 20
59.2804989624
  0
LINE
  5
5F1
330
C6
100
AcDbEntity
  8
3_ALL_SYMBOLS
  6
Continuous
 62
     2
100
AcDbLine
 10
393.1956994629
 20
58.15549804689999
 30
0.0
 11
393.5707104491999
 21
57.4679992676
 31
0.0
  0
LINE
  5
5F2
330
C6
100
AcDbEntity
  8
3_ALL_SYMBOLS
  6
Continuous
 62
     2
100
AcDbLine
 10
393.758203125
 20
59.09299987789999
 30
0.0
 11
395.5082116699
 21
59.09299987789999
 31
0.0
  0
LINE
  5
5F3
330
C6
100
AcDbEntity
  8
3_ALL_SYMBOLS
  6
Continuous
 62
     2
100
AcDbLine
 10
394.5706970214999
 20
59.09299987789999
 30
0.0
 11
394.5706970214999
 21
57.4679992676
 31
0.0
  0
LINE
  5
5F4
330
C6
100
AcDbEntity
  8
3_ALL_SYMBOLS
  6
Continuous
 62
     2
100
AcDbLine
 10
394.5706970214999
 20
58.7804992676
 30
0.0
 11
395.3832165526998
 21
58.15549804689999
 31
0.0
  0
LINE
  5
5F5
330
C6
100
AcDbEntity
  8
3_ALL_SYMBOLS
  6
Continuous
 62
     2
100
AcDbLine
 10
398.0082165526998
 20
58.4055010986
 30
0.0
 11
399.2581933594
 21
58.4055010986
 31
0.0
  0
LINE
  5
5F6
330
C6
100
AcDbEntity
  8
3_ALL_SYMBOLS
  6
Continuous
 62
     2
100
AcDbLine
 10
398.6332177733999
 20
58.9679983521
 30
0.0
 11
398.6332177733999
 21
57.8429974365
 31
0.0
  0
LINE
  5
5F7
330
C6
100
AcDbEntity
  8
3_ALL_SYMBOLS
  6
Continuous
 62
     2
100
AcDbLine
 10
398.0082165526998
 20
57.7179959106
 30
0.0
 11
399.2581933594
 21
57.7179959106
 31
0.0
  0
LWPOLYLINE
  5
5F8
330
C6
100
AcDbEntity
  8
3_ALL_SYMBOLS
  6
Continuous
 62
     2
100
AcDbPolyline
 90
       19
 70
     0
 43
0.0
 10
399.9457177733999
 20
58.8429968262
 10
400.0082153319999
 20
58.9679983521
 10
400.1332104491998
 20
59.09299987789999
 10
400.320703125
 20
59.2180014038
 10
400.5706933594
 20
59.2804989624
 10
400.8207092284999
 20
59.2804989624
 10
401.0706994629
 20
59.2180014038
 10
401.2582177734
 20
59.09299987789999
 10
401.3832128905999
 20
58.9055007935
 10
401.3832128905999
 20
58.71799530029999
 10
401.3207153319997
 20
58.5930001831
 10
401.1956945800998
 20
58.46799865720001
 10
400.8832067871
 20
58.3429971313
 10
400.5706933594
 20
58.2179956055
 10
400.320703125
 20
58.030496521
 10
400.1332104491998
 20
57.8429974365
 10
400.0082153319999
 20
57.65549835209998
 10
399.9457177733999
 20
57.4679992676
 10
401.3832128905999
 20
57.4679992676
  0
LINE
  5
60D
330
C6
100
AcDbEntity
  8
3_ALL_SYMBOLS
  6
Continuous
 62
     2
100
AcDbLine
 10
401.8831933593999
 20
57.65549835209998
 30
0.0
 11
402.0082141112998
 21
57.65549835209998
 31
0.0
  0
LWPOLYLINE
  5
60E
330
C6
100
AcDbEntity
  8
3_ALL_SYMBOLS
  6
Continuous
 62
     2
100
AcDbPolyline
 90
        6
 70
     0
 43
0.0
 10
401.9457165527
 20
57.7179959106
 10
401.9457165527
 20
57.5930007935
 10
401.8831933593999
 20
57.65549835209998
 10
401.9457165527
 20
57.7179959106
 10
402.0082141112998
 20
57.65549835209998
 10
401.9457165527
 20
57.5930007935
  0
LINE
  5
616
330
C6
100
AcDbEntity
  8
3_ALL_SYMBOLS
  6
Continuous
 62
     2
100
AcDbLine
 10
403.9457153319998
 20
59.2804989624
 30
0.0
 11
405.3832104491998
 21
59.2804989624
 31
0.0
  0
LWPOLYLINE
  5
617
330
C6
100
AcDbEntity
  8
3_ALL_SYMBOLS
  6
Continuous
 62
     2
100
AcDbPolyline
 90
       19
 70
     0
 43
0.0
 10
403.9457153319998
 20
59.2804989624
 10
403.9457153319998
 20
58.4055010986
 10
404.1332080077999
 20
58.5304962158
 10
404.258203125
 20
58.5930001831
 10
404.5081933594
 20
58.6554977417
 10
404.7582092285
 20
58.6554977417
 10
405.0081994629
 20
58.5930001831
 10
405.1957177733997
 20
58.46799865720001
 10
405.3207128906
 20
58.3429971313
 10
405.3832104491998
 20
58.2179956055
 10
405.3832104491998
 20
57.96799896239999
 10
405.3207128906
 20
57.7804998779
 10
405.1957177733997
 20
57.65549835209998
 10
405.0081994629
 20
57.5304968262
 10
404.7582092285
 20
57.4679992676
 10
404.5081933594
 20
57.4679992676
 10
404.3207006835998
 20
57.5304968262
 10
404.0707104491999
 20
57.65549835209998
 10
403.9457153319998
 20
57.7804998779
  0
LWPOLYLINE
  5
62C
330
C6
100
AcDbEntity
  8
3_ALL_SYMBOLS
  6
Continuous
 62
     2
100
AcDbPolyline
 90
        4
 70
     0
 43
0.0
 10
373.0707165526998
 20
54.46800109859999
 10
373.0707165526998
 20
56.2805007935
 10
371.8832116699
 20
54.9054968262
 10
373.3832043456998
 20
54.9054968262
  0
LWPOLYLINE
  5
632
330
C6
100
AcDbEntity
  8
3_ALL_SYMBOLS
  6
Continuous
 62
     2
100
AcDbPolyline
 90
       25
 70
     0
 43
0.0
 10
374.7582019043
 20
56.2805007935
 10
374.5707092284999
 20
56.2805007935
 10
374.3832165526999
 20
56.2179968262
 10
374.2581958008
 20
56.15549926759999
 10
374.1332006836
 20
56.0304977417
 10
374.0082055664
 20
55.84299865720002
 10
373.9457080077999
 20
55.53049804689999
 10
373.9457080077999
 20
55.21799743649999
 10
374.0082055664
 20
54.9054968262
 10
374.1332006836
 20
54.7179977417
 10
374.2581958008
 20
54.5929962158
 10
374.3832165526999
 20
54.5304986572
 10
374.5707092284999
 20
54.46800109859999
 10
374.7582019043
 20
54.46800109859999
 10
374.9456945801
 20
54.5304986572
 10
375.0707153319999
 20
54.5929962158
 10
375.1957104491999
 20
54.7179977417
 10
375.3207055664
 20
54.9054968262
 10
375.383203125
 20
55.21799743649999
 10
375.383203125
 20
55.53049804689999
 10
375.3207055664
 20
55.84299865720002
 10
375.1957104491999
 20
56.0304977417
 10
375.0707153319999
 20
56.15549926759999
 10
374.9456945801
 20
56.2179968262
 10
374.7582019043
 20
56.2805007935
  0
LWPOLYLINE
  5
64D
330
C6
100
AcDbEntity
  8
3_ALL_SYMBOLS
  6
Continuous
 62
     2
100
AcDbPolyline
 90
       25
 70
     0
 43
0.0
 10
376.7582006836
 20
56.2805007935
 10
376.5707080077999
 20
56.2805007935
 10
376.3832153319999
 20
56.2179968262
 10
376.2581945801
 20
56.15549926759999
 10
376.1331994628997
 20
56.0304977417
 10
376.0082043456998
 20
55.84299865720002
 10
375.9457067871
 20
55.53049804689999
 10
375.9457067871
 20
55.21799743649999
 10
376.0082043456998
 20
54.9054968262
 10
376.1331994628997
 20
54.7179977417
 10
376.2581945801
 20
54.5929962158
 10
376.3832153319999
 20
54.5304986572
 10
376.5707080077999
 20
54.46800109859999
 10
376.7582006836
 20
54.46800109859999
 10
376.9456933594
 20
54.5304986572
 10
377.0707141113
 20
54.5929962158
 10
377.1957092285
 20
54.7179977417
 10
377.3207043456998
 20
54.9054968262
 10
377.3832019043
 20
55.21799743649999
 10
377.3832019043
 20
55.53049804689999
 10
377.3207043456998
 20
55.84299865720002
 10
377.1957092285
 20
56.0304977417
 10
377.0707141113
 20
56.15549926759999
 10
376.9456933594
 20
56.2179968262
 10
376.7582006836
 20
56.2805007935
  0
LINE
  5
668
330
C6
100
AcDbEntity
  8
3_ALL_SYMBOLS
  6
Continuous
 62
     2
100
AcDbLine
 10
377.8832080077999
 20
55.9680001831
 30
0.0
 11
379.5081958008
 21
55.9680001831
 31
0.0
  0
LINE
  5
669
330
C6
100
AcDbEntity
  8
3_ALL_SYMBOLS
  6
Continuous
 62
     2
100
AcDbLine
 10
378.6332043457
 20
56.2805007935
 30
0.0
 11
377.9457055664
 21
55.0929959106
 31
0.0
  0
LWPOLYLINE
  5
66A
330
C6
100
AcDbEntity
  8
3_ALL_SYMBOLS
  6
Continuous
 62
     2
100
AcDbPolyline
 90
        7
 70
     0
 43
0.0
 10
378.1331982422
 20
55.40549652100001
 10
378.5082092285
 20
55.5929956055
 10
378.6957019043
 20
55.6554995728
 10
378.8831945801
 20
55.6554995728
 10
379.0082153319999
 20
55.5929956055
 10
379.0707128905999
 20
55.40549652100001
 10
379.0707128905999
 20
54.8429992676
  0
LWPOLYLINE
  5
673
330
C6
100
AcDbEntity
  8
3_ALL_SYMBOLS
  6
Continuous
 62
     2
100
AcDbPolyline
 90
        9
 70
     0
 43
0.0
 10
379.5706933594
 20
55.40549652100001
 10
379.0707128905999
 20
55.2805014038
 10
378.6332043457
 20
55.0929959106
 10
378.4457116698998
 20
54.9054968262
 10
378.3832141112998
 20
54.78049530029998
 10
378.3832141112998
 20
54.6555001831
 10
378.5707067870998
 20
54.5304986572
 10
378.9457177733999
 20
54.46800109859999
 10
379.4456982422
 20
54.46800109859999
  0
LWPOLYLINE
  5
67E
330
C6
100
AcDbEntity
  8
3_ALL_SYMBOLS
  6
Continuous
 62
     2
100
AcDbPolyline
 90
        5
 70
     0
 43
0.0
 10
380.0082019042998
 20
56.0929953003
 10
380.5707055664
 20
56.0929953003
 10
380.9457165527
 20
56.0304977417
 10
381.1957067870998
 20
55.9054962158
 10
380.8206958008
 20
55.6554995728
  0
LWPOLYLINE
  5
685
330
C6
100
AcDbEntity
  8
3_ALL_SYMBOLS
  6
Continuous
 62
     2
100
AcDbPolyline
 90
        9
 70
     0
 43
0.0
 10
380.1331970215
 20
55.2805014038
 10
379.8832067870998
 20
55.03049835209999
 10
379.8207092285
 20
54.9054968262
 10
379.8207092285
 20
54.7179977417
 10
379.9457043457
 20
54.5929962158
 10
380.2582177733999
 20
54.5304986572
 10
380.6957006836
 20
54.46800109859999
 10
381.0707116698998
 20
54.46800109859999
 10
381.5081945800999
 20
54.5304986572
  0
LINE
  5
690
330
C6
100
AcDbEntity
  8
3_ALL_SYMBOLS
  6
Continuous
 62
     2
100
AcDbLine
 10
382.3832116699
 20
56.2179968262
 30
0.0
 11
383.3207006836
 21
56.0929953003
 31
0.0
  0
LWPOLYLINE
  5
691
330
C6
100
AcDbEntity
  8
3_ALL_SYMBOLS
  6
Continuous
 62
     2
100
AcDbPolyline
 90
       12
 70
     0
 43
0.0
 10
382.0706982422
 20
55.7805010986
 10
383.258203125
 20
55.7805010986
 10
381.8207080078
 20
54.5304986572
 10
382.5082067870998
 20
55.03049835209999
 10
382.6956994629
 20
55.0929959106
 10
382.8206945800999
 20
55.0929959106
 10
382.8832177733999
 20
55.03049835209999
 10
382.8832177733999
 20
54.9054968262
 10
382.8832177733999
 20
54.6555001831
 10
382.9457153319999
 20
54.5304986572
 10
383.1332080077999
 20
54.46800109859999
 10
383.5707165526999
 20
54.46800109859999
  0
LWPOLYLINE
  5
69F
330
C6
100
AcDbEntity
  8
3_ALL_SYMBOLS
  6
Continuous
 62
     2
100
AcDbPolyline
 90
        3
 70
     0
 43
0.0
 10
384.8206933594
 20
54.46800109859999
 10
384.8206933594
 20
56.2805007935
 10
384.3207128905999
 20
55.7805010986
  0
LWPOLYLINE
  5
6A4
330
C6
100
AcDbEntity
  8
3_ALL_SYMBOLS
  6
Continuous
 62
     2
100
AcDbPolyline
 90
       25
 70
     0
 43
0.0
 10
386.7581945801
 20
56.2805007935
 10
386.5707019043
 20
56.2805007935
 10
386.3832092284999
 20
56.2179968262
 10
386.2582141113
 20
56.15549926759999
 10
386.1331933594
 20
56.0304977417
 10
386.0081982422
 20
55.84299865720002
 10
385.9457006836
 20
55.53049804689999
 10
385.9457006836
 20
55.21799743649999
 10
386.0081982422
 20
54.9054968262
 10
386.1331933594
 20
54.7179977417
 10
386.2582141113
 20
54.5929962158
 10
386.3832092284999
 20
54.5304986572
 10
386.5707019043
 20
54.46800109859999
 10
386.7581945801
 20
54.46800109859999
 10
386.9457128905999
 20
54.5304986572
 10
387.0707080077999
 20
54.5929962158
 10
387.195703125
 20
54.7179977417
 10
387.3206982422
 20
54.9054968262
 10
387.3831958008
 20
55.21799743649999
 10
387.3831958008
 20
55.53049804689999
 10
387.3206982422
 20
55.84299865720002
 10
387.195703125
 20
56.0304977417
 10
387.0707080077999
 20
56.15549926759999
 10
386.9457128905999
 20
56.2179968262
 10
386.7581945801
 20
56.2805007935
  0
LWPOLYLINE
  5
6BF
330
C6
100
AcDbEntity
  8
3_ALL_SYMBOLS
  6
Continuous
 62
     2
100
AcDbPolyline
 90
       25
 70
     0
 43
0.0
 10
388.7581933594
 20
56.2805007935
 10
388.5707006836
 20
56.2805007935
 10
388.3832080077999
 20
56.2179968262
 10
388.2582128905998
 20
56.15549926759999
 10
388.1332177733998
 20
56.0304977417
 10
388.0081970215
 20
55.84299865720002
 10
387.9456994628997
 20
55.53049804689999
 10
387.9456994628997
 20
55.21799743649999
 10
388.0081970215
 20
54.9054968262
 10
388.1332177733998
 20
54.7179977417
 10
388.2582128905998
 20
54.5929962158
 10
388.3832080077999
 20
54.5304986572
 10
388.5707006836
 20
54.46800109859999
 10
388.7581933594
 20
54.46800109859999
 10
388.9457116698999
 20
54.5304986572
 10
389.0707067870998
 20
54.5929962158
 10
389.1957019043
 20
54.7179977417
 10
389.3206970215
 20
54.9054968262
 10
389.3831945801
 20
55.21799743649999
 10
389.3831945801
 20
55.53049804689999
 10
389.3206970215
 20
55.84299865720002
 10
389.1957019043
 20
56.0304977417
 10
389.0707067870998
 20
56.15549926759999
 10
388.9457116698999
 20
56.2179968262
 10
388.7581933594
 20
56.2805007935
  0
LWPOLYLINE
  5
6DA
330
C6
100
AcDbEntity
  8
3_ALL_SYMBOLS
  6
Continuous
 62
     2
100
AcDbPolyline
 90
       25
 70
     0
 43
0.0
 10
390.7582177733999
 20
56.2805007935
 10
390.5706994628999
 20
56.2805007935
 10
390.3832067870998
 20
56.2179968262
 10
390.2582116698998
 20
56.15549926759999
 10
390.1332165527
 20
56.0304977417
 10
390.0081958008
 20
55.84299865720002
 10
389.9456982422
 20
55.53049804689999
 10
389.9456982422
 20
55.21799743649999
 10
390.0081958008
 20
54.9054968262
 10
390.1332165527
 20
54.7179977417
 10
390.2582116698998
 20
54.5929962158
 10
390.3832067870998
 20
54.5304986572
 10
390.5706994628999
 20
54.46800109859999
 10
390.7582177733999
 20
54.46800109859999
 10
390.9457104491999
 20
54.5304986572
 10
391.0707055664
 20
54.5929962158
 10
391.1957006836
 20
54.7179977417
 10
391.3206958008
 20
54.9054968262
 10
391.3831933594
 20
55.21799743649999
 10
391.3831933594
 20
55.53049804689999
 10
391.3206958008
 20
55.84299865720002
 10
391.1957006836
 20
56.0304977417
 10
391.0707055664
 20
56.15549926759999
 10
390.9457104491999
 20
56.2179968262
 10
390.7582177733999
 20
56.2805007935
  0
LINE
  5
6F5
330
C6
100
AcDbEntity
  8
3_ALL_SYMBOLS
  6
Continuous
 62
     2
100
AcDbLine
 10
391.9456970215
 20
56.2805007935
 30
0.0
 11
391.9456970215
 21
54.78049530029998
 31
0.0
  0
LINE
  5
6F6
330
C6
100
AcDbEntity
  8
3_ALL_SYMBOLS
  6
Continuous
 62
     2
100
AcDbLine
 10
391.7582043457
 20
54.5929962158
 30
0.0
 11
392.8207141112999
 21
55.21799743649999
 31
0.0
  0
LINE
  5
6F7
330
C6
100
AcDbEntity
  8
3_ALL_SYMBOLS
  6
Continuous
 62
     2
100
AcDbLine
 10
391.9456970215
 20
54.78049530029998
 30
0.0
 11
391.9456970215
 21
54.7179977417
 31
0.0
  0
LINE
  5
6F8
330
C6
100
AcDbEntity
  8
3_ALL_SYMBOLS
  6
Continuous
 62
     2
100
AcDbLine
 10
392.2582104491999
 20
56.2179968262
 30
0.0
 11
392.8207141112999
 21
55.53049804689999
 31
0.0
  0
LWPOLYLINE
  5
6F9
330
C6
100
AcDbEntity
  8
3_ALL_SYMBOLS
  6
Continuous
 62
     2
100
AcDbPolyline
 90
        7
 70
     0
 43
0.0
 10
392.1332153319998
 20
54.46800109859999
 10
392.5706982422
 20
54.5929962158
 10
392.8832116699
 20
54.7179977417
 10
393.0707043457
 20
54.9054968262
 10
393.1956994629
 20
55.1554998779
 10
393.3206945801
 20
55.5929956055
 10
393.3206945801
 20
56.2805007935
  0
LINE
  5
702
330
C6
100
AcDbEntity
  8
3_ALL_SYMBOLS
  6
Continuous
 62
     2
100
AcDbLine
 10
393.1956994629
 20
55.1554998779
 30
0.0
 11
393.5707104491999
 21
54.46800109859999
 31
0.0
  0
LINE
  5
703
330
C6
100
AcDbEntity
  8
3_ALL_SYMBOLS
  6
Continuous
 62
     2
100
AcDbLine
 10
393.758203125
 20
56.0929953003
 30
0.0
 11
395.5082116699
 21
56.0929953003
 31
0.0
  0
LINE
  5
704
330
C6
100
AcDbEntity
  8
3_ALL_SYMBOLS
  6
Continuous
 62
     2
100
AcDbLine
 10
394.5706970214999
 20
56.0929953003
 30
0.0
 11
394.5706970214999
 21
54.46800109859999
 31
0.0
  0
LINE
  5
705
330
C6
100
AcDbEntity
  8
3_ALL_SYMBOLS
  6
Continuous
 62
     2
100
AcDbLine
 10
394.5706970214999
 20
55.7805010986
 30
0.0
 11
395.3832165526998
 21
55.1554998779
 31
0.0
  0
LINE
  5
706
330
C6
100
AcDbEntity
  8
3_ALL_SYMBOLS
  6
Continuous
 62
     2
100
AcDbLine
 10
398.0082165526998
 20
55.40549652100001
 30
0.0
 11
399.2581933594
 21
55.40549652100001
 31
0.0
  0
LINE
  5
707
330
C6
100
AcDbEntity
  8
3_ALL_SYMBOLS
  6
Continuous
 62
     2
100
AcDbLine
 10
398.6332177733999
 20
55.9680001831
 30
0.0
 11
398.6332177733999
 21
54.8429992676
 31
0.0
  0
LINE
  5
708
330
C6
100
AcDbEntity
  8
3_ALL_SYMBOLS
  6
Continuous
 62
     2
100
AcDbLine
 10
398.0082165526998
 20
54.7179977417
 30
0.0
 11
399.2581933594
 21
54.7179977417
 31
0.0
  0
LWPOLYLINE
  5
709
330
C6
100
AcDbEntity
  8
3_ALL_SYMBOLS
  6
Continuous
 62
     2
100
AcDbPolyline
 90
        4
 70
     0
 43
0.0
 10
401.0706994629
 20
54.46800109859999
 10
401.0706994629
 20
56.2805007935
 10
399.8831945801
 20
54.9054968262
 10
401.3832128905999
 20
54.9054968262
  0
LWPOLYLINE
  5
70F
330
C6
100
AcDbEntity
  8
3_ALL_SYMBOLS
  6
Continuous
 62
     2
100
AcDbPolyline
 90
        3
 70
     0
 43
0.0
 10
370.8207019042998
 20
51.467996521
 10
370.8207019042998
 20
53.28049621579999
 10
370.3206958008
 20
52.780496521
  0
LWPOLYLINE
  5
714
330
C6
100
AcDbEntity
  8
3_ALL_SYMBOLS
  6
Continuous
 62
     2
100
AcDbPolyline
 90
       25
 70
     0
 43
0.0
 10
372.758203125
 20
53.28049621579999
 10
372.5707104491998
 20
53.28049621579999
 10
372.3832177733999
 20
53.2179986572
 10
372.2581970214997
 20
53.1555010986
 10
372.1332019042998
 20
53.03049957279998
 10
372.0082067871
 20
52.8430004883
 10
371.9457092284999
 20
52.53049987789999
 10
371.9457092284999
 20
52.2179992676
 10
372.0082067871
 20
51.90549865720001
 10
372.1332019042998
 20
51.7179995728
 10
372.2581970214997
 20
51.59299804689999
 10
372.3832177733999
 20
51.53050048829999
 10
372.5707104491998
 20
51.467996521
 10
372.758203125
 20
51.467996521
 10
372.9456958008
 20
51.53050048829999
 10
373.0707165526998
 20
51.59299804689999
 10
373.1957116699
 20
51.7179995728
 10
373.3207067871
 20
51.90549865720001
 10
373.3832043456998
 20
52.2179992676
 10
373.3832043456998
 20
52.53049987789999
 10
373.3207067871
 20
52.8430004883
 10
373.1957116699
 20
53.03049957279998
 10
373.0707165526998
 20
53.1555010986
 10
372.9456958008
 20
53.2179986572
 10
372.758203125
 20
53.28049621579999
  0
LWPOLYLINE
  5
72F
330
C6
100
AcDbEntity
  8
3_ALL_SYMBOLS
  6
Continuous
 62
     2
100
AcDbPolyline
 90
       25
 70
     0
 43
0.0
 10
374.7582019043
 20
53.28049621579999
 10
374.5707092284999
 20
53.28049621579999
 10
374.3832165526999
 20
53.2179986572
 10
374.2581958008
 20
53.1555010986
 10
374.1332006836
 20
53.03049957279998
 10
374.0082055664
 20
52.8430004883
 10
373.9457080077999
 20
52.53049987789999
 10
373.9457080077999
 20
52.2179992676
 10
374.0082055664
 20
51.90549865720001
 10
374.1332006836
 20
51.7179995728
 10
374.2581958008
 20
51.59299804689999
 10
374.3832165526999
 20
51.53050048829999
 10
374.5707092284999
 20
51.467996521
 10
374.7582019043
 20
51.467996521
 10
374.9456945801
 20
51.53050048829999
 10
375.0707153319999
 20
51.59299804689999
 10
375.1957104491999
 20
51.7179995728
 10
375.3207055664
 20
51.90549865720001
 10
375.383203125
 20
52.2179992676
 10
375.383203125
 20
52.53049987789999
 10
375.3207055664
 20
52.8430004883
 10
375.1957104491999
 20
53.03049957279998
 10
375.0707153319999
 20
53.1555010986
 10
374.9456945801
 20
53.2179986572
 10
374.7582019043
 20
53.28049621579999
  0
LWPOLYLINE
  5
74A
330
C6
100
AcDbEntity
  8
3_ALL_SYMBOLS
  6
Continuous
 62
     2
100
AcDbPolyline
 90
       25
 70
     0
 43
0.0
 10
376.7582006836
 20
53.28049621579999
 10
376.5707080077999
 20
53.28049621579999
 10
376.3832153319999
 20
53.2179986572
 10
376.2581945801
 20
53.1555010986
 10
376.1331994628997
 20
53.03049957279998
 10
376.0082043456998
 20
52.8430004883
 10
375.9457067871
 20
52.53049987789999
 10
375.9457067871
 20
52.2179992676
 10
376.0082043456998
 20
51.90549865720001
 10
376.1331994628997
 20
51.7179995728
 10
376.2581945801
 20
51.59299804689999
 10
376.3832153319999
 20
51.53050048829999
 10
376.5707080077999
 20
51.467996521
 10
376.7582006836
 20
51.467996521
 10
376.9456933594
 20
51.53050048829999
 10
377.0707141113
 20
51.59299804689999
 10
377.1957092285
 20
51.7179995728
 10
377.3207043456998
 20
51.90549865720001
 10
377.3832019043
 20
52.2179992676
 10
377.3832019043
 20
52.53049987789999
 10
377.3207043456998
 20
52.8430004883
 10
377.1957092285
 20
53.03049957279998
 10
377.0707141113
 20
53.1555010986
 10
376.9456933594
 20
53.2179986572
 10
376.7582006836
 20
53.28049621579999
  0
LINE
  5
765
330
C6
100
AcDbEntity
  8
3_ALL_SYMBOLS
  6
Continuous
 62
     2
100
AcDbLine
 10
377.8832080077999
 20
52.9679956055
 30
0.0
 11
379.5081958008
 21
52.9679956055
 31
0.0
  0
LINE
  5
766
330
C6
100
AcDbEntity
  8
3_ALL_SYMBOLS
  6
Continuous
 62
     2
100
AcDbLine
 10
378.6332043457
 20
53.28049621579999
 30
0.0
 11
377.9457055664
 21
52.0929977417
 31
0.0
  0
LWPOLYLINE
  5
767
330
C6
100
AcDbEntity
  8
3_ALL_SYMBOLS
  6
Continuous
 62
     2
100
AcDbPolyline
 90
        7
 70
     0
 43
0.0
 10
378.1331982422
 20
52.4054983521
 10
378.5082092285
 20
52.5929974365
 10
378.6957019043
 20
52.6555014038
 10
378.8831945801
 20
52.6555014038
 10
379.0082153319999
 20
52.5929974365
 10
379.0707128905999
 20
52.4054983521
 10
379.0707128905999
 20
51.8430010986
  0
LWPOLYLINE
  5
770
330
C6
100
AcDbEntity
  8
3_ALL_SYMBOLS
  6
Continuous
 62
     2
100
AcDbPolyline
 90
        9
 70
     0
 43
0.0
 10
379.5706933594
 20
52.4054983521
 10
379.0707128905999
 20
52.2804968262
 10
378.6332043457
 20
52.0929977417
 10
378.4457116698998
 20
51.90549865720001
 10
378.3832141112998
 20
51.7804971313
 10
378.3832141112998
 20
51.6554956055
 10
378.5707067870998
 20
51.53050048829999
 10
378.9457177733999
 20
51.467996521
 10
379.4456982422
 20
51.467996521
  0
LWPOLYLINE
  5
77B
330
C6
100
AcDbEntity
  8
3_ALL_SYMBOLS
  6
Continuous
 62
     2
100
AcDbPolyline
 90
        5
 70
     0
 43
0.0
 10
380.0082019042998
 20
53.0929971313
 10
380.5707055664
 20
53.0929971313
 10
380.9457165527
 20
53.03049957279998
 10
381.1957067870998
 20
52.90549804689999
 10
380.8206958008
 20
52.6555014038
  0
LWPOLYLINE
  5
782
330
C6
100
AcDbEntity
  8
3_ALL_SYMBOLS
  6
Continuous
 62
     2
100
AcDbPolyline
 90
        9
 70
     0
 43
0.0
 10
380.1331970215
 20
52.2804968262
 10
379.8832067870998
 20
52.0305001831
 10
379.8207092285
 20
51.90549865720001
 10
379.8207092285
 20
51.7179995728
 10
379.9457043457
 20
51.59299804689999
 10
380.2582177733999
 20
51.53050048829999
 10
380.6957006836
 20
51.467996521
 10
381.0707116698998
 20
51.467996521
 10
381.5081945800999
 20
51.53050048829999
  0
LINE
  5
78D
330
C6
100
AcDbEntity
  8
3_ALL_SYMBOLS
  6
Continuous
 62
     2
100
AcDbLine
 10
382.3832116699
 20
53.2179986572
 30
0.0
 11
383.3207006836
 21
53.0929971313
 31
0.0
  0
LWPOLYLINE
  5
78E
330
C6
100
AcDbEntity
  8
3_ALL_SYMBOLS
  6
Continuous
 62
     2
100
AcDbPolyline
 90
       12
 70
     0
 43
0.0
 10
382.0706982422
 20
52.780496521
 10
383.258203125
 20
52.780496521
 10
381.8207080078
 20
51.53050048829999
 10
382.5082067870998
 20
52.0305001831
 10
382.6956994629
 20
52.0929977417
 10
382.8206945800999
 20
52.0929977417
 10
382.8832177733999
 20
52.0305001831
 10
382.8832177733999
 20
51.90549865720001
 10
382.8832177733999
 20
51.6554956055
 10
382.9457153319999
 20
51.53050048829999
 10
383.1332080077999
 20
51.467996521
 10
383.5707165526999
 20
51.467996521
  0
LWPOLYLINE
  5
79C
330
C6
100
AcDbEntity
  8
3_ALL_SYMBOLS
  6
Continuous
 62
     2
100
AcDbPolyline
 90
       25
 70
     0
 43
0.0
 10
384.0706970214997
 20
53.0929971313
 10
385.1957043456998
 20
53.0929971313
 10
383.8832043456998
 20
52.15549530029999
 10
384.570703125
 20
52.53049987789999
 10
384.9457141112998
 20
52.5929974365
 10
385.2582019043
 20
52.5929974365
 10
385.4456945801
 20
52.53049987789999
 10
385.5707153319999
 20
52.3430007935
 10
385.5707153319999
 20
52.15549530029999
 10
385.5707153319999
 20
52.0929977417
 10
385.5082177733999
 20
51.9679962158
 10
385.3831970214999
 20
51.7804971313
 10
385.1957043456998
 20
51.6554956055
 10
384.9457141112998
 20
51.59299804689999
 10
384.6332006836
 20
51.59299804689999
 10
384.3832104491998
 20
51.6554956055
 10
384.1957177733999
 20
51.7804971313
 10
384.1331945801
 20
51.8430010986
 10
384.1331945801
 20
51.90549865720001
 10
384.1957177733999
 20
51.9679962158
 10
384.3207128905999
 20
52.0305001831
 10
384.5082055664
 20
52.0305001831
 10
384.6956982422
 20
51.9679962158
 10
384.8206933594
 20
51.8430010986
 10
384.9457141112998
 20
51.59299804689999
  0
LINE
  5
7B7
330
C6
100
AcDbEntity
  8
3_ALL_SYMBOLS
  6
Continuous
 62
     2
100
AcDbLine
 10
385.883203125
 20
52.90549804689999
 30
0.0
 11
387.195703125
 21
52.90549804689999
 31
0.0
  0
LWPOLYLINE
  5
7B8
330
C6
100
AcDbEntity
  8
3_ALL_SYMBOLS
  6
Continuous
 62
     2
100
AcDbPolyline
 90
        7
 70
     0
 43
0.0
 10
385.9457006836
 20
52.5929974365
 10
385.8207055664
 20
52.4679959106
 10
385.7582080077999
 20
52.4054983521
 10
385.7582080077999
 20
52.3430007935
 10
385.8207055664
 20
52.2804968262
 10
386.3832092284999
 20
52.2179992676
 10
387.0082104491999
 20
52.3430007935
  0
LWPOLYLINE
  5
7C1
330
C6
100
AcDbEntity
  8
3_ALL_SYMBOLS
  6
Continuous
 62
     2
100
AcDbPolyline
 90
       11
 70
     0
 43
0.0
 10
386.4457067871
 20
53.28049621579999
 10
386.3207116698998
 20
51.6554956055
 10
386.3207116698998
 20
51.59299804689999
 10
386.3832092284999
 20
51.53050048829999
 10
386.5082043456998
 20
51.467996521
 10
387.2582006836
 20
51.467996521
 10
387.3831958008
 20
51.59299804689999
 10
387.4456933594
 20
51.7179995728
 10
387.4456933594
 20
51.8430010986
 10
387.3831958008
 20
52.0305001831
 10
387.2582006836
 20
52.3430007935
  0
LWPOLYLINE
  5
7CE
330
C6
100
AcDbEntity
  8
3_ALL_SYMBOLS
  6
Continuous
 62
     2
100
AcDbPolyline
 90
       23
 70
     0
 43
0.0
 10
388.7581933594
 20
53.0929971313
 10
388.6956958008
 20
52.53049987789999
 10
388.5707006836
 20
51.9679962158
 10
388.4457055664
 20
51.6554956055
 10
388.3207104491999
 20
51.53050048829999
 10
388.1957153319999
 20
51.53050048829999
 10
388.0081970215
 20
51.6554956055
 10
387.9456994628997
 20
51.90549865720001
 10
387.8832019043
 20
52.15549530029999
 10
387.8832019043
 20
52.4679959106
 10
388.0081970215
 20
52.8430004883
 10
388.3207104491999
 20
53.0929971313
 10
388.7581933594
 20
53.0929971313
 10
389.0707067870998
 20
53.03049957279998
 10
389.3206970215
 20
52.90549804689999
 10
389.5082153319999
 20
52.6555014038
 10
389.5707128905998
 20
52.4054983521
 10
389.5707128905998
 20
52.0929977417
 10
389.5082153319999
 20
51.90549865720001
 10
389.3831945801
 20
51.7179995728
 10
389.1957019043
 20
51.59299804689999
 10
389.0082092285
 20
51.53050048829999
 10
388.7581933594
 20
51.467996521
  0
LINE
  5
7E7
330
C6
100
AcDbEntity
  8
3_ALL_SYMBOLS
  6
Continuous
 62
     2
100
AcDbLine
 10
398.0082165526998
 20
52.4054983521
 30
0.0
 11
399.2581933594
 21
52.4054983521
 31
0.0
  0
LINE
  5
7E8
330
C6
100
AcDbEntity
  8
3_ALL_SYMBOLS
  6
Continuous
 62
     2
100
AcDbLine
 10
398.6332177733999
 20
52.9679956055
 30
0.0
 11
398.6332177733999
 21
51.8430010986
 31
0.0
  0
LINE
  5
7E9
330
C6
100
AcDbEntity
  8
3_ALL_SYMBOLS
  6
Continuous
 62
     2
100
AcDbLine
 10
398.0082165526998
 20
51.7179995728
 30
0.0
 11
399.2581933594
 21
51.7179995728
 31
0.0
  0
LWPOLYLINE
  5
7EA
330
C6
100
AcDbEntity
  8
3_ALL_SYMBOLS
  6
Continuous
 62
     2
100
AcDbPolyline
 90
       30
 70
     0
 43
0.0
 10
401.3832128905999
 20
52.90549804689999
 10
401.2582177734
 20
53.0929971313
 10
401.0706994629
 20
53.2179986572
 10
400.8207092284999
 20
53.28049621579999
 10
400.6332165526997
 20
53.28049621579999
 10
400.3832006836
 20
53.2179986572
 10
400.1957080077999
 20
53.0929971313
 10
400.0707128905998
 20
52.90549804689999
 10
399.9457177733999
 20
52.53049987789999
 10
399.9457177733999
 20
52.15549530029999
 10
400.0082153319999
 20
51.90549865720001
 10
400.0707128905998
 20
51.7804971313
 10
400.1957080077999
 20
51.6554956055
 10
400.3832006836
 20
51.53050048829999
 10
400.5706933594
 20
51.467996521
 10
400.8207092284999
 20
51.467996521
 10
401.0706994629
 20
51.53050048829999
 10
401.1956945800998
 20
51.59299804689999
 10
401.3207153319997
 20
51.7804971313
 10
401.3832128905999
 20
51.9679962158
 10
401.3832128905999
 20
52.15549530029999
 10
401.3207153319997
 20
52.3430007935
 10
401.1956945800998
 20
52.4679959106
 10
401.0082019042997
 20
52.5929974365
 10
400.8207092284999
 20
52.6555014038
 10
400.5706933594
 20
52.6555014038
 10
400.3832006836
 20
52.5929974365
 10
400.1957080077999
 20
52.4679959106
 10
400.0707128905998
 20
52.3430007935
 10
399.9457177733999
 20
52.15549530029999
  0
LINE
  5
80A
330
C6
100
AcDbEntity
  8
3_ALL_SYMBOLS
  6
Continuous
 62
     7
100
AcDbLine
 10
369.36506751
 20
50.67255382199999
 30
0.0
 11
369.36506751
 21
77.672553822
 31
0.0
  0
LINE
  5
80B
330
C6
100
AcDbEntity
  8
3_ALL_SYMBOLS
  6
Continuous
 62
     7
100
AcDbLine
 10
407.36506751
 20
50.67255382199999
 30
0.0
 11
369.36506751
 21
50.67255382199999
 31
0.0
  0
LINE
  5
80C
330
C6
100
AcDbEntity
  8
3_ALL_SYMBOLS
  6
Continuous
 62
     7
100
AcDbLine
 10
369.36506751
 20
53.67255382199999
 30
0.0
 11
407.36506751
 21
53.67255382199999
 31
0.0
  0
LINE
  5
80D
330
C6
100
AcDbEntity
  8
3_ALL_SYMBOLS
  6
Continuous
 62
     7
100
AcDbLine
 10
369.36506751
 20
56.672553822
 30
0.0
 11
407.36506751
 21
56.672553822
 31
0.0
  0
LINE
  5
80E
330
C6
100
AcDbEntity
  8
3_ALL_SYMBOLS
  6
Continuous
 62
     7
100
AcDbLine
 10
369.36506751
 20
59.672553822
 30
0.0
 11
407.36506751
 21
59.672553822
 31
0.0
  0
LINE
  5
80F
330
C6
100
AcDbEntity
  8
3_ALL_SYMBOLS
  6
Continuous
 62
     7
100
AcDbLine
 10
369.36506751
 20
62.672553822
 30
0.0
 11
407.36506751
 21
62.672553822
 31
0.0
  0
LINE
  5
810
330
C6
100
AcDbEntity
  8
3_ALL_SYMBOLS
  6
Continuous
 62
     7
100
AcDbLine
 10
369.36506751
 20
65.67255382199999
 30
0.0
 11
407.36506751
 21
65.67255382199999
 31
0.0
  0
LINE
  5
811
330
C6
100
AcDbEntity
  8
3_ALL_SYMBOLS
  6
Continuous
 62
     7
100
AcDbLine
 10
369.36506751
 20
68.67255382199998
 30
0.0
 11
407.36506751
 21
68.67255382199998
 31
0.0
  0
LINE
  5
812
330
C6
100
AcDbEntity
  8
3_ALL_SYMBOLS
  6
Continuous
 62
     7
100
AcDbLine
 10
397.36506751
 20
71.672553822
 30
0.0
 11
397.36506751
 21
50.67255382199999
 31
0.0
  0
LINE
  5
813
330
C6
100
AcDbEntity
  8
3_ALL_SYMBOLS
  6
Continuous
 62
     7
100
AcDbLine
 10
369.36506751
 20
71.672553822
 30
0.0
 11
407.36506751
 21
71.672553822
 31
0.0
  0
LINE
  5
814
330
C6
100
AcDbEntity
  8
3_ALL_SYMBOLS
  6
Continuous
 62
     7
100
AcDbLine
 10
369.36506751
 20
77.672553822
 30
0.0
 11
407.36506751
 21
77.672553822
 31
0.0
  0
LINE
  5
815
330
C6
100
AcDbEntity
  8
3_ALL_SYMBOLS
  6
Continuous
 62
     7
100
AcDbLine
 10
407.36506751
 20
77.672553822
 30
0.0
 11
407.36506751
 21
50.67255382199999
 31
0.0
  0
ENDBLK
  5
816
330
C6
100
AcDbEntity
  8
0
  6
ByBlock
 62
     0
100
AcDbBlockEnd
  0
BLOCK
  5
2052
330
204E
100
AcDbEntity
  8
0
100
AcDbBlockBegin
  2
_OPEN30
 70
     0
 10
0.0
 20
0.0
 30
0.0
  3
_OPEN30
  1

  0
LINE
  5
204F
330
204E
100
AcDbEntity
  8
0
  6
ByBlock
 62
     0
100
AcDbLine
 10
-1.0
 20
0.26794919
 30
0.0
 11
0.0
 21
0.0
 31
0.0
  0
LINE
  5
2050
330
204E
100
AcDbEntity
  8
0
  6
ByBlock
 62
     0
100
AcDbLine
 10
0.0
 20
0.0
 30
0.0
 11
-1.0
 21
-0.26794919
 31
0.0
  0
LINE
  5
2051
330
204E
100
AcDbEntity
  8
0
  6
ByBlock
 62
     0
100
AcDbLine
 10
0.0
 20
0.0
 30
0.0
 11
-1.0
 21
0.0
 31
0.0
  0
ENDBLK
  5
2053
330
204E
100
AcDbEntity
  8
0
100
AcDbBlockEnd
  0
BLOCK
  5
218F
330
2184
100
AcDbEntity
  8
0
100
AcDbBlockBegin
  2
*D10
 70
     1
 10
0.0
 20
0.0
 30
0.0
  3
*D10
  1

  0
LINE
  5
2359
330
2184
100
AcDbEntity
  8
___SHELL
 62
     0
370
    -2
100
AcDbLine
 10
206.4323001009999
 20
68.99691404459648
 30
0.0
 11
206.4323001009999
 21
105.5869203708964
 31
0.0
  0
LINE
  5
235A
330
2184
100
AcDbEntity
  8
___SHELL
 62
     0
370
    -2
100
AcDbLine
 10
236.4323001009998
 20
67.39755833829646
 30
0.0
 11
236.4323001009998
 21
105.5869203708964
 31
0.0
  0
LINE
  5
235B
330
2184
100
AcDbEntity
  8
___SHELL
 62
     0
370
    -2
100
AcDbLine
 10
208.4323001009999
 20
104.5869203708964
 30
0.0
 11
234.4323001009998
 21
104.5869203708964
 31
0.0
  0
MTEXT
  5
235C
330
2184
100
AcDbEntity
  8
___SHELL
 62
     0
100
AcDbMText
 10
220.4457307374105
 20
106.9378143187497
 30
0.0
 40
2.5
 41
0.0
 71
     5
 72
     1
  1
\A1;30
 73
     1
 44
1.0
  0
INSERT
  5
235D
330
2184
100
AcDbEntity
  8
___SHELL
 62
     0
370
    -2
100
AcDbBlockReference
  2
_OPEN
 10
206.4323001009999
 20
104.5869203708964
 30
0.0
 41
2.0
 42
2.0
 43
2.0
 50
180.0
  0
INSERT
  5
235E
330
2184
100
AcDbEntity
  8
___SHELL
 62
     0
370
    -2
100
AcDbBlockReference
  2
_OPEN
 10
236.4323001009998
 20
104.5869203708964
 30
0.0
 41
2.0
 42
2.0
 43
2.0
  0
POINT
  5
235F
330
2184
100
AcDbEntity
  8
Defpoints
 62
     0
100
AcDbPoint
 10
206.4323001009999
 20
68.99691404459648
 30
0.0
  0
POINT
  5
2360
330
2184
100
AcDbEntity
  8
Defpoints
 62
     0
100
AcDbPoint
 10
236.4323001009998
 20
67.39755833829646
 30
0.0
  0
POINT
  5
2361
330
2184
100
AcDbEntity
  8
Defpoints
 62
     0
100
AcDbPoint
 10
236.4323001009998
 20
104.5869203708964
 30
0.0
  0
ENDBLK
  5
2190
330
2184
100
AcDbEntity
  8
0
100
AcDbBlockEnd
  0
BLOCK
  5
219C
330
2191
100
AcDbEntity
  8
0
100
AcDbBlockBegin
  2
*D11
 70
     1
 10
0.0
 20
0.0
 30
0.0
  3
*D11
  1

  0
LINE
  5
2350
330
2191
100
AcDbEntity
  8
___SHELL
 62
     0
370
    -2
100
AcDbLine
 10
206.4323001009999
 20
68.99691404459648
 30
0.0
 11
206.4323001009999
 21
105.5869203708964
 31
0.0
  0
LINE
  5
2351
330
2191
100
AcDbEntity
  8
___SHELL
 62
     0
370
    -2
100
AcDbLine
 10
125.6101328780999
 20
62.83413242349646
 30
0.0
 11
125.6101328780999
 21
105.5869203708964
 31
0.0
  0
LINE
  5
2352
330
2191
100
AcDbEntity
  8
___SHELL
 62
     0
370
    -2
100
AcDbLine
 10
204.4323001009999
 20
104.5869203708964
 30
0.0
 11
127.6101328780999
 21
104.5869203708964
 31
0.0
  0
MTEXT
  5
2353
330
2191
100
AcDbEntity
  8
___SHELL
 62
     0
100
AcDbMText
 10
165.2041995385799
 20
107.1147841018294
 30
0.0
 40
2.5
 41
0.0
 71
     5
 72
     1
  1
\A1;81
 73
     1
 44
1.0
  0
INSERT
  5
2354
330
2191
100
AcDbEntity
  8
___SHELL
 62
     0
370
    -2
100
AcDbBlockReference
  2
_OPEN
 10
206.4323001009999
 20
104.5869203708964
 30
0.0
 41
2.0
 42
2.0
 43
2.0
  0
INSERT
  5
2355
330
2191
100
AcDbEntity
  8
___SHELL
 62
     0
370
    -2
100
AcDbBlockReference
  2
_OPEN
 10
125.6101328780999
 20
104.5869203708964
 30
0.0
 41
2.0
 42
2.0
 43
2.0
 50
180.0
  0
POINT
  5
2356
330
2191
100
AcDbEntity
  8
Defpoints
 62
     0
100
AcDbPoint
 10
206.4323001009999
 20
68.99691404459648
 30
0.0
  0
POINT
  5
2357
330
2191
100
AcDbEntity
  8
Defpoints
 62
     0
100
AcDbPoint
 10
125.6101328780999
 20
62.83413242349646
 30
0.0
  0
POINT
  5
2358
330
2191
100
AcDbEntity
  8
Defpoints
 62
     0
100
AcDbPoint
 10
125.6101328780999
 20
104.5869203708964
 30
0.0
  0
ENDBLK
  5
219D
330
2191
100
AcDbEntity
  8
0
100
AcDbBlockEnd
  0
BLOCK
  5
21CF
330
21C4
100
AcDbEntity
  8
0
100
AcDbBlockBegin
  2
*D12
 70
     1
 10
0.0
 20
0.0
 30
0.0
  3
*D12
  1

  0
LINE
  5
236B
330
21C4
100
AcDbEntity
  8
___SHELL
 62
     0
370
    -2
100
AcDbLine
 10
125.6101328780999
 20
236.142422503348
 30
0.0
 11
125.6101328780999
 21
280.5101507720479
 31
0.0
  0
LINE
  5
236C
330
21C4
100
AcDbEntity
  8
___SHELL
 62
     0
370
    -2
100
AcDbLine
 10
305.2597484157999
 20
268.2147272300479
 30
0.0
 11
305.2597484157999
 21
280.5101507720479
 31
0.0
  0
LINE
  5
236D
330
21C4
100
AcDbEntity
  8
___SHELL
 62
     0
370
    -2
100
AcDbLine
 10
127.6101328780999
 20
279.510150772048
 30
0.0
 11
303.2597484157999
 21
279.510150772048
 31
0.0
  0
MTEXT
  5
236E
330
21C4
100
AcDbEntity
  8
___SHELL
 62
     0
100
AcDbMText
 10
213.9649748455179
 20
282.3117589522727
 30
0.0
 40
2.5
 41
0.0
 71
     5
 72
     1
  1
\A1;180
 73
     1
 44
1.0
  0
INSERT
  5
236F
330
21C4
100
AcDbEntity
  8
___SHELL
 62
     0
370
    -2
100
AcDbBlockReference
  2
_OPEN
 10
125.6101328780999
 20
279.510150772048
 30
0.0
 41
2.0
 42
2.0
 43
2.0
 50
180.0
  0
INSERT
  5
2370
330
21C4
100
AcDbEntity
  8
___SHELL
 62
     0
370
    -2
100
AcDbBlockReference
  2
_OPEN
 10
305.2597484157999
 20
279.510150772048
 30
0.0
 41
2.0
 42
2.0
 43
2.0
  0
POINT
  5
2371
330
21C4
100
AcDbEntity
  8
Defpoints
 62
     0
100
AcDbPoint
 10
125.6101328780999
 20
236.142422503348
 30
0.0
  0
POINT
  5
2372
330
21C4
100
AcDbEntity
  8
Defpoints
 62
     0
100
AcDbPoint
 10
305.2597484157999
 20
268.2147272300479
 30
0.0
  0
POINT
  5
2373
330
21C4
100
AcDbEntity
  8
Defpoints
 62
     0
100
AcDbPoint
 10
305.2597484157999
 20
279.510150772048
 30
0.0
  0
ENDBLK
  5
21D0
330
21C4
100
AcDbEntity
  8
0
100
AcDbBlockEnd
  0
BLOCK
  5
21DC
330
21D1
100
AcDbEntity
  8
0
100
AcDbBlockBegin
  2
*D13
 70
     1
 10
0.0
 20
0.0
 30
0.0
  3
*D13
  1

  0
LINE
  5
2362
330
21D1
100
AcDbEntity
  8
___SHELL
 62
     0
370
    -2
100
AcDbLine
 10
206.4323001009999
 20
245.6937066138479
 30
0.0
 11
206.4323001009999
 21
275.5818196749479
 31
0.0
  0
LINE
  5
2363
330
21D1
100
AcDbEntity
  8
___SHELL
 62
     0
370
    -2
100
AcDbLine
 10
125.6101328780999
 20
236.142422503348
 30
0.0
 11
125.6101328780999
 21
275.5818196749479
 31
0.0
  0
LINE
  5
2364
330
21D1
100
AcDbEntity
  8
___SHELL
 62
     0
370
    -2
100
AcDbLine
 10
204.4323001009999
 20
274.581819674948
 30
0.0
 11
127.6101328780999
 21
274.581819674948
 31
0.0
  0
MTEXT
  5
2365
330
21D1
100
AcDbEntity
  8
___SHELL
 62
     0
100
AcDbMText
 10
165.6114836560949
 20
277.0210754510677
 30
0.0
 40
2.5
 41
0.0
 71
     5
 72
     1
  1
\A1;81
 73
     1
 44
1.0
  0
INSERT
  5
2366
330
21D1
100
AcDbEntity
  8
___SHELL
 62
     0
370
    -2
100
AcDbBlockReference
  2
_OPEN
 10
206.4323001009999
 20
274.581819674948
 30
0.0
 41
2.0
 42
2.0
 43
2.0
  0
INSERT
  5
2367
330
21D1
100
AcDbEntity
  8
___SHELL
 62
     0
370
    -2
100
AcDbBlockReference
  2
_OPEN
 10
125.6101328780999
 20
274.581819674948
 30
0.0
 41
2.0
 42
2.0
 43
2.0
 50
180.0
  0
POINT
  5
2368
330
21D1
100
AcDbEntity
  8
Defpoints
 62
     0
100
AcDbPoint
 10
206.4323001009999
 20
245.6937066138479
 30
0.0
  0
POINT
  5
2369
330
21D1
100
AcDbEntity
  8
Defpoints
 62
     0
100
AcDbPoint
 10
125.6101328780999
 20
236.142422503348
 30
0.0
  0
POINT
  5
236A
330
21D1
100
AcDbEntity
  8
Defpoints
 62
     0
100
AcDbPoint
 10
125.6101328780999
 20
274.581819674948
 30
0.0
  0
ENDBLK
  5
21DD
330
21D1
100
AcDbEntity
  8
0
100
AcDbBlockEnd
  0
BLOCK
  5
2233
330
2228
100
AcDbEntity
  8
0
100
AcDbBlockBegin
  2
*D14
 70
     1
 10
0.0
 20
0.0
 30
0.0
  3
*D14
  1

  0
LINE
  5
2374
330
2228
100
AcDbEntity
  8
___SHELL
 62
     0
370
    -2
100
AcDbLine
 10
102.7015438746998
 20
127.6371758833662
 30
0.0
 11
114.7156907115999
 21
127.6371758833662
 31
0.0
  0
LINE
  5
2375
330
2228
100
AcDbEntity
  8
___SHELL
 62
     0
370
    -2
100
AcDbLine
 10
102.7359700127
 20
175.6371758833662
 30
0.0
 11
114.7156907116
 21
175.6371758833662
 31
0.0
  0
LINE
  5
2376
330
2228
100
AcDbEntity
  8
___SHELL
 62
     0
370
    -2
100
AcDbLine
 10
113.7156907115999
 20
129.6371758833662
 30
0.0
 11
113.7156907116
 21
173.6371758833662
 31
0.0
  0
MTEXT
  5
2377
330
2228
100
AcDbEntity
  8
___SHELL
 62
     0
100
AcDbMText
 10
111.0795576373753
 20
150.0113725934749
 30
0.0
 40
2.5
 41
0.0
 71
     5
 72
     1
  1
\A1;48
 11
0.0000000000000001
 21
1.0
 31
0.0
 73
     1
 44
1.0
  0
INSERT
  5
2378
330
2228
100
AcDbEntity
  8
___SHELL
 62
     0
370
    -2
100
AcDbBlockReference
  2
_OPEN
 10
113.7156907115999
 20
127.6371758833662
 30
0.0
 41
2.0
 42
2.0
 43
2.0
 50
270.0
  0
INSERT
  5
2379
330
2228
100
AcDbEntity
  8
___SHELL
 62
     0
370
    -2
100
AcDbBlockReference
  2
_OPEN
 10
113.7156907116
 20
175.6371758833662
 30
0.0
 41
2.0
 42
2.0
 43
2.0
 50
90.0
  0
POINT
  5
237A
330
2228
100
AcDbEntity
  8
Defpoints
 62
     0
100
AcDbPoint
 10
102.7015438746998
 20
127.6371758833662
 30
0.0
  0
POINT
  5
237B
330
2228
100
AcDbEntity
  8
Defpoints
 62
     0
100
AcDbPoint
 10
102.7359700127
 20
175.6371758833662
 30
0.0
  0
POINT
  5
237C
330
2228
100
AcDbEntity
  8
Defpoints
 62
     0
100
AcDbPoint
 10
113.7156907116
 20
175.6371758833662
 30
0.0
  0
ENDBLK
  5
2234
330
2228
100
AcDbEntity
  8
0
100
AcDbBlockEnd
  0
BLOCK
  5
2240
330
2235
100
AcDbEntity
  8
0
100
AcDbBlockBegin
  2
*D15
 70
     1
 10
0.0
 20
0.0
 30
0.0
  3
*D15
  1

  0
LINE
  5
2347
330
2235
100
AcDbEntity
  8
___SHELL
 62
     0
370
    -2
100
AcDbLine
 10
34.4146126761
 20
151.1371758833661
 30
0.0
 11
34.4146126761
 21
113.6803989458662
 31
0.0
  0
LINE
  5
2348
330
2235
100
AcDbEntity
  8
___SHELL
 62
     0
370
    -2
100
AcDbLine
 10
104.4146126761
 20
151.1371758833661
 30
0.0
 11
104.4146126761
 21
113.6803989458662
 31
0.0
  0
LINE
  5
2349
330
2235
100
AcDbEntity
  8
___SHELL
 62
     0
370
    -2
100
AcDbLine
 10
36.41461267609999
 20
114.6803989458662
 30
0.0
 11
102.4146126761
 21
114.6803989458662
 31
0.0
  0
MTEXT
  5
234A
330
2235
100
AcDbEntity
  8
___SHELL
 62
     0
100
AcDbMText
 10
67.32019283469971
 20
117.0310465211803
 30
0.0
 40
2.5
 41
0.0
 71
     5
 72
     1
  1
\A1;70
 73
     1
 44
1.0
  0
INSERT
  5
234B
330
2235
100
AcDbEntity
  8
___SHELL
 62
     0
370
    -2
100
AcDbBlockReference
  2
_OPEN
 10
34.4146126761
 20
114.6803989458662
 30
0.0
 41
2.0
 42
2.0
 43
2.0
 50
180.0
  0
INSERT
  5
234C
330
2235
100
AcDbEntity
  8
___SHELL
 62
     0
370
    -2
100
AcDbBlockReference
  2
_OPEN
 10
104.4146126761
 20
114.6803989458662
 30
0.0
 41
2.0
 42
2.0
 43
2.0
  0
POINT
  5
234D
330
2235
100
AcDbEntity
  8
Defpoints
 62
     0
100
AcDbPoint
 10
34.4146126761
 20
151.1371758833661
 30
0.0
  0
POINT
  5
234E
330
2235
100
AcDbEntity
  8
Defpoints
 62
     0
100
AcDbPoint
 10
104.4146126761
 20
151.1371758833661
 30
0.0
  0
POINT
  5
234F
330
2235
100
AcDbEntity
  8
Defpoints
 62
     0
100
AcDbPoint
 10
104.4146126761
 20
114.6803989458662
 30
0.0
  0
ENDBLK
  5
2241
330
2235
100
AcDbEntity
  8
0
100
AcDbBlockEnd
  0
BLOCK
  5
224D
330
2242
100
AcDbEntity
  8
0
100
AcDbBlockBegin
  2
*D16
 70
     1
 10
0.0
 20
0.0
 30
0.0
  3
*D16
  1

  0
LINE
  5
233E
330
2242
100
AcDbEntity
  8
___SHELL
 62
     0
370
    -2
100
AcDbLine
 10
36.0923743106
 20
127.6459034158662
 30
0.0
 11
24.62705220860001
 21
127.6459034158662
 31
0.0
  0
LINE
  5
233F
330
2242
100
AcDbEntity
  8
___SHELL
 62
     0
370
    -2
100
AcDbLine
 10
51.8635772428
 20
184.6371758833662
 30
0.0
 11
24.62705220860003
 21
184.6371758833662
 31
0.0
  0
LINE
  5
2340
330
2242
100
AcDbEntity
  8
___SHELL
 62
     0
370
    -2
100
AcDbLine
 10
25.62705220860001
 20
129.645903415866
 30
0.0
 11
25.62705220860002
 21
182.6371758833662
 31
0.0
  0
MTEXT
  5
2341
330
2242
100
AcDbEntity
  8
___SHELL
 62
     0
100
AcDbMText
 10
23.18922288102998
 20
156.1482933330333
 30
0.0
 40
2.5
 41
0.0
 71
     5
 72
     1
  1
\A1;57
 11
0.0000000000000001
 21
1.0
 31
0.0
 73
     1
 44
1.0
  0
INSERT
  5
2342
330
2242
100
AcDbEntity
  8
___SHELL
 62
     0
370
    -2
100
AcDbBlockReference
  2
_OPEN
 10
25.62705220860001
 20
127.6459034158662
 30
0.0
 41
2.0
 42
2.0
 43
2.0
 50
270.0
  0
INSERT
  5
2343
330
2242
100
AcDbEntity
  8
___SHELL
 62
     0
370
    -2
100
AcDbBlockReference
  2
_OPEN
 10
25.62705220860003
 20
184.6371758833662
 30
0.0
 41
2.0
 42
2.0
 43
2.0
 50
90.0
  0
POINT
  5
2344
330
2242
100
AcDbEntity
  8
Defpoints
 62
     0
100
AcDbPoint
 10
36.0923743106
 20
127.6459034158662
 30
0.0
  0
POINT
  5
2345
330
2242
100
AcDbEntity
  8
Defpoints
 62
     0
100
AcDbPoint
 10
51.8635772428
 20
184.6371758833662
 30
0.0
  0
POINT
  5
2346
330
2242
100
AcDbEntity
  8
Defpoints
 62
     0
100
AcDbPoint
 10
25.62705220860003
 20
184.6371758833662
 30
0.0
  0
ENDBLK
  5
224E
330
2242
100
AcDbEntity
  8
0
100
AcDbBlockEnd
  0
BLOCK
  5
2393
330
2384
100
AcDbEntity
  8
0
100
AcDbBlockBegin
  2
A$C5F064851
 70
     0
 10
0.0
 20
0.0
 30
0.0
  3
A$C5F064851
  1

  0
LINE
  5
2385
330
2384
100
AcDbEntity
  8
非表示
100
AcDbLine
 10
0.0000004526051498
 20
-0.0000003389222911
 30
0.0
 11
420.0000004526051
 21
-0.0000003389222911
 31
0.0
  0
LINE
  5
2386
330
2384
100
AcDbEntity
  8
非表示
100
AcDbLine
 10
420.0000004526051
 20
-0.0000003389222911
 30
0.0
 11
420.0000004526051
 21
296.9999996610777
 31
0.0
  0
LINE
  5
2387
330
2384
100
AcDbEntity
  8
0
100
AcDbLine
 10
410.0000004526051
 20
9.999999661077707
 30
0.0
 11
320.0000004526051
 21
9.999999661077707
 31
0.0
  0
LINE
  5
2388
330
2384
100
AcDbEntity
  8
0
100
AcDbLine
 10
410.0000004526051
 20
17.99999966107771
 30
0.0
 11
320.0000004526051
 21
17.99999966107771
 31
0.0
  0
LINE
  5
2389
330
2384
100
AcDbEntity
  8
0
100
AcDbLine
 10
410.0000004526051
 20
25.99999966107771
 30
0.0
 11
320.0000004526051
 21
25.99999966107771
 31
0.0
  0
LINE
  5
238A
330
2384
100
AcDbEntity
  8
0
100
AcDbLine
 10
320.0000004526051
 20
25.99999966107771
 30
0.0
 11
320.0000004526051
 21
9.999999661077707
 31
0.0
  0
LINE
  5
238B
330
2384
100
AcDbEntity
  8
0
100
AcDbLine
 10
340.0000004526051
 20
25.99999966107771
 30
0.0
 11
340.0000004526051
 21
9.999999661077707
 31
0.0
  0
TEXT
  5
238C
330
2384
100
AcDbEntity
  8
0
100
AcDbText
 10
325.9352904526051
 20
19.67168566107769
 30
0.0
 40
4.0
  1
品名
  7
STANDARD1
100
AcDbText
  0
TEXT
  5
238D
330
2384
100
AcDbEntity
  8
0
100
AcDbText
 10
325.9352904526051
 20
11.67168566107769
 30
0.0
 40
4.0
  1
型名
  7
STANDARD1
100
AcDbText
  0
TEXT
  5
238E
330
2384
100
AcDbEntity
  8
0
100
AcDbText
 10
341.9352904526051
 20
19.67168566107769
 30
0.0
 40
4.0
  1
固定カラーカメラ
  7
STANDARD1
100
AcDbText
  0
TEXT
  5
238F
330
2384
100
AcDbEntity
  8
0
100
AcDbText
 10
341.9352904526051
 20
11.67168566107769
 30
0.0
 40
4.0
  1
C-2911
  7
STANDARD1
100
AcDbText
  0
LINE
  5
2390
330
2384
100
AcDbEntity
  8
0
100
AcDbLine
 10
410.0000004526051
 20
25.99999966107771
 30
0.0
 11
410.0000004526051
 21
9.999999661077707
 31
0.0
  0
LINE
  5
2391
330
2384
100
AcDbEntity
  8
非表示
100
AcDbLine
 10
0.0000004526051498
 20
296.9999996610777
 30
0.0
 11
420.0000004526051
 21
296.9999996610777
 31
0.0
  0
LINE
  5
2392
330
2384
100
AcDbEntity
  8
非表示
100
AcDbLine
 10
0.0000004526051498
 20
-0.0000003389222911
 30
0.0
 11
0.0000004526051498
 21
296.9999996610777
 31
0.0
  0
ENDBLK
  5
2394
330
2384
100
AcDbEntity
  8
0
100
AcDbBlockEnd
  0
ENDSEC
  0
SECTION
  2
ENTITIES
  0
LINE
  5
863
330
1E
100
AcDbEntity
  8
非表示
  6
Continuous
100
AcDbLine
 10
0.0
 20
0.0
 30
0.0
 11
0.0
 21
297.0
 31
0.0
  0
LINE
  5
864
330
1E
100
AcDbEntity
  8
非表示
  6
Continuous
100
AcDbLine
 10
0.0
 20
0.0
 30
0.0
 11
420.0
 21
0.0
 31
0.0
  0
LINE
  5
865
330
1E
100
AcDbEntity
  8
非表示
  6
Continuous
100
AcDbLine
 10
0.0
 20
297.0
 30
0.0
 11
420.0
 21
297.0
 31
0.0
  0
LINE
  5
866
330
1E
100
AcDbEntity
  8
非表示
  6
Continuous
100
AcDbLine
 10
420.0
 20
0.0
 30
0.0
 11
420.0
 21
297.0
 31
0.0
  0
LINE
  5
23BB
330
1E
100
AcDbEntity
  8
非表示
100
AcDbLine
 10
420.0
 20
0.0
 30
0.0
 11
420.0
 21
297.0
 31
0.0
  0
LINE
  5
23BC
330
1E
100
AcDbEntity
  8
0
100
AcDbLine
 10
410.0
 20
10.0
 30
0.0
 11
320.0
 21
10.0
 31
0.0
  0
LINE
  5
23BD
330
1E
100
AcDbEntity
  8
0
100
AcDbLine
 10
410.0
 20
18.0
 30
0.0
 11
320.0
 21
18.0
 31
0.0
  0
LINE
  5
23BE
330
1E
100
AcDbEntity
  8
0
100
AcDbLine
 10
410.0
 20
26.0
 30
0.0
 11
320.0
 21
26.0
 31
0.0
  0
LINE
  5
23BF
330
1E
100
AcDbEntity
  8
0
100
AcDbLine
 10
320.0
 20
26.0
 30
0.0
 11
320.0
 21
10.0
 31
0.0
  0
LINE
  5
23C0
330
1E
100
AcDbEntity
  8
0
100
AcDbLine
 10
340.0
 20
26.0
 30
0.0
 11
340.0
 21
10.0
 31
0.0
  0
TEXT
  5
23C1
330
1E
100
AcDbEntity
  8
0
100
AcDbText
 10
325.93529
 20
19.67168600000039
 30
0.0
 40
4.0
  1
品名
  7
STANDARD1
100
AcDbText
  0
TEXT
  5
23C2
330
1E
100
AcDbEntity
  8
0
100
AcDbText
 10
325.93529
 20
11.6716860000003
 30
0.0
 40
4.0
  1
型名
  7
STANDARD1
100
AcDbText
  0
TEXT
  5
23C3
330
1E
100
AcDbEntity
  8
0
100
AcDbText
 10
341.9352899999998
 20
19.67168600000039
 30
0.0
 40
4.0
  1
屋外ドーム型カメラケース
  7
STANDARD1
100
AcDbText
  0
TEXT
  5
23C4
330
1E
100
AcDbEntity
  8
0
100
AcDbText
 10
341.9352899999998
 20
11.6716860000003
 30
0.0
 40
4.0
  1
B-9360
  7
STANDARD1
100
AcDbText
  0
LINE
  5
23C5
330
1E
100
AcDbEntity
  8
0
100
AcDbLine
 10
410.0
 20
26.0
 30
0.0
 11
410.0
 21
10.0
 31
0.0
  0
TEXT
  5
23C8
330
1E
100
AcDbEntity
  8
文字
100
AcDbText
 10
162.5677538568456
 20
130.9081752794094
 30
0.0
 40
2.799999999999998
  1
LANケーブル引き込み用防水ブッシュ
 41
0.8
  7
STANDARD1
100
AcDbText
  0
LINE
  5
23C9
330
1E
100
AcDbEntity
  8
文字
100
AcDbLine
 10
154.3169826589455
 20
128.1828268283094
 30
0.0
 11
160.5677538568456
 21
132.3081752794095
 31
0.0
  0
LINE
  5
23CA
330
1E
100
AcDbEntity
  8
文字
100
AcDbLine
 10
160.5677538568456
 20
132.3081752794095
 30
0.0
 11
162.5677538568456
 21
132.3081752794095
 31
0.0
  0
LWPOLYLINE
  5
23CB
330
1E
100
AcDbEntity
  8
文字
100
AcDbPolyline
 90
        3
 70
     0
 43
0.0
 10
155.6419541333456
 20
129.8061184200095
 10
154.3169826589455
 20
128.1828268283094
 10
156.3304882293455
 20
128.7628443435095
  0
LINE
  5
23CC
330
1E
100
AcDbEntity
  8
文字
100
AcDbLine
 10
126.8433856985455
 20
111.9328268283094
 30
0.0
 11
126.7342333410455
 21
114.4328268283095
 31
0.0
  0
LINE
  5
23CD
330
1E
100
AcDbEntity
  8
文字
100
AcDbLine
 10
126.7192376805455
 20
114.4328268283095
 30
0.0
 11
126.7192376805455
 21
114.9328268283094
 31
0.0
  0
LINE
  5
23CE
330
1E
100
AcDbEntity
  8
文字
100
AcDbLine
 10
127.7864317230454
 20
111.6828268283095
 30
0.0
 11
127.7864317230454
 21
111.9328268283094
 31
0.0
  0
LINE
  5
23CF
330
1E
100
AcDbEntity
  8
文字
100
AcDbLine
 10
128.8942294570455
 20
81.00421849530951
 30
0.0
 11
127.2864317230455
 21
111.6828268283095
 31
0.0
  0
LINE
  5
23D0
330
1E
100
AcDbEntity
  8
文字
100
AcDbLine
 10
131.1469114554456
 20
111.9328268283094
 30
0.0
 11
131.2014876338456
 21
114.4328268283095
 31
0.0
  0
LINE
  5
23D1
330
1E
100
AcDbEntity
  8
文字
100
AcDbLine
 10
151.2518299680456
 20
124.4328268283094
 30
0.0
 11
150.0417709985455
 21
123.2227678588095
 31
0.0
  0
LWPOLYLINE
  5
23D2
330
1E
100
AcDbEntity
  8
文字
100
AcDbPolyline
 90
        7
 70
     0
 43
0.0
 10
150.0817120290455
 20
123.1828268285094
 10
150.3360179458455
 20
123.3234575449094
 10
150.5852330447455
 20
123.4066728323095
 10
150.8294112035455
 20
123.4327951514095
 10
151.0702868205455
 20
123.4037076346095
 10
151.3121540825455
 20
123.3208937150095
 10
151.5607319750456
 20
123.1828268285094
  0
LINE
  5
23D3
330
1E
100
AcDbEntity
  8
文字
100
AcDbLine
 10
134.5878519007456
 20
114.4328268283095
 30
0.0
 11
134.6198657585455
 21
111.9328268283094
 31
0.0
  0
LINE
  5
23D4
330
1E
100
AcDbEntity
  8
文字
100
AcDbLine
 10
132.6648730684454
 20
111.9328268283094
 30
0.0
 11
132.6350832387456
 21
114.4328268270094
 31
0.0
  0
LINE
  5
23D5
330
1E
100
AcDbEntity
  8
文字
100
AcDbLine
 10
132.7055680584454
 20
114.4328268283095
 30
0.0
 11
132.7055680584454
 21
114.9328268283094
 31
0.0
  0
LWPOLYLINE
  5
23D6
330
1E
100
AcDbEntity
  8
文字
100
AcDbPolyline
 90
        7
 70
     0
 43
0.0
 10
157.4429279610454
 20
123.1828268285094
 10
157.6972338765455
 20
123.3234575446095
 10
157.9464489756454
 20
123.4066728322094
 10
158.1906271353455
 20
123.4327951514095
 10
158.4315027523456
 20
123.4037076345094
 10
158.6733700142455
 20
123.3208937147095
 10
158.9219479070455
 20
123.1828268285094
  0
LINE
  5
23D7
330
1E
100
AcDbEntity
  8
文字
100
AcDbLine
 10
132.1704063190455
 20
78.84981412630948
 30
0.0
 11
129.1435442245455
 21
80.5973737713095
 31
0.0
  0
LINE
  5
23D8
330
1E
100
AcDbEntity
  8
文字
100
AcDbLine
 10
152.5018299680455
 20
127.4328268283094
 30
0.0
 11
152.0018299680456
 21
124.4328268283094
 31
0.0
  0
LINE
  5
23D9
330
1E
100
AcDbEntity
  8
文字
100
AcDbLine
 10
150.0018299680456
 20
123.1828268283094
 30
0.0
 11
150.0018299680456
 21
119.9328268283095
 31
0.0
  0
LINE
  5
23DA
330
1E
100
AcDbEntity
  8
文字
100
AcDbLine
 10
150.0018299680456
 20
115.4328268277095
 30
0.0
 11
150.0018299680456
 21
114.4328268283095
 31
0.0
  0
LINE
  5
23DB
330
1E
100
AcDbEntity
  8
文字
100
AcDbLine
 10
150.0817120290455
 20
120.9328268283095
 30
0.0
 11
150.0817120290455
 21
123.1828268285094
 31
0.0
  0
LINE
  5
23DC
330
1E
100
AcDbEntity
  8
文字
100
AcDbLine
 10
150.2518299680455
 20
119.9328268283095
 30
0.0
 11
150.2518299680455
 21
119.4328268283095
 31
0.0
  0
LINE
  5
23DD
330
1E
100
AcDbEntity
  8
文字
100
AcDbLine
 10
150.2518299680455
 20
117.3328268283094
 30
0.0
 11
150.2518299680455
 21
115.4328268283095
 31
0.0
  0
LWPOLYLINE
  5
23DE
330
1E
100
AcDbEntity
  8
文字
100
AcDbPolyline
 90
        5
 70
     0
 43
0.0
 10
151.0959611231455
 20
117.3328268283094
 10
151.1007097028455
 20
117.3706032708095
 10
151.1146330815456
 20
117.4031218411095
 10
151.1351133235455
 20
117.4247055150094
 10
151.1606842416456
 20
117.4328268279094
  0
LINE
  5
23DF
330
1E
100
AcDbEntity
  8
文字
100
AcDbLine
 10
151.0018299680456
 20
119.4328268283095
 30
0.0
 11
151.0018299680456
 21
117.4328268283095
 31
0.0
  0
LINE
  5
23E0
330
1E
100
AcDbEntity
  8
文字
100
AcDbLine
 10
151.0959611225455
 20
115.4328268283095
 30
0.0
 11
151.0959611225455
 21
117.3328268283094
 31
0.0
  0
LINE
  5
23E1
330
1E
100
AcDbEntity
  8
文字
100
AcDbLine
 10
151.5607319750456
 20
123.1828268285094
 30
0.0
 11
151.5607319750456
 21
120.9328268283095
 31
0.0
  0
LINE
  5
23E2
330
1E
100
AcDbEntity
  8
文字
100
AcDbLine
 10
152.5018299680455
 20
128.1828268283094
 30
0.0
 11
152.5018299680455
 21
127.4328268283094
 31
0.0
  0
LINE
  5
23E3
330
1E
100
AcDbEntity
  8
文字
100
AcDbLine
 10
153.0228100220456
 20
120.9328268283095
 30
0.0
 11
153.0228100220456
 21
123.1828268271095
 31
0.0
  0
LINE
  5
23E4
330
1E
100
AcDbEntity
  8
文字
100
AcDbLine
 10
153.6576988135455
 20
117.3328268283094
 30
0.0
 11
153.6576988135455
 21
115.4328268283095
 31
0.0
  0
LWPOLYLINE
  5
23E5
330
1E
100
AcDbEntity
  8
文字
100
AcDbPolyline
 90
        5
 70
     0
 43
0.0
 10
153.6576988135455
 20
117.3328268283094
 10
153.6604304340455
 20
117.3714835274094
 10
153.6683242785455
 20
117.4043099562094
 10
153.6796438951455
 20
117.4254516405095
 10
153.6929756947456
 20
117.4328268279094
  0
LWPOLYLINE
  5
23E6
330
1E
100
AcDbEntity
  8
文字
100
AcDbPolyline
 90
        5
 70
     0
 43
0.0
 10
155.3459611225455
 20
117.3328268283094
 10
155.3432998759455
 20
117.3706032709094
 10
155.3357569940455
 20
117.4031218411095
 10
155.3245887183454
 20
117.4247055150094
 10
155.3106842413455
 20
117.4328268279094
  0
LINE
  5
23E7
330
1E
100
AcDbEntity
  8
文字
100
AcDbLine
 10
155.3459611225455
 20
115.4328268283095
 30
0.0
 11
155.3459611225455
 21
117.3328268283094
 31
0.0
  0
LINE
  5
23E8
330
1E
100
AcDbEntity
  8
文字
100
AcDbLine
 10
155.9808499140455
 20
123.1828268271095
 30
0.0
 11
155.9808499140455
 21
120.9328268283095
 31
0.0
  0
LINE
  5
23E9
330
1E
100
AcDbEntity
  8
文字
100
AcDbLine
 10
156.5018299680455
 20
128.1828268283094
 30
0.0
 11
156.5018299680455
 21
127.4328268283094
 31
0.0
  0
LINE
  5
23EA
330
1E
100
AcDbEntity
  8
文字
100
AcDbLine
 10
157.4429279610454
 20
120.9328268283095
 30
0.0
 11
157.4429279610454
 21
123.1828268285094
 31
0.0
  0
LINE
  5
23EB
330
1E
100
AcDbEntity
  8
文字
100
AcDbLine
 10
164.1301514268454
 20
108.0705149911094
 30
0.0
 11
164.1332659178456
 21
108.0767616939094
 31
0.0
  0
LINE
  5
23EC
330
1E
100
AcDbEntity
  8
文字
100
AcDbLine
 10
197.1524571267456
 20
78.7828268284095
 30
0.0
 11
132.4204063354455
 21
78.7828268284095
 31
0.0
  0
LINE
  5
23ED
330
1E
100
AcDbEntity
  8
文字
100
AcDbLine
 10
197.4024563181454
 20
78.84981412630948
 30
0.0
 11
132.1704071278454
 21
78.84981412630948
 31
0.0
  0
LINE
  5
23EE
330
1E
100
AcDbEntity
  8
文字
100
AcDbLine
 10
129.1435442245455
 20
80.5973737713095
 30
0.0
 11
200.4293183375455
 21
80.5973737713095
 31
0.0
  0
LINE
  5
23EF
330
1E
100
AcDbEntity
  8
文字
100
AcDbLine
 10
128.8942294570455
 20
81.00421849530951
 30
0.0
 11
200.6786330988456
 21
81.00421849530951
 31
0.0
  0
LINE
  5
23F0
330
1E
100
AcDbEntity
  8
文字
100
AcDbLine
 10
157.9076988135455
 20
117.3328268283094
 30
0.0
 11
157.9076988135455
 21
115.4328268283095
 31
0.0
  0
LINE
  5
23F1
330
1E
100
AcDbEntity
  8
文字
100
AcDbLine
 10
158.0018299680455
 20
119.4328268283095
 30
0.0
 11
158.0018299680455
 21
117.4328268283095
 31
0.0
  0
LINE
  5
23F2
330
1E
100
AcDbEntity
  8
文字
100
AcDbLine
 10
158.7518299680455
 20
119.9328268283095
 30
0.0
 11
158.7518299680455
 21
119.4328268283095
 31
0.0
  0
LINE
  5
23F3
330
1E
100
AcDbEntity
  8
文字
100
AcDbLine
 10
158.7518299680455
 20
115.4328268283095
 30
0.0
 11
158.7518299680455
 21
117.3328268283094
 31
0.0
  0
LINE
  5
23F4
330
1E
100
AcDbEntity
  8
文字
100
AcDbLine
 10
158.9219479070455
 20
123.1828268285094
 30
0.0
 11
158.9219479070455
 21
120.9328268283095
 31
0.0
  0
LINE
  5
23F5
330
1E
100
AcDbEntity
  8
文字
100
AcDbLine
 10
159.0018299680455
 20
123.1828268283094
 30
0.0
 11
159.0018299680455
 21
119.9328268283095
 31
0.0
  0
LINE
  5
23F6
330
1E
100
AcDbEntity
  8
文字
100
AcDbLine
 10
159.0018299680455
 20
115.4328268277095
 30
0.0
 11
159.0018299680455
 21
114.4328268283095
 31
0.0
  0
LINE
  5
23F7
330
1E
100
AcDbEntity
  8
文字
100
AcDbLine
 10
162.2864317230455
 20
111.6828268283095
 30
0.0
 11
162.4050349290455
 21
109.4197428393094
 31
0.0
  0
LINE
  5
23F8
330
1E
100
AcDbEntity
  8
文字
100
AcDbLine
 10
161.0565539903456
 20
109.4197428335094
 30
0.0
 11
160.9420518741455
 21
111.6828268283095
 31
0.0
  0
LINE
  5
23F9
330
1E
100
AcDbEntity
  8
文字
100
AcDbLine
 10
161.7932665340456
 20
114.4328268283095
 30
0.0
 11
161.7932665340456
 21
114.9328268283094
 31
0.0
  0
LINE
  5
23FA
330
1E
100
AcDbEntity
  8
文字
100
AcDbLine
 10
162.2864317230455
 20
114.4328268283095
 30
0.0
 11
162.2864317230455
 21
111.6828268283095
 31
0.0
  0
LINE
  5
23FB
330
1E
100
AcDbEntity
  8
文字
100
AcDbLine
 10
163.3864317230455
 20
109.1828268283095
 30
0.0
 11
163.3864317230455
 21
108.4845775948094
 31
0.0
  0
LINE
  5
23FC
330
1E
100
AcDbEntity
  8
文字
100
AcDbLine
 10
164.6014317230456
 20
108.0057243887095
 30
0.0
 11
164.6014317230456
 21
108.0767616939094
 31
0.0
  0
LINE
  5
23FD
330
1E
100
AcDbEntity
  8
一点鎖線
100
AcDbLine
 10
164.7864317230455
 20
45.8798611855095
 30
0.0
 11
164.7864317230455
 21
127.8258303225095
 31
0.0
  0
LINE
  5
23FE
330
1E
100
AcDbEntity
  8
文字
100
AcDbLine
 10
164.9714317230455
 20
108.0767616939094
 30
0.0
 11
164.9714317230455
 21
108.0057243887095
 31
0.0
  0
LINE
  5
23FF
330
1E
100
AcDbEntity
  8
文字
100
AcDbLine
 10
156.5018299680455
 20
127.4328268283094
 30
0.0
 11
157.0018299680455
 21
124.4328268283094
 31
0.0
  0
LWPOLYLINE
  5
2400
330
1E
100
AcDbEntity
  8
文字
100
AcDbPolyline
 90
        5
 70
     0
 43
0.0
 10
157.9076988128455
 20
117.3328268283094
 10
157.9026565663456
 20
117.3714835274094
 10
157.8882539739456
 20
117.4043099562094
 10
157.8673353274456
 20
117.4254516405095
 10
157.8429756944455
 20
117.4328268279094
  0
LINE
  5
2401
330
1E
100
AcDbEntity
  8
文字
100
AcDbLine
 10
166.1864317230455
 20
109.1828268283095
 30
0.0
 11
166.1864317230455
 21
108.4845775948094
 31
0.0
  0
LINE
  5
2402
330
1E
100
AcDbEntity
  8
文字
100
AcDbLine
 10
167.2864317230454
 20
111.6828268283095
 30
0.0
 11
167.2864317230454
 21
114.4328268283095
 31
0.0
  0
LINE
  5
2403
330
1E
100
AcDbEntity
  8
文字
100
AcDbLine
 10
167.7795969119455
 20
114.4328268283095
 30
0.0
 11
167.7795969119455
 21
114.9328268283094
 31
0.0
  0
LINE
  5
2404
330
1E
100
AcDbEntity
  8
文字
100
AcDbLine
 10
168.6308115652455
 20
111.6828268283095
 30
0.0
 11
168.5163094489454
 21
109.4197428335094
 31
0.0
  0
LINE
  5
2405
330
1E
100
AcDbEntity
  8
文字
100
AcDbLine
 10
167.1678285170455
 20
109.4197428393094
 30
0.0
 11
167.2864317230454
 21
111.6828268283095
 31
0.0
  0
LINE
  5
2406
330
1E
100
AcDbEntity
  8
文字
100
AcDbLine
 10
165.4395975281456
 20
108.0767616939094
 30
0.0
 11
165.4427120191455
 21
108.0705149911094
 31
0.0
  0
LWPOLYLINE
  5
2407
330
1E
100
AcDbEntity
  8
文字
100
AcDbPolyline
 90
        4
 70
     0
 43
0.0
 10
164.7864317230455
 20
108.0705062723094
 10
164.8484375741455
 20
108.0712131495095
 10
164.9096052909456
 20
108.0732819482095
 10
164.9714317230455
 20
108.0767616939094
  0
LINE
  5
2408
330
1E
100
AcDbEntity
  8
文字
100
AcDbLine
 10
164.5040516565455
 20
108.0057243883095
 30
0.0
 11
164.6014317229455
 21
108.0057243883095
 31
0.0
  0
LINE
  5
2409
330
1E
100
AcDbEntity
  8
文字
100
AcDbLine
 10
164.9714317230455
 20
108.0057243883095
 30
0.0
 11
165.0688117894454
 21
108.0057243883095
 31
0.0
  0
LINE
  5
240A
330
1E
100
AcDbEntity
  8
文字
100
AcDbLine
 10
163.4492224211455
 20
108.3705126287095
 30
0.0
 11
166.1236410249456
 21
108.3705126287095
 31
0.0
  0
LINE
  5
240B
330
1E
100
AcDbEntity
  8
文字
100
AcDbLine
 10
166.1864317230455
 20
108.4845775948094
 30
0.0
 11
163.3864317230455
 21
108.4845775948094
 31
0.0
  0
LWPOLYLINE
  5
240C
330
1E
100
AcDbEntity
  8
文字
100
AcDbPolyline
 90
        4
 70
     0
 43
0.0
 10
164.6014317230456
 20
108.0767616939094
 10
164.6635136098456
 20
108.0732704809095
 10
164.7247238263455
 20
108.0712063961094
 10
164.7864317230455
 20
108.0705062723094
  0
LWPOLYLINE
  5
240D
330
1E
100
AcDbEntity
  8
文字
100
AcDbPolyline
 90
        5
 70
     0
 43
0.0
 10
161.0565539903456
 20
109.4197428335094
 10
161.2948367633455
 20
109.3149194599094
 10
161.5233730152455
 20
109.2472039968094
 10
161.7298395834454
 20
109.2027725599094
 10
161.9168052369455
 20
109.1828268205094
  0
LWPOLYLINE
  5
240E
330
1E
100
AcDbEntity
  8
文字
100
AcDbPolyline
 90
        5
 70
     0
 43
0.0
 10
167.6560582023455
 20
109.1828268205094
 10
167.8452889471456
 20
109.2031662240094
 10
168.0523266136455
 20
109.2479228321094
 10
168.2774648571454
 20
109.3147601132095
 10
168.5163094489454
 20
109.4197428335094
  0
LWPOLYLINE
  5
240F
330
1E
100
AcDbEntity
  8
文字
100
AcDbPolyline
 90
        6
 70
     0
 43
0.0
 10
162.4050349418455
 20
109.4197425965095
 10
162.3384585688455
 20
109.4190162299095
 10
162.1455156844455
 20
109.4157383126094
 10
161.8471801218455
 20
109.4158913893094
 10
161.4706635933455
 20
109.4191666330095
 10
161.0565542879454
 20
109.4197427486095
  0
LWPOLYLINE
  5
2410
330
1E
100
AcDbEntity
  8
文字
100
AcDbPolyline
 90
        6
 70
     0
 43
0.0
 10
168.5163091795456
 20
109.4197431728095
 10
168.0830425437456
 20
109.4190075478095
 10
167.7028302268455
 20
109.4157366629094
 10
167.4109662339455
 20
109.4158892706095
 10
167.2284530056456
 20
109.4191569715095
 10
167.1678285264455
 20
109.4197430207094
  0
LINE
  5
2411
330
1E
100
AcDbEntity
  8
文字
100
AcDbLine
 10
167.6560581904456
 20
109.1828268283095
 30
0.0
 11
161.9168052555455
 21
109.1828268283095
 31
0.0
  0
LINE
  5
2412
330
1E
100
AcDbEntity
  8
文字
100
AcDbLine
 10
162.4050349290455
 20
109.4197428393094
 30
0.0
 11
167.1678285170455
 21
109.4197428393094
 31
0.0
  0
LINE
  5
2413
330
1E
100
AcDbEntity
  8
文字
100
AcDbLine
 10
202.2860788639456
 20
111.6828268283095
 30
0.0
 11
127.2867849746454
 21
111.6828268283095
 31
0.0
  0
LINE
  5
2414
330
1E
100
AcDbEntity
  8
文字
100
AcDbLine
 10
202.7294685243455
 20
111.9328268283094
 30
0.0
 11
167.2864317230454
 21
111.9328268283094
 31
0.0
  0
LINE
  5
2415
330
1E
100
AcDbEntity
  8
文字
100
AcDbLine
 10
162.2864317230455
 20
111.9328268283094
 30
0.0
 11
126.8433856985455
 21
111.9328268283094
 31
0.0
  0
LINE
  5
2416
330
1E
100
AcDbEntity
  8
文字
100
AcDbLine
 10
157.7518299680455
 20
124.4328268283094
 30
0.0
 11
158.9618889374455
 21
123.2227678589093
 31
0.0
  0
LINE
  5
2417
330
1E
100
AcDbEntity
  8
文字
100
AcDbLine
 10
197.4024571270455
 20
78.84981412630948
 30
0.0
 11
200.4293192215456
 21
80.5973737713095
 31
0.0
  0
LINE
  5
2418
330
1E
100
AcDbEntity
  8
文字
100
AcDbLine
 10
126.7192376805455
 20
114.4328268283095
 30
0.0
 11
131.4606363945455
 21
114.4328268283095
 31
0.0
  0
LINE
  5
2419
330
1E
100
AcDbEntity
  8
文字
100
AcDbLine
 10
131.5035059945456
 20
114.4328268283095
 30
0.0
 11
198.0693576095456
 21
114.4328268283095
 31
0.0
  0
LINE
  5
241A
330
1E
100
AcDbEntity
  8
文字
100
AcDbLine
 10
198.1122270514456
 20
114.4328268283095
 30
0.0
 11
202.8536257654454
 21
114.4328268283095
 31
0.0
  0
LINE
  5
241B
330
1E
100
AcDbEntity
  8
文字
100
AcDbLine
 10
126.7192376805455
 20
114.9328268283094
 30
0.0
 11
132.7055680584454
 21
114.9328268283094
 31
0.0
  0
LINE
  5
241C
330
1E
100
AcDbEntity
  8
文字
100
AcDbLine
 10
161.7932665340456
 20
114.9328268283094
 30
0.0
 11
167.7795969119455
 21
114.9328268283094
 31
0.0
  0
LINE
  5
241D
330
1E
100
AcDbEntity
  8
文字
100
AcDbLine
 10
196.8672953875455
 20
114.9328268283094
 30
0.0
 11
202.8536257654454
 21
114.9328268283094
 31
0.0
  0
LINE
  5
241E
330
1E
100
AcDbEntity
  8
文字
100
AcDbLine
 10
150.0018299680456
 20
115.4328268283095
 30
0.0
 11
150.2518299680455
 21
115.4328268283095
 31
0.0
  0
LINE
  5
241F
330
1E
100
AcDbEntity
  8
文字
100
AcDbLine
 10
151.0959611228455
 20
115.4328268283095
 30
0.0
 11
153.6576988132456
 21
115.4328268283095
 31
0.0
  0
LINE
  5
2420
330
1E
100
AcDbEntity
  8
文字
100
AcDbLine
 10
155.3459611228455
 20
115.4328268283095
 30
0.0
 11
157.9076988132456
 21
115.4328268283095
 31
0.0
  0
LINE
  5
2421
330
1E
100
AcDbEntity
  8
文字
100
AcDbLine
 10
158.7518299680455
 20
115.4328268283095
 30
0.0
 11
159.0018299679455
 21
115.4328268283095
 31
0.0
  0
LINE
  5
2422
330
1E
100
AcDbEntity
  8
文字
100
AcDbLine
 10
194.9529976965454
 20
111.9328268283094
 30
0.0
 11
194.9850115544455
 21
114.4328268283095
 31
0.0
  0
LINE
  5
2423
330
1E
100
AcDbEntity
  8
文字
100
AcDbLine
 10
150.2518299676455
 20
117.3328268283094
 30
0.0
 11
158.7518299680455
 21
117.3328268283094
 31
0.0
  0
LINE
  5
2424
330
1E
100
AcDbEntity
  8
文字
100
AcDbLine
 10
158.6518299680456
 20
117.4328268283095
 30
0.0
 11
150.3518299680455
 21
117.4328268283095
 31
0.0
  0
LINE
  5
2425
330
1E
100
AcDbEntity
  8
文字
100
AcDbLine
 10
150.2518299701455
 20
119.4328268283095
 30
0.0
 11
158.7518299659455
 21
119.4328268283095
 31
0.0
  0
LINE
  5
2426
330
1E
100
AcDbEntity
  8
文字
100
AcDbLine
 10
198.3713758121455
 20
114.4328268283095
 30
0.0
 11
198.4259519905455
 21
111.9328268283094
 31
0.0
  0
LINE
  5
2427
330
1E
100
AcDbEntity
  8
文字
100
AcDbLine
 10
196.8672953875455
 20
114.4328268283095
 30
0.0
 11
196.8672953875455
 21
114.9328268283094
 31
0.0
  0
LINE
  5
2428
330
1E
100
AcDbEntity
  8
文字
100
AcDbLine
 10
196.9377802072455
 20
114.4328268270094
 30
0.0
 11
196.9079903775455
 21
111.9328268283094
 31
0.0
  0
LINE
  5
2429
330
1E
100
AcDbEntity
  8
文字
100
AcDbLine
 10
159.0018299657456
 20
119.9328268283095
 30
0.0
 11
150.0018299702454
 21
119.9328268283095
 31
0.0
  0
LINE
  5
242A
330
1E
100
AcDbEntity
  8
文字
100
AcDbLine
 10
150.0817120295456
 20
120.9328268283095
 30
0.0
 11
151.5607319744455
 21
120.9328268283095
 31
0.0
  0
LINE
  5
242B
330
1E
100
AcDbEntity
  8
文字
100
AcDbLine
 10
153.0228100231456
 20
120.9328268283095
 30
0.0
 11
155.9808499129454
 21
120.9328268283095
 31
0.0
  0
LINE
  5
242C
330
1E
100
AcDbEntity
  8
文字
100
AcDbLine
 10
157.4429279615455
 20
120.9328268283095
 30
0.0
 11
158.9219479064456
 21
120.9328268283095
 31
0.0
  0
LINE
  5
242D
330
1E
100
AcDbEntity
  8
文字
100
AcDbLine
 10
150.0018299680456
 20
123.1828268283094
 30
0.0
 11
150.0817120290455
 21
123.1828268283094
 31
0.0
  0
LINE
  5
242E
330
1E
100
AcDbEntity
  8
文字
100
AcDbLine
 10
151.5607319753454
 20
123.1828268283094
 30
0.0
 11
153.0228100215456
 21
123.1828268283094
 31
0.0
  0
LINE
  5
242F
330
1E
100
AcDbEntity
  8
文字
100
AcDbLine
 10
155.9808499135455
 20
123.1828268283094
 30
0.0
 11
157.4429279599455
 21
123.1828268283094
 31
0.0
  0
LINE
  5
2430
330
1E
100
AcDbEntity
  8
文字
100
AcDbLine
 10
158.9219479067454
 20
123.1828268283094
 30
0.0
 11
159.0018299680455
 21
123.1828268283094
 31
0.0
  0
LINE
  5
2431
330
1E
100
AcDbEntity
  8
文字
100
AcDbLine
 10
201.7864317230455
 20
111.6828268283095
 30
0.0
 11
201.7864317230455
 21
111.9328268283094
 31
0.0
  0
LINE
  5
2432
330
1E
100
AcDbEntity
  8
文字
100
AcDbLine
 10
202.7294777480455
 20
111.9328268283094
 30
0.0
 11
202.8386301054455
 21
114.4328268283095
 31
0.0
  0
LINE
  5
2433
330
1E
100
AcDbEntity
  8
文字
100
AcDbLine
 10
200.6786339890456
 20
81.00421849530951
 30
0.0
 11
202.2864317230455
 21
111.6828268283095
 31
0.0
  0
LWPOLYLINE
  5
2434
330
1E
100
AcDbEntity
  8
文字
100
AcDbPolyline
 90
        7
 70
     0
 43
0.0
 10
153.0228100220456
 20
123.1828268271095
 10
153.5314525587456
 20
123.3234644176095
 10
154.0298236463455
 20
123.4066694102095
 10
154.5182299122456
 20
123.4327950228095
 10
154.9999439165454
 20
123.4037096949095
 10
155.4837085642454
 20
123.3208902020095
 10
155.9808499140455
 20
123.1828268271095
  0
LINE
  5
2435
330
1E
100
AcDbEntity
  8
文字
100
AcDbLine
 10
157.7518299664456
 20
124.4328268283094
 30
0.0
 11
151.2518299696456
 21
124.4328268283094
 31
0.0
  0
LINE
  5
2436
330
1E
100
AcDbEntity
  8
文字
100
AcDbLine
 10
202.8536257654454
 20
114.4328268283095
 30
0.0
 11
202.8536257654454
 21
114.9328268283094
 31
0.0
  0
LINE
  5
2437
330
1E
100
AcDbEntity
  8
文字
100
AcDbLine
 10
156.5018299680455
 20
127.4328268283094
 30
0.0
 11
152.5018299680455
 21
127.4328268283094
 31
0.0
  0
LINE
  5
2438
330
1E
100
AcDbEntity
  8
文字
100
AcDbLine
 10
156.5018299670455
 20
128.1828268283094
 30
0.0
 11
152.5018299690455
 21
128.1828268283094
 31
0.0
  0
LINE
  5
2439
330
1E
100
AcDbEntity
  8
文字
100
AcDbLine
 10
131.3030979814456
 20
197.8469544688094
 30
0.0
 11
131.3351931068456
 21
197.7956165651094
 31
0.0
  0
LINE
  5
243A
330
1E
100
AcDbEntity
  8
文字
100
AcDbLine
 10
131.3421394138455
 20
197.7844819933095
 30
0.0
 11
131.3541325815456
 21
197.7651769096095
 31
0.0
  0
LWPOLYLINE
  5
243B
330
1E
100
AcDbEntity
  8
文字
100
AcDbPolyline
 90
        6
 70
     0
 43
0.0
 10
132.1334554520455
 20
238.9952550097095
 10
132.1801662988455
 20
239.1188377703094
 10
132.2098207683455
 20
239.5560543928095
 10
132.1116435308455
 20
239.9828973363093
 10
131.8939675420456
 20
240.3631969712094
 10
131.5755556180455
 20
240.6643047586095
  0
LWPOLYLINE
  5
243C
330
1E
100
AcDbEntity
  8
文字
100
AcDbPolyline
 90
        6
 70
     0
 43
0.0
 10
168.2808193070455
 20
183.0701346427094
 10
168.2056138929455
 20
183.0509723057095
 10
167.8304578294454
 20
182.8244865693094
 10
167.5371205495455
 20
182.4992373607095
 10
167.3504511246455
 20
182.1027965668093
 10
167.2864316914455
 20
181.6692606541095
  0
LWPOLYLINE
  5
243D
330
1E
100
AcDbEntity
  8
文字
100
AcDbPolyline
 90
        6
 70
     0
 43
0.0
 10
130.2826809157455
 20
205.5121688996095
 10
130.3959387618456
 20
205.0919211001093
 10
130.3837707520455
 20
204.6572322963093
 10
130.2473011002455
 20
204.2445033682095
 10
129.9979440204455
 20
203.8882467640095
 10
129.6569137050455
 20
203.6185927145095
  0
LINE
  5
243E
330
1E
100
AcDbEntity
  8
文字
100
AcDbLine
 10
151.5607319750456
 20
236.1243153818095
 30
0.0
 11
150.0817120290455
 21
233.5625776908095
 31
0.0
  0
LINE
  5
243F
330
1E
100
AcDbEntity
  8
文字
100
AcDbLine
 10
154.5018299680456
 20
232.7184465363093
 30
0.0
 11
154.5018299680456
 21
226.4684465363093
 31
0.0
  0
LINE
  5
2440
330
1E
100
AcDbEntity
  8
文字
100
AcDbLine
 10
154.5018299680456
 20
232.7184465363093
 30
0.0
 11
154.5018299680456
 21
238.9684465363093
 31
0.0
  0
LWPOLYLINE
  5
2441
330
1E
100
AcDbEntity
  8
文字
100
AcDbPolyline
 90
        6
 70
     0
 43
0.0
 10
161.8082622019455
 20
259.3063618098095
 10
161.7451105687455
 20
258.8757259025094
 10
161.5611299509455
 20
258.4817034890094
 10
161.2718237123456
 20
258.1572485656095
 10
160.9013858829456
 20
257.9294909137095
 10
160.4812607910456
 20
257.8176434716094
  0
LINE
  5
2442
330
1E
100
AcDbEntity
  8
文字
100
AcDbLine
 10
157.4429279610454
 20
229.3125776908095
 30
0.0
 11
158.9219479070455
 21
231.8743153818095
 31
0.0
  0
LINE
  5
2443
330
1E
100
AcDbEntity
  8
文字
100
AcDbLine
 10
150.0817120290455
 20
231.8743153818095
 30
0.0
 11
151.5607319750456
 21
229.3125776908095
 31
0.0
  0
LWPOLYLINE
  5
2444
330
1E
100
AcDbEntity
  8
文字
100
AcDbPolyline
 90
        6
 70
     0
 43
0.0
 10
162.2864317546456
 20
181.6692606541095
 10
162.2222521102455
 20
182.1033245597093
 10
162.0354194567455
 20
182.4997228028093
 10
161.7419558591456
 20
182.8248581423094
 10
161.3667403283455
 20
183.0511859288094
 10
161.2927975266455
 20
183.0700119491094
  0
LINE
  5
2445
330
1E
100
AcDbEntity
  8
文字
100
AcDbLine
 10
196.9377802199455
 20
198.4602517735094
 30
0.0
 11
198.0693576095456
 21
197.8093616028094
 31
0.0
  0
LINE
  5
2446
330
1E
100
AcDbEntity
  8
文字
100
AcDbLine
 10
162.2864317230455
 20
180.9617354464094
 30
0.0
 11
162.2864317230455
 21
182.9417626506094
 31
0.0
  0
LINE
  5
2447
330
1E
100
AcDbEntity
  8
文字
100
AcDbLine
 10
164.7864317230455
 20
260.9617354464095
 30
0.0
 11
164.7864317230455
 21
258.4616854464095
 31
0.0
  0
LINE
  5
2448
330
1E
100
AcDbEntity
  8
一点鎖線
100
AcDbLine
 10
164.7864317230455
 20
220.4617354464095
 30
0.0
 11
164.7864317230455
 21
176.7682339598094
 31
0.0
  0
LINE
  5
2449
330
1E
100
AcDbEntity
  8
一点鎖線
100
AcDbLine
 10
164.7864317230455
 20
220.4617354464095
 30
0.0
 11
164.7864317230455
 21
258.4616854464095
 31
0.0
  0
LINE
  5
244A
330
1E
100
AcDbEntity
  8
文字
100
AcDbLine
 10
164.7864317230455
 20
260.9617354464095
 30
0.0
 11
164.7864317230455
 21
263.4617854464094
 31
0.0
  0
LINE
  5
244B
330
1E
100
AcDbEntity
  8
文字
100
AcDbLine
 10
161.8103358089456
 20
260.6117783829095
 30
0.0
 11
161.8082622019455
 21
259.3063618098095
 31
0.0
  0
LINE
  5
244C
330
1E
100
AcDbEntity
  8
文字
100
AcDbLine
 10
195.7089963977455
 20
245.1658848220095
 30
0.0
 11
194.0870530832455
 21
244.0301878664095
 31
0.0
  0
LINE
  5
244D
330
1E
100
AcDbEntity
  8
文字
100
AcDbLine
 10
129.6569137050455
 20
203.6185927145095
 30
0.0
 11
128.5274211912456
 21
202.9641013614094
 31
0.0
  0
LINE
  5
244E
330
1E
100
AcDbEntity
  8
一点鎖線
100
AcDbLine
 10
164.7864317230455
 20
220.4617354464095
 30
0.0
 11
123.4509804288455
 21
220.4617354464095
 31
0.0
  0
LINE
  5
244F
330
1E
100
AcDbEntity
  8
一点鎖線
100
AcDbLine
 10
164.7864317230455
 20
220.4617354464095
 30
0.0
 11
206.2650980759455
 21
220.4617354464095
 31
0.0
  0
LINE
  5
2450
330
1E
100
AcDbEntity
  8
一点鎖線
100
AcDbLine
 10
164.7864317230455
 20
220.4617354464095
 30
0.0
 11
212.4178289311901
 21
192.9617354464095
 31
0.0
  0
LINE
  5
2451
330
1E
100
AcDbEntity
  8
文字
100
AcDbLine
 10
130.9959849085455
 20
241.0701246069094
 30
0.0
 11
132.6179282230455
 21
239.9344276513093
 31
0.0
  0
LINE
  5
2452
330
1E
100
AcDbEntity
  8
文字
100
AcDbLine
 10
167.7646012440455
 20
259.3063618098095
 30
0.0
 11
167.7625276370456
 21
260.6117783833094
 31
0.0
  0
LINE
  5
2453
330
1E
100
AcDbEntity
  8
文字
100
AcDbLine
 10
167.2864317230454
 20
182.9417626506094
 30
0.0
 11
167.2864317230454
 21
180.9617354464094
 31
0.0
  0
LINE
  5
2454
330
1E
100
AcDbEntity
  8
文字
100
AcDbLine
 10
196.9549352229456
 20
239.9344276513093
 30
0.0
 11
198.5768785375455
 21
241.0701246069094
 31
0.0
  0
LINE
  5
2455
330
1E
100
AcDbEntity
  8
文字
100
AcDbLine
 10
131.3454990562455
 20
197.8734525235094
 30
0.0
 11
131.3030981516456
 21
197.8469545767094
 31
0.0
  0
LINE
  5
2456
330
1E
100
AcDbEntity
  8
一点鎖線
100
AcDbLine
 10
164.7864317230455
 20
220.4617354464095
 30
0.0
 11
118.0210599186857
 21
193.4617354464094
 31
0.0
  0
LINE
  5
2457
330
1E
100
AcDbEntity
  8
文字
100
AcDbLine
 10
131.5035059945456
 20
197.8093614235094
 30
0.0
 11
132.6350832260456
 21
198.4602517735094
 31
0.0
  0
LINE
  5
2458
330
1E
100
AcDbEntity
  8
文字
100
AcDbLine
 10
201.0454422925455
 20
202.9641014838095
 30
0.0
 11
199.9159497409456
 21
203.6185927145095
 31
0.0
  0
LINE
  5
2459
330
1E
100
AcDbEntity
  8
文字
100
AcDbLine
 10
135.4858103627455
 20
244.0301878664095
 30
0.0
 11
133.8638670482455
 21
245.1658848220095
 31
0.0
  0
LINE
  5
245A
330
1E
100
AcDbEntity
  8
文字
100
AcDbLine
 10
158.9219479070455
 20
233.5625776908095
 30
0.0
 11
157.4429279610454
 21
236.1243153818095
 31
0.0
  0
LINE
  5
245B
330
1E
100
AcDbEntity
  8
文字
100
AcDbLine
 10
153.0228100220456
 20
228.4684465363093
 30
0.0
 11
155.9808499140455
 21
228.4684465363093
 31
0.0
  0
LWPOLYLINE
  5
245C
330
1E
100
AcDbEntity
  8
文字
100
AcDbPolyline
 90
        6
 70
     0
 43
0.0
 10
134.4434378011456
 20
244.7600650360094
 10
134.8358140191455
 20
244.5636690327094
 10
135.2676869515454
 20
244.4893486861094
 10
135.7023458966456
 20
244.5432499076094
 10
136.1029574797455
 20
244.7207919740093
 10
136.1804532159455
 20
244.7874860537095
  0
LWPOLYLINE
  5
245D
330
1E
100
AcDbEntity
  8
文字
100
AcDbPolyline
 90
        6
 70
     0
 43
0.0
 10
199.9159497409456
 20
203.6185927145095
 10
199.5745842737455
 20
203.8886012036094
 10
199.3253408844456
 20
204.2449443814094
 10
199.1890077497455
 20
204.6577185064094
 10
199.1769827041455
 20
205.0924060352095
 10
199.2901825302455
 20
205.5121688996095
  0
LWPOLYLINE
  5
245E
330
1E
100
AcDbEntity
  8
文字
100
AcDbPolyline
 90
        6
 70
     0
 43
0.0
 10
197.9973078280455
 20
240.6643047586095
 10
197.6785551779455
 20
240.3627627561095
 10
197.4610078043456
 20
239.9823540716095
 10
197.3629963167456
 20
239.5554728526093
 10
197.3928141487455
 20
239.1182983414094
 10
197.4390793623456
 20
238.9959631981093
  0
LWPOLYLINE
  5
245F
330
1E
100
AcDbEntity
  8
文字
100
AcDbPolyline
 90
        6
 70
     0
 43
0.0
 10
132.6350832260456
 20
198.4602517735094
 10
133.0396006217456
 20
198.6208787925095
 10
133.4728243190455
 20
198.6585582115095
 10
133.8984637667455
 20
198.5702390739095
 10
134.2809264700455
 20
198.3633093930095
 10
134.5878519238455
 20
198.0553940098095
  0
LINE
  5
2460
330
1E
100
AcDbEntity
  8
文字
100
AcDbLine
 10
154.5018299680456
 20
232.7184465363093
 30
0.0
 11
148.2518299680456
 21
232.7184465363093
 31
0.0
  0
LINE
  5
2461
330
1E
100
AcDbEntity
  8
文字
100
AcDbLine
 10
154.5018299680456
 20
232.7184465363093
 30
0.0
 11
160.7518299680456
 21
232.7184465363093
 31
0.0
  0
LINE
  5
2462
330
1E
100
AcDbEntity
  8
文字
100
AcDbLine
 10
155.9808499140455
 20
236.9684465363093
 30
0.0
 11
153.0228100220456
 21
236.9684465363093
 31
0.0
  0
LWPOLYLINE
  5
2463
330
1E
100
AcDbEntity
  8
文字
100
AcDbPolyline
 90
        6
 70
     0
 43
0.0
 10
194.9850115221455
 20
198.0553940098095
 10
195.2923278695456
 20
198.3636021028095
 10
195.6748636568455
 20
198.5704086831093
 10
196.1005320903456
 20
198.6585869480094
 10
196.5337376716455
 20
198.6207657135093
 10
196.9377802199455
 20
198.4602517735094
  0
LINE
  5
2464
330
1E
100
AcDbEntity
  8
文字
100
AcDbLine
 10
164.7864317230455
 20
260.9617354464095
 30
0.0
 11
162.2863817230455
 21
260.9617354464095
 31
0.0
  0
LINE
  5
2465
330
1E
100
AcDbEntity
  8
文字
100
AcDbLine
 10
164.7864317230455
 20
260.9617354464095
 30
0.0
 11
167.2864817230456
 21
260.9617354464095
 31
0.0
  0
LWPOLYLINE
  5
2466
330
1E
100
AcDbEntity
  8
文字
100
AcDbPolyline
 90
        6
 70
     0
 43
0.0
 10
169.0916026549456
 20
257.8176434716094
 10
168.6710289387455
 20
257.9296829825095
 10
168.3006611466455
 20
258.1575653149093
 10
168.0114622758456
 20
258.4821157970095
 10
167.8276133860455
 20
258.8761937997093
 10
167.7646012440455
 20
259.3063618098095
  0
LWPOLYLINE
  5
2467
330
1E
100
AcDbEntity
  8
文字
100
AcDbPolyline
 90
        6
 70
     0
 43
0.0
 10
193.3919202615456
 20
244.7879897457095
 10
193.4703727951456
 20
244.7204975454094
 10
193.8710796086455
 20
244.5430946800094
 10
194.3057594630455
 20
244.4893621878093
 10
194.7375738990455
 20
244.5638407285094
 10
195.1294256449456
 20
244.7600650360094
  0
LINE
  5
2468
330
1E
100
AcDbEntity
  8
文字
100
AcDbLine
 10
244.2063543116455
 20
111.6828268283095
 30
0.0
 11
244.2063543116455
 21
114.4328268283095
 31
0.0
  0
LINE
  5
2469
330
1E
100
AcDbEntity
  8
文字
100
AcDbLine
 10
246.0500696685454
 20
108.0705062723094
 30
0.0
 11
246.0531885065456
 21
108.0767616939094
 31
0.0
  0
LWPOLYLINE
  5
246A
330
1E
100
AcDbEntity
  8
文字
100
AcDbPolyline
 90
        5
 70
     0
 43
0.0
 10
248.9477183822455
 20
109.1828268205094
 10
248.9617068106455
 20
109.2031662240094
 10
248.9769355544456
 20
109.2479228321094
 10
248.9938536444455
 20
109.3147601132095
 10
249.0115046899456
 20
109.4197428335094
  0
LINE
  5
246B
330
1E
100
AcDbEntity
  8
文字
100
AcDbLine
 10
244.3249575176455
 20
109.4197428393094
 30
0.0
 11
244.2063543116455
 21
111.6828268283095
 31
0.0
  0
LINE
  5
246C
330
1E
100
AcDbEntity
  8
文字
100
AcDbLine
 10
247.5210356916455
 20
109.4197428393094
 30
0.0
 11
247.4138795112455
 21
111.6828268283095
 31
0.0
  0
LINE
  5
246D
330
1E
100
AcDbEntity
  8
文字
100
AcDbLine
 10
245.3063543116456
 20
109.1828268283095
 30
0.0
 11
245.3063543116456
 21
108.4845775948094
 31
0.0
  0
LINE
  5
246E
330
1E
100
AcDbEntity
  8
文字
100
AcDbLine
 10
246.5213543116455
 20
108.0057243887095
 30
0.0
 11
246.5213543116455
 21
108.0767616939094
 31
0.0
  0
LINE
  5
246F
330
1E
100
AcDbEntity
  8
文字
100
AcDbLine
 10
246.7063543116454
 20
109.1828268283095
 30
0.0
 11
246.7063543116454
 21
114.4328268283095
 31
0.0
  0
LINE
  5
2470
330
1E
100
AcDbEntity
  8
文字
100
AcDbLine
 10
246.8913543116455
 20
108.0767616939094
 30
0.0
 11
246.8913543116455
 21
108.0057243887095
 31
0.0
  0
LINE
  5
2471
330
1E
100
AcDbEntity
  8
文字
100
AcDbLine
 10
247.5210356916455
 20
109.4197428392094
 30
0.0
 11
247.5210356916455
 21
109.1828268283095
 31
0.0
  0
LINE
  5
2472
330
1E
100
AcDbEntity
  8
文字
100
AcDbLine
 10
248.1063543116456
 20
109.1828268283095
 30
0.0
 11
248.1063543116456
 21
108.4845775948094
 31
0.0
  0
LINE
  5
2473
330
1E
100
AcDbEntity
  8
文字
100
AcDbLine
 10
249.1421909426454
 20
111.6828268283095
 30
0.0
 11
249.1465646240456
 21
111.9328268285094
 31
0.0
  0
LINE
  5
2474
330
1E
100
AcDbEntity
  8
文字
100
AcDbLine
 10
250.3141520456455
 20
81.00421849530951
 30
0.0
 11
248.8373737602455
 21
109.1828268205094
 31
0.0
  0
LINE
  5
2475
330
1E
100
AcDbEntity
  8
文字
100
AcDbLine
 10
248.9039315535455
 20
111.6828268283095
 30
0.0
 11
249.0115046899456
 21
109.4197428335094
 31
0.0
  0
LINE
  5
2476
330
1E
100
AcDbEntity
  8
文字
100
AcDbLine
 10
248.7957766149456
 20
111.9328268285094
 30
0.0
 11
248.6863815158455
 21
114.4328268283095
 31
0.0
  0
LINE
  5
2477
330
1E
100
AcDbEntity
  8
文字
100
AcDbLine
 10
249.2063543116454
 20
111.6828268283095
 30
0.0
 11
249.2063543116454
 21
111.9328268283094
 31
0.0
  0
LWPOLYLINE
  5
2478
330
1E
100
AcDbEntity
  8
文字
100
AcDbPolyline
 90
        7
 70
     0
 43
0.0
 10
295.0571965560456
 20
123.1828268285094
 10
295.4976673223455
 20
123.3234575446095
 10
295.9293205358454
 20
123.4066728322094
 10
296.3522495144454
 20
123.4327951514095
 10
296.7694583211456
 20
123.4037076345094
 10
297.1883847073456
 20
123.3208937147095
 10
297.6189342470456
 20
123.1828268285094
  0
LWPOLYLINE
  5
2479
330
1E
100
AcDbEntity
  8
文字
100
AcDbPolyline
 90
        7
 70
     0
 43
0.0
 10
299.3071965560456
 20
123.1828268285094
 10
299.7476673157456
 20
123.3234575430095
 10
300.1793205271454
 20
123.4066728312095
 10
300.6022495070455
 20
123.4327951514095
 10
301.0194583160454
 20
123.4037076351095
 10
301.4383847042456
 20
123.3208937153094
 10
301.8689342470456
 20
123.1828268285094
  0
LINE
  5
247A
330
1E
100
AcDbEntity
  8
文字
100
AcDbLine
 10
247.3595201168456
 20
108.0767616939094
 30
0.0
 11
247.3626389548456
 21
108.0705062723094
 31
0.0
  0
LINE
  5
247B
330
1E
100
AcDbEntity
  8
文字
100
AcDbLine
 10
263.0873371401455
 20
111.9328268283094
 30
0.0
 11
262.9781847826456
 21
114.4328268283095
 31
0.0
  0
LINE
  5
247C
330
1E
100
AcDbEntity
  8
文字
100
AcDbLine
 10
262.9631891227455
 20
114.4328268283095
 30
0.0
 11
262.9631891227455
 21
114.9328268283094
 31
0.0
  0
LINE
  5
247D
330
1E
100
AcDbEntity
  8
文字
100
AcDbLine
 10
253.5903289076455
 20
78.84981412630948
 30
0.0
 11
250.5634668131456
 21
80.5973737713095
 31
0.0
  0
LINE
  5
247E
330
1E
100
AcDbEntity
  8
文字
100
AcDbLine
 10
268.4409960656454
 20
111.9328268283094
 30
0.0
 11
268.5355247802455
 21
114.4328268283095
 31
0.0
  0
LINE
  5
247F
330
1E
100
AcDbEntity
  8
文字
100
AcDbLine
 10
295.2130654015456
 20
124.4328268283094
 30
0.0
 11
294.2121528624456
 21
123.4319142892094
 31
0.0
  0
LINE
  5
2480
330
1E
100
AcDbEntity
  8
文字
100
AcDbLine
 10
268.9495195006457
 20
114.4328268283095
 30
0.0
 11
268.9495195006457
 21
114.9328268283094
 31
0.0
  0
LINE
  5
2481
330
1E
100
AcDbEntity
  8
文字
100
AcDbLine
 10
271.2567877180455
 20
114.4328268283095
 30
0.0
 11
271.2143964579456
 21
111.9328268283094
 31
0.0
  0
LINE
  5
2482
330
1E
100
AcDbEntity
  8
文字
100
AcDbLine
 10
269.3173916116455
 20
111.9328268283094
 30
0.0
 11
269.3632115885455
 21
114.4328268270094
 31
0.0
  0
LINE
  5
2483
330
1E
100
AcDbEntity
  8
文字
100
AcDbLine
 10
253.8403289240454
 20
78.78282682830948
 30
0.0
 11
318.5723796992456
 21
78.78282682830948
 31
0.0
  0
LINE
  5
2484
330
1E
100
AcDbEntity
  8
文字
100
AcDbLine
 10
318.8223797156456
 20
78.84981412630948
 30
0.0
 11
253.5903289076455
 21
78.84981412630948
 31
0.0
  0
LINE
  5
2485
330
1E
100
AcDbEntity
  8
文字
100
AcDbLine
 10
250.5634668131456
 20
80.5973737713095
 30
0.0
 11
321.8492418101456
 21
80.5973737713095
 31
0.0
  0
LINE
  5
2486
330
1E
100
AcDbEntity
  8
文字
100
AcDbLine
 10
322.0985565776454
 20
81.00421849530951
 30
0.0
 11
250.3141520456455
 21
81.00421849530951
 31
0.0
  0
LWPOLYLINE
  5
2487
330
1E
100
AcDbEntity
  8
文字
100
AcDbPolyline
 90
        5
 70
     0
 43
0.0
 10
295.5219674084455
 20
117.3328268283094
 10
295.5280327544455
 20
117.3714835274094
 10
295.5454631215456
 20
117.4043099562094
 10
295.5706112751456
 20
117.4254516405095
 10
295.6000695520456
 20
117.4328268279094
  0
LINE
  5
2488
330
1E
100
AcDbEntity
  8
文字
100
AcDbLine
 10
296.4630654015456
 20
127.4328268283094
 30
0.0
 11
295.9630654015457
 21
124.4328268283094
 31
0.0
  0
LWPOLYLINE
  5
2489
330
1E
100
AcDbEntity
  8
文字
100
AcDbPolyline
 90
        5
 70
     0
 43
0.0
 10
294.0429474633456
 20
117.3328268283094
 10
294.0499671216456
 20
117.3706032709094
 10
294.0703993390456
 20
117.4031218411095
 10
294.1004958929456
 20
117.4247055150094
 10
294.1380503998455
 20
117.4328268279094
  0
LINE
  5
248A
330
1E
100
AcDbEntity
  8
文字
100
AcDbLine
 10
293.9630654015457
 20
120.9328268293094
 30
0.0
 11
293.9630654015457
 21
119.9328268283095
 31
0.0
  0
LINE
  5
248B
330
1E
100
AcDbEntity
  8
文字
100
AcDbLine
 10
293.9630654015457
 20
117.3328268283094
 30
0.0
 11
293.9630654015457
 21
114.4328268283095
 31
0.0
  0
LINE
  5
248C
330
1E
100
AcDbEntity
  8
文字
100
AcDbLine
 10
294.0429474625456
 20
115.4328268283095
 30
0.0
 11
294.0429474625456
 21
117.3328268283094
 31
0.0
  0
LINE
  5
248D
330
1E
100
AcDbEntity
  8
文字
100
AcDbLine
 10
294.2130654015457
 20
123.4328145643095
 30
0.0
 11
294.2130654015457
 21
120.9328268283095
 31
0.0
  0
LINE
  5
248E
330
1E
100
AcDbEntity
  8
文字
100
AcDbLine
 10
294.2130654015457
 20
119.9328268283095
 30
0.0
 11
294.2130654015457
 21
119.4328268283095
 31
0.0
  0
LINE
  5
248F
330
1E
100
AcDbEntity
  8
文字
100
AcDbLine
 10
294.9630654015456
 20
119.4328268283095
 30
0.0
 11
294.9630654015456
 21
117.4328268283095
 31
0.0
  0
LINE
  5
2490
330
1E
100
AcDbEntity
  8
文字
100
AcDbLine
 10
295.0571965560456
 20
120.9328268283095
 30
0.0
 11
295.0571965560456
 21
123.1828268285094
 31
0.0
  0
LINE
  5
2491
330
1E
100
AcDbEntity
  8
文字
100
AcDbLine
 10
295.5219674085455
 20
117.3328268283094
 30
0.0
 11
295.5219674085455
 21
115.4328268283095
 31
0.0
  0
LINE
  5
2492
330
1E
100
AcDbEntity
  8
文字
100
AcDbLine
 10
296.4630654015456
 20
128.1828268283094
 30
0.0
 11
296.4630654015456
 21
127.4328268283094
 31
0.0
  0
LINE
  5
2493
330
1E
100
AcDbEntity
  8
文字
100
AcDbLine
 10
296.9840454555455
 20
115.4328268283095
 30
0.0
 11
296.9840454555455
 21
117.3328268283094
 31
0.0
  0
LINE
  5
2494
330
1E
100
AcDbEntity
  8
文字
100
AcDbLine
 10
297.6189342470456
 20
123.1828268285094
 30
0.0
 11
297.6189342470456
 21
120.9328268283095
 31
0.0
  0
LWPOLYLINE
  5
2495
330
1E
100
AcDbEntity
  8
文字
100
AcDbPolyline
 90
        5
 70
     0
 43
0.0
 10
296.9840454566456
 20
117.3328268283094
 10
296.9852505774456
 20
117.3706032710094
 10
296.9889343585455
 20
117.4031218416095
 10
296.9943106254456
 20
117.4247055155094
 10
297.0010462496455
 20
117.4328268283095
  0
LINE
  5
2496
330
1E
100
AcDbEntity
  8
文字
100
AcDbLine
 10
308.2063389043455
 20
108.0705062723094
 30
0.0
 11
308.2094577424456
 21
108.0767616939094
 31
0.0
  0
LWPOLYLINE
  5
2497
330
1E
100
AcDbEntity
  8
文字
100
AcDbPolyline
 90
        5
 70
     0
 43
0.0
 10
299.9420853464454
 20
117.3328268283094
 10
299.9407513059456
 20
117.3714835275095
 10
299.9369934786455
 20
117.4043099564094
 10
299.9314514761456
 20
117.4254516408095
 10
299.9250845535456
 20
117.4328268283095
  0
LINE
  5
2498
330
1E
100
AcDbEntity
  8
文字
100
AcDbLine
 10
299.3071965560456
 20
120.9328268283095
 30
0.0
 11
299.3071965560456
 21
123.1828268285094
 31
0.0
  0
LINE
  5
2499
330
1E
100
AcDbEntity
  8
文字
100
AcDbLine
 10
299.9420853475455
 20
117.3328268283094
 30
0.0
 11
299.9420853475455
 21
115.4328268283095
 31
0.0
  0
LINE
  5
249A
330
1E
100
AcDbEntity
  8
文字
100
AcDbLine
 10
300.4630654015457
 20
128.1828268283094
 30
0.0
 11
300.4630654015457
 21
127.4328268283094
 31
0.0
  0
LINE
  5
249B
330
1E
100
AcDbEntity
  8
文字
100
AcDbLine
 10
301.4041633945454
 20
115.4328268283095
 30
0.0
 11
301.4041633945454
 21
117.3328268283094
 31
0.0
  0
LINE
  5
249C
330
1E
100
AcDbEntity
  8
文字
100
AcDbLine
 10
301.8689342470456
 20
123.1828268285094
 30
0.0
 11
301.8689342470456
 21
120.9328268283095
 31
0.0
  0
LINE
  5
249D
330
1E
100
AcDbEntity
  8
文字
100
AcDbLine
 10
301.9630654015457
 20
119.4328268283095
 30
0.0
 11
301.9630654015457
 21
117.4328268283095
 31
0.0
  0
LINE
  5
249E
330
1E
100
AcDbEntity
  8
文字
100
AcDbLine
 10
302.7130654015457
 20
119.9328268283095
 30
0.0
 11
302.7130654015457
 21
119.4328268283095
 31
0.0
  0
LINE
  5
249F
330
1E
100
AcDbEntity
  8
文字
100
AcDbLine
 10
302.7130654015457
 20
120.9328268283095
 30
0.0
 11
302.7130654015457
 21
123.4328144436094
 31
0.0
  0
LINE
  5
24A0
330
1E
100
AcDbEntity
  8
文字
100
AcDbLine
 10
304.4851066385456
 20
109.4197428335094
 30
0.0
 11
304.4530134121454
 21
111.6828268283095
 31
0.0
  0
LINE
  5
24A1
330
1E
100
AcDbEntity
  8
文字
100
AcDbLine
 10
305.4150963018455
 20
111.9328268285094
 30
0.0
 11
305.4176049424456
 21
111.6828268283095
 31
0.0
  0
LINE
  5
24A2
330
1E
100
AcDbEntity
  8
文字
100
AcDbLine
 10
302.8831833405456
 20
117.3328268283094
 30
0.0
 11
302.8831833405456
 21
115.4328268283095
 31
0.0
  0
LINE
  5
24A3
330
1E
100
AcDbEntity
  8
文字
100
AcDbLine
 10
302.9630654015456
 20
120.9328268293094
 30
0.0
 11
302.9630654015456
 21
119.9328268283095
 31
0.0
  0
LINE
  5
24A4
330
1E
100
AcDbEntity
  8
文字
100
AcDbLine
 10
302.9630654015456
 20
117.3328268283094
 30
0.0
 11
302.9630654015456
 21
114.4328268283095
 31
0.0
  0
LINE
  5
24A5
330
1E
100
AcDbEntity
  8
文字
100
AcDbLine
 10
305.6790464891455
 20
114.4328268283095
 30
0.0
 11
305.6163000380456
 21
111.9328268285094
 31
0.0
  0
LINE
  5
24A6
330
1E
100
AcDbEntity
  8
文字
100
AcDbLine
 10
246.4239742452456
 20
108.0057243883095
 30
0.0
 11
246.5213543116455
 21
108.0057243883095
 31
0.0
  0
LINE
  5
24A7
330
1E
100
AcDbEntity
  8
文字
100
AcDbLine
 10
246.8913543117456
 20
108.0057243883095
 30
0.0
 11
246.9887343781456
 21
108.0057243883095
 31
0.0
  0
LINE
  5
24A8
330
1E
100
AcDbEntity
  8
文字
100
AcDbLine
 10
308.5802434811454
 20
108.0057243883095
 30
0.0
 11
308.6776235475456
 21
108.0057243883095
 31
0.0
  0
LINE
  5
24A9
330
1E
100
AcDbEntity
  8
文字
100
AcDbLine
 10
309.0476235475456
 20
108.0057243883095
 30
0.0
 11
309.1450036140456
 21
108.0057243883095
 31
0.0
  0
LINE
  5
24AA
330
1E
100
AcDbEntity
  8
文字
100
AcDbLine
 10
245.3691450087454
 20
108.3705126266095
 30
0.0
 11
248.0435636349456
 21
108.3705126410094
 31
0.0
  0
LINE
  5
24AB
330
1E
100
AcDbEntity
  8
文字
100
AcDbLine
 10
307.5254142445455
 20
108.3705126266095
 30
0.0
 11
310.1998328708456
 21
108.3705126410094
 31
0.0
  0
LINE
  5
24AC
330
1E
100
AcDbEntity
  8
文字
100
AcDbLine
 10
245.3063543420455
 20
108.4845775948094
 30
0.0
 11
248.1063543116456
 21
108.4845775948094
 31
0.0
  0
LINE
  5
24AD
330
1E
100
AcDbEntity
  8
文字
100
AcDbLine
 10
307.4626235779455
 20
108.4845775948094
 30
0.0
 11
310.2626235475456
 21
108.4845775948094
 31
0.0
  0
LWPOLYLINE
  5
24AE
330
1E
100
AcDbEntity
  8
文字
100
AcDbPolyline
 90
        4
 70
     0
 43
0.0
 10
246.5213543116455
 20
108.0767616939094
 10
246.6449079355454
 20
108.0712006149095
 10
246.7685505357454
 20
108.0712176039094
 10
246.8913543116455
 20
108.0767616939094
  0
LWPOLYLINE
  5
24AF
330
1E
100
AcDbEntity
  8
文字
100
AcDbPolyline
 90
        4
 70
     0
 43
0.0
 10
308.6776235475456
 20
108.0767616939094
 10
308.8011771714456
 20
108.0712006149095
 10
308.9248197716456
 20
108.0712176039094
 10
309.0476235475456
 20
108.0767616939094
  0
LINE
  5
24B0
330
1E
100
AcDbEntity
  8
文字
100
AcDbLine
 10
300.4630654015457
 20
127.4328268283094
 30
0.0
 11
300.9630654015456
 21
124.4328268283094
 31
0.0
  0
LINE
  5
24B1
330
1E
100
AcDbEntity
  8
文字
100
AcDbLine
 10
306.8147434367456
 20
111.6828268283095
 30
0.0
 11
306.9118974956456
 21
109.4197428393094
 31
0.0
  0
LINE
  5
24B2
330
1E
100
AcDbEntity
  8
文字
100
AcDbLine
 10
306.4089236541456
 20
111.6828268283095
 30
0.0
 11
306.4446154531456
 21
109.4197428393094
 31
0.0
  0
LINE
  5
24B3
330
1E
100
AcDbEntity
  8
文字
100
AcDbLine
 10
306.8147434366455
 20
114.4328268283095
 30
0.0
 11
306.8147434366455
 21
111.6828268283095
 31
0.0
  0
LINE
  5
24B4
330
1E
100
AcDbEntity
  8
文字
100
AcDbLine
 10
307.4626235475456
 20
109.1828268283095
 30
0.0
 11
307.4626235475456
 21
108.4845775948094
 31
0.0
  0
LINE
  5
24B5
330
1E
100
AcDbEntity
  8
文字
100
AcDbLine
 10
308.6776235475456
 20
108.0057243887095
 30
0.0
 11
308.6776235475456
 21
108.0767616939094
 31
0.0
  0
LINE
  5
24B6
330
1E
100
AcDbEntity
  8
文字
100
AcDbLine
 10
309.0476235475456
 20
108.0767616939094
 30
0.0
 11
309.0476235475456
 21
108.0057243887095
 31
0.0
  0
LINE
  5
24B7
330
1E
100
AcDbEntity
  8
文字
100
AcDbLine
 10
310.2626235475456
 20
109.1828268283095
 30
0.0
 11
310.2626235475456
 21
108.4845775948094
 31
0.0
  0
LINE
  5
24B8
330
1E
100
AcDbEntity
  8
文字
100
AcDbLine
 10
311.2440203416456
 20
109.4197428393094
 30
0.0
 11
311.3626235476456
 21
111.6828268283095
 31
0.0
  0
LWPOLYLINE
  5
24B9
330
1E
100
AcDbEntity
  8
文字
100
AcDbPolyline
 90
        6
 70
     0
 43
0.0
 10
249.0115075740454
 20
109.4197431728095
 10
248.9011488869456
 20
109.4190075478095
 10
248.6691271385456
 20
109.4157366629094
 10
248.3400483964455
 20
109.4158892706095
 10
247.9433442587454
 20
109.4191569715095
 10
247.5210356831456
 20
109.4197430207094
  0
LWPOLYLINE
  5
24BA
330
1E
100
AcDbEntity
  8
文字
100
AcDbPolyline
 90
        6
 70
     0
 43
0.0
 10
306.4446154567456
 20
109.4197425965095
 10
306.1364911893456
 20
109.4190162299095
 10
305.7481559419454
 20
109.4157383126094
 10
305.3183663254456
 20
109.4158913893094
 10
304.8830834704456
 20
109.4191666330095
 10
304.4851052162454
 20
109.4197427486095
  0
LINE
  5
24BB
330
1E
100
AcDbEntity
  8
文字
100
AcDbLine
 10
310.9942898977456
 20
109.1828268283095
 30
0.0
 11
305.2263695450456
 21
109.1828268283095
 31
0.0
  0
LINE
  5
24BC
330
1E
100
AcDbEntity
  8
文字
100
AcDbLine
 10
244.5746149026456
 20
109.1828268283095
 30
0.0
 11
248.9477183802455
 21
109.1828268283095
 31
0.0
  0
LINE
  5
24BD
330
1E
100
AcDbEntity
  8
文字
100
AcDbLine
 10
311.2440178300455
 20
109.4197428393094
 30
0.0
 11
306.4446154531456
 21
109.4197428393094
 31
0.0
  0
LINE
  5
24BE
330
1E
100
AcDbEntity
  8
文字
100
AcDbLine
 10
244.3249575176455
 20
109.4197428393094
 30
0.0
 11
247.5210356916455
 21
109.4197428393094
 31
0.0
  0
LINE
  5
24BF
330
1E
100
AcDbEntity
  8
文字
100
AcDbLine
 10
323.7063542919456
 20
111.6828268283095
 30
0.0
 11
244.2063543313456
 21
111.6828268283095
 31
0.0
  0
LINE
  5
24C0
330
1E
100
AcDbEntity
  8
文字
100
AcDbLine
 10
329.5753714761456
 20
111.9328268283094
 30
0.0
 11
311.3626235476456
 21
111.9328268283094
 31
0.0
  0
LINE
  5
24C1
330
1E
100
AcDbEntity
  8
文字
100
AcDbLine
 10
305.6163000240454
 20
111.9328268283094
 30
0.0
 11
248.7957766283455
 21
111.9328268283094
 31
0.0
  0
LWPOLYLINE
  5
24C2
330
1E
100
AcDbEntity
  8
文字
100
AcDbPolyline
 90
        5
 70
     0
 43
0.0
 10
306.9118974960455
 20
109.4197428392094
 10
306.9299566250456
 20
109.3294193079095
 10
306.9733256300455
 20
109.2539657876093
 10
307.0384501187457
 20
109.2016481253095
 10
307.1164048521456
 20
109.1828268284094
  0
LINE
  5
24C3
330
1E
100
AcDbEntity
  8
文字
100
AcDbLine
 10
311.3626235476456
 20
111.6828268283095
 30
0.0
 11
311.3626235476456
 21
114.4328268283095
 31
0.0
  0
LINE
  5
24C4
330
1E
100
AcDbEntity
  8
文字
100
AcDbLine
 10
318.8223797156456
 20
78.84981412630948
 30
0.0
 11
321.8492418101456
 21
80.5973737713095
 31
0.0
  0
LINE
  5
24C5
330
1E
100
AcDbEntity
  8
文字
100
AcDbLine
 10
244.2063543335456
 20
114.4328268283095
 30
0.0
 11
268.6851443874457
 21
114.4328268283095
 31
0.0
  0
LINE
  5
24C6
330
1E
100
AcDbEntity
  8
文字
100
AcDbLine
 10
268.7087203491454
 20
114.4328268283095
 30
0.0
 11
311.3624078284455
 21
114.4328268283095
 31
0.0
  0
LINE
  5
24C7
330
1E
100
AcDbEntity
  8
文字
100
AcDbLine
 10
311.3626235476456
 20
114.4328268283095
 30
0.0
 11
326.3563972485456
 21
114.4328268283095
 31
0.0
  0
LINE
  5
24C8
330
1E
100
AcDbEntity
  8
文字
100
AcDbLine
 10
326.4071150971456
 20
114.4328268283095
 30
0.0
 11
329.6990559272454
 21
114.4328268283095
 31
0.0
  0
LINE
  5
24C9
330
1E
100
AcDbEntity
  8
文字
100
AcDbLine
 10
262.9636526960454
 20
114.9328268283094
 30
0.0
 11
268.9490559272456
 21
114.9328268283094
 31
0.0
  0
LINE
  5
24CA
330
1E
100
AcDbEntity
  8
文字
100
AcDbLine
 10
323.7136526960454
 20
114.9328268283094
 30
0.0
 11
329.6990559272454
 21
114.9328268283094
 31
0.0
  0
LINE
  5
24CB
330
1E
100
AcDbEntity
  8
文字
100
AcDbLine
 10
294.0429474631456
 20
115.4328268283095
 30
0.0
 11
295.5219674080456
 21
115.4328268283095
 31
0.0
  0
LINE
  5
24CC
330
1E
100
AcDbEntity
  8
文字
100
AcDbLine
 10
296.9840454566456
 20
115.4328268283095
 30
0.0
 11
299.9420853464454
 21
115.4328268283095
 31
0.0
  0
LINE
  5
24CD
330
1E
100
AcDbEntity
  8
文字
100
AcDbLine
 10
301.4041633951454
 20
115.4328268283095
 30
0.0
 11
302.8831833400456
 21
115.4328268283095
 31
0.0
  0
LWPOLYLINE
  5
24CE
330
1E
100
AcDbEntity
  8
文字
100
AcDbPolyline
 90
        5
 70
     0
 43
0.0
 10
306.6491228092456
 20
109.1828268284094
 10
306.5754649689456
 20
109.1995577521094
 10
306.5072358376454
 20
109.2525559218094
 10
306.4618307706456
 20
109.3317173443095
 10
306.4446154531456
 20
109.4197428392094
  0
LWPOLYLINE
  5
24CF
330
1E
100
AcDbEntity
  8
文字
100
AcDbPolyline
 90
        5
 70
     0
 43
0.0
 10
304.4851066385456
 20
109.4197428335094
 10
304.6903952594456
 20
109.3149194602095
 10
304.8874513907455
 20
109.2472039968094
 10
305.0652875872456
 20
109.2027725599094
 10
305.2263695289456
 20
109.1828268205094
  0
LINE
  5
24D0
330
1E
100
AcDbEntity
  8
文字
100
AcDbLine
 10
293.9630654024456
 20
117.3328268283094
 30
0.0
 11
302.9630654006456
 21
117.3328268283094
 31
0.0
  0
LINE
  5
24D1
330
1E
100
AcDbEntity
  8
文字
100
AcDbLine
 10
302.8630267924456
 20
117.4328268283095
 30
0.0
 11
294.0631040107456
 21
117.4328268283095
 31
0.0
  0
LINE
  5
24D2
330
1E
100
AcDbEntity
  8
文字
100
AcDbLine
 10
294.2130654048455
 20
119.4328268283095
 30
0.0
 11
302.7130653983456
 21
119.4328268283095
 31
0.0
  0
LINE
  5
24D3
330
1E
100
AcDbEntity
  8
文字
100
AcDbLine
 10
302.9630653981454
 20
119.9328268283095
 30
0.0
 11
293.9630654050456
 21
119.9328268283095
 31
0.0
  0
LWPOLYLINE
  5
24D4
330
1E
100
AcDbEntity
  8
文字
100
AcDbPolyline
 90
        5
 70
     0
 43
0.0
 10
302.7880804032456
 20
117.4328268280095
 10
302.8238081613455
 20
117.4255069308093
 10
302.8544864308455
 20
117.4044217111094
 10
302.8755637789456
 20
117.3721362219094
 10
302.8831833398455
 20
117.3328268283094
  0
LWPOLYLINE
  5
24D5
330
1E
100
AcDbEntity
  8
文字
100
AcDbPolyline
 90
        5
 70
     0
 43
0.0
 10
301.3260612511455
 20
117.4328268280095
 10
301.3564856044455
 20
117.4249387572094
 10
301.3821479911456
 20
117.4024055467093
 10
301.3984666590456
 20
117.3703383020094
 10
301.4041633947456
 20
117.3328268283094
  0
LINE
  5
24D6
330
1E
100
AcDbEntity
  8
文字
100
AcDbLine
 10
309.5157893526454
 20
108.0767616939094
 30
0.0
 11
309.5189081907456
 21
108.0705062723094
 31
0.0
  0
LINE
  5
24D7
330
1E
100
AcDbEntity
  8
文字
100
AcDbLine
 10
293.9630718974456
 20
120.9328268283095
 30
0.0
 11
294.2130654015457
 21
120.9328268283095
 31
0.0
  0
LINE
  5
24D8
330
1E
100
AcDbEntity
  8
文字
100
AcDbLine
 10
295.0571965563456
 20
120.9328268283095
 30
0.0
 11
297.6189342467456
 21
120.9328268283095
 31
0.0
  0
LINE
  5
24D9
330
1E
100
AcDbEntity
  8
文字
100
AcDbLine
 10
299.3071965563456
 20
120.9328268283095
 30
0.0
 11
301.8689342467456
 21
120.9328268283095
 31
0.0
  0
LINE
  5
24DA
330
1E
100
AcDbEntity
  8
文字
100
AcDbLine
 10
302.7130654015457
 20
120.9328268283095
 30
0.0
 11
302.9630589057455
 21
120.9328268283095
 31
0.0
  0
LINE
  5
24DB
330
1E
100
AcDbEntity
  8
文字
100
AcDbLine
 10
294.2130654014455
 20
123.1828268283094
 30
0.0
 11
295.0571965547455
 21
123.1828268283094
 31
0.0
  0
LINE
  5
24DC
330
1E
100
AcDbEntity
  8
文字
100
AcDbLine
 10
297.6189342462454
 20
123.1828268283094
 30
0.0
 11
299.3071965577454
 21
123.1828268283094
 31
0.0
  0
LINE
  5
24DD
330
1E
100
AcDbEntity
  8
文字
100
AcDbLine
 10
301.8689342460457
 20
123.1828268283094
 30
0.0
 11
302.7130654019456
 21
123.1828268283094
 31
0.0
  0
LINE
  5
24DE
330
1E
100
AcDbEntity
  8
文字
100
AcDbLine
 10
301.7129958443456
 20
124.4328268283094
 30
0.0
 11
295.2131349587456
 21
124.4328268283094
 31
0.0
  0
LINE
  5
24DF
330
1E
100
AcDbEntity
  8
文字
100
AcDbLine
 10
323.2063543116455
 20
111.6828268283095
 30
0.0
 11
323.2063543116455
 21
111.9328268283094
 31
0.0
  0
LINE
  5
24E0
330
1E
100
AcDbEntity
  8
文字
100
AcDbLine
 10
323.7131891227456
 20
114.4328268283095
 30
0.0
 11
323.7131891227456
 21
114.9328268283094
 31
0.0
  0
LINE
  5
24E1
330
1E
100
AcDbEntity
  8
文字
100
AcDbLine
 10
325.0509806949455
 20
114.4328268270094
 30
0.0
 11
324.9535632197455
 21
111.9328268283094
 31
0.0
  0
LINE
  5
24E2
330
1E
100
AcDbEntity
  8
文字
100
AcDbLine
 10
323.4644214117456
 20
111.9328268283094
 30
0.0
 11
323.5622623002456
 21
114.4328268283095
 31
0.0
  0
LINE
  5
24E3
330
1E
100
AcDbEntity
  8
文字
100
AcDbLine
 10
322.0985565776454
 20
81.00421849530951
 30
0.0
 11
323.7063543116454
 21
111.6828268283095
 31
0.0
  0
LINE
  5
24E4
330
1E
100
AcDbEntity
  8
文字
100
AcDbLine
 10
300.4630654015457
 20
127.4328268283094
 30
0.0
 11
296.4630654015456
 21
127.4328268283094
 31
0.0
  0
LINE
  5
24E5
330
1E
100
AcDbEntity
  8
文字
100
AcDbLine
 10
300.4630029769455
 20
128.1828268283094
 30
0.0
 11
296.4631278261456
 21
128.1828268283094
 31
0.0
  0
LINE
  5
24E6
330
1E
100
AcDbEntity
  8
文字
100
AcDbLine
 10
301.7130654015456
 20
124.4328268283094
 30
0.0
 11
302.7139785643455
 21
123.4319136655094
 31
0.0
  0
LINE
  5
24E7
330
1E
100
AcDbEntity
  8
文字
100
AcDbLine
 10
326.7063543116455
 20
114.4328268283095
 30
0.0
 11
326.7063543116455
 21
111.9328268283094
 31
0.0
  0
LINE
  5
24E8
330
1E
100
AcDbEntity
  8
文字
100
AcDbLine
 10
329.6995195006457
 20
114.4328268283095
 30
0.0
 11
329.6995195006457
 21
114.9328268283094
 31
0.0
  0
LINE
  5
24E9
330
1E
100
AcDbEntity
  8
文字
100
AcDbLine
 10
329.5753714831454
 20
111.9328268283094
 30
0.0
 11
329.6845238402456
 21
114.4328268283095
 31
0.0
  0
ARC
  5
24EA
330
1E
100
AcDbEntity
  8
文字
100
AcDbCircle
 10
164.7864317230455
 20
110.4828268283094
 30
0.0
 40
2.5
100
AcDbArc
 50
237.6639734339984
 51
254.7206079149988
  0
ARC
  5
24EB
330
1E
100
AcDbEntity
  8
文字
100
AcDbCircle
 10
164.7864317230455
 20
110.4828268283094
 30
0.0
 40
2.493145603399999
100
AcDbArc
 50
276.5034226030024
 51
285.1878551629025
  0
ARC
  5
24EC
330
1E
100
AcDbEntity
  8
文字
100
AcDbCircle
 10
163.5214317232455
 20
108.4845775960095
 30
0.0
 40
0.1350000003
100
AcDbArc
 50
180.0
 51
237.6639741510005
  0
ARC
  5
24ED
330
1E
100
AcDbEntity
  8
文字
100
AcDbCircle
 10
166.0514317227455
 20
108.4845775960095
 30
0.0
 40
0.1350000003
100
AcDbArc
 50
302.3360258489994
 51
359.9999994874
  0
ARC
  5
24EE
330
1E
100
AcDbEntity
  8
文字
100
AcDbCircle
 10
164.7864317230455
 20
110.4828268283094
 30
0.0
 40
2.5
100
AcDbArc
 50
285.2793920850011
 51
302.3360265660016
  0
ARC
  5
24EF
330
1E
100
AcDbEntity
  8
文字
100
AcDbCircle
 10
164.7864317230455
 20
110.4828268283094
 30
0.0
 40
2.493145603399999
100
AcDbArc
 50
254.8121448370974
 51
263.4965773969975
  0
ARC
  5
24F0
330
1E
100
AcDbEntity
  8
文字
100
AcDbCircle
 10
158.6518299680456
 20
117.3328268283094
 30
0.0
 40
0.1
100
AcDbArc
 50
0.0000000235000753
 51
89.999999978003
  0
ARC
  5
24F1
330
1E
100
AcDbEntity
  8
文字
100
AcDbCircle
 10
150.3518299680455
 20
117.3328268283094
 30
0.0
 40
0.1
100
AcDbArc
 50
90.00000002199705
 51
179.9999999764999
  0
ARC
  5
24F2
330
1E
100
AcDbEntity
  8
文字
100
AcDbCircle
 10
164.7864317230455
 20
80.53282682830952
 30
0.0
 40
30.0
100
AcDbArc
 50
183.3476287809993
 51
356.6523712190005
  0
ARC
  5
24F3
330
1E
100
AcDbEntity
  8
文字
100
AcDbCircle
 10
166.9181711332455
 20
109.4328268281095
 30
0.0
 40
0.2499999998
100
AcDbArc
 50
269.9999999644999
 51
357.0000000300006
  0
ARC
  5
24F4
330
1E
100
AcDbEntity
  8
文字
100
AcDbCircle
 10
162.6546923128455
 20
109.4328268281095
 30
0.0
 40
0.2499999998
100
AcDbArc
 50
182.9999999464004
 51
270.0000000326014
  0
ARC
  5
24F5
330
1E
100
AcDbEntity
  8
文字
100
AcDbCircle
 10
200.1793192216455
 20
81.03038648270951
 30
0.0
 40
0.4999999999000001
100
AcDbArc
 50
299.9999994814027
 51
356.9999988975004
  0
ARC
  5
24F6
330
1E
100
AcDbEntity
  8
文字
100
AcDbCircle
 10
129.3935442243455
 20
81.03038648270951
 30
0.0
 40
0.4999999999000001
100
AcDbArc
 50
183.0000004044999
 51
240.0000001727979
  0
ARC
  5
24F7
330
1E
100
AcDbEntity
  8
文字
100
AcDbCircle
 10
197.1524571267456
 20
79.28282682980951
 30
0.0
 40
0.5000000014000002
100
AcDbArc
 50
270.0000000229024
 51
299.9999999054023
  0
ARC
  5
24F8
330
1E
100
AcDbEntity
  8
文字
100
AcDbCircle
 10
132.4204063193454
 20
79.28282682980951
 30
0.0
 40
0.5000000014000002
100
AcDbArc
 50
240.0000000945976
 51
269.9999999770974
  0
CIRCLE
  5
24F9
330
1E
100
AcDbEntity
  8
文字
100
AcDbCircle
 10
154.5018299680456
 20
232.7184465363093
 30
0.0
 40
2.0
  0
CIRCLE
  5
24FA
330
1E
100
AcDbEntity
  8
文字
100
AcDbCircle
 10
154.5018299680456
 20
232.7184465363093
 30
0.0
 40
4.5
  0
CIRCLE
  5
24FB
330
1E
100
AcDbEntity
  8
文字
100
AcDbCircle
 10
154.5018299680456
 20
232.7184465363093
 30
0.0
 40
2.5
  0
CIRCLE
  5
24FC
330
1E
100
AcDbEntity
  8
文字
100
AcDbCircle
 10
154.5018299680456
 20
232.7184465363093
 30
0.0
 40
3.25
  0
CIRCLE
  5
24FD
330
1E
100
AcDbEntity
  8
文字
100
AcDbCircle
 10
164.7864317230455
 20
260.9617354464095
 30
0.0
 40
1.199999999999999
  0
CIRCLE
  5
24FE
330
1E
100
AcDbEntity
  8
文字
100
AcDbCircle
 10
164.7864317230455
 20
260.9617354464095
 30
0.0
 40
2.993165188899998
  0
CIRCLE
  5
24FF
330
1E
100
AcDbEntity
  8
文字
100
AcDbCircle
 10
129.7124028695454
 20
200.2117354464095
 30
0.0
 40
1.199999999999999
  0
CIRCLE
  5
2500
330
1E
100
AcDbEntity
  8
文字
100
AcDbCircle
 10
129.7124028695454
 20
200.2117354464095
 30
0.0
 40
2.993165188899998
  0
CIRCLE
  5
2501
330
1E
100
AcDbEntity
  8
文字
100
AcDbCircle
 10
199.8604605765456
 20
200.2117354464095
 30
0.0
 40
1.199999999999999
  0
CIRCLE
  5
2502
330
1E
100
AcDbEntity
  8
文字
100
AcDbCircle
 10
199.8604605765456
 20
200.2117354464095
 30
0.0
 40
2.993165188899998
  0
CIRCLE
  5
2503
330
1E
100
AcDbEntity
  8
文字
100
AcDbCircle
 10
197.1429374725454
 20
243.1180046824095
 30
0.0
 40
0.75
  0
CIRCLE
  5
2504
330
1E
100
AcDbEntity
  8
文字
100
AcDbCircle
 10
132.4299259735455
 20
243.1180046824095
 30
0.0
 40
0.75
  0
CIRCLE
  5
2505
330
1E
100
AcDbEntity
  8
文字
100
AcDbCircle
 10
164.7864317230455
 20
180.9617354464094
 30
0.0
 40
0.75
  0
ARC
  5
2506
330
1E
100
AcDbEntity
  8
文字
100
AcDbCircle
 10
164.7864317230455
 20
220.4617354464095
 30
0.0
 40
37.60316952849999
100
AcDbArc
 50
273.8120504681968
 51
323.4258144566013
  0
ARC
  5
2507
330
1E
100
AcDbEntity
  8
文字
100
AcDbCircle
 10
164.7864317230455
 20
180.9617354464094
 30
0.0
 40
2.5
100
AcDbArc
 50
179.9999995495006
 51
0.0000004504992611
  0
ARC
  5
2508
330
1E
100
AcDbEntity
  8
文字
100
AcDbCircle
 10
164.7864317230455
 20
220.4617354464095
 30
0.0
 40
37.60316952849999
100
AcDbArc
 50
216.5741855433985
 51
266.187949531803
  0
ARC
  5
2509
330
1E
100
AcDbEntity
  8
文字
100
AcDbCircle
 10
132.4299259735455
 20
243.1180046824095
 30
0.0
 40
2.5
100
AcDbArc
 50
55.00000068320182
 51
235.000000021902
  0
ARC
  5
250A
330
1E
100
AcDbEntity
  8
文字
100
AcDbCircle
 10
164.7864317230455
 20
220.4617354464095
 30
0.0
 40
37.60316952849999
100
AcDbArc
 50
96.57418544759757
 51
141.1879495098981
  0
ARC
  5
250B
330
1E
100
AcDbEntity
  8
文字
100
AcDbCircle
 10
164.7864317230455
 20
220.4617354464095
 30
0.0
 40
37.60316952849999
100
AcDbArc
 50
38.8120504901019
 51
83.42581455240248
  0
ARC
  5
250C
330
1E
100
AcDbEntity
  8
文字
100
AcDbCircle
 10
164.7864317230455
 20
220.4617354464095
 30
0.0
 40
37.60316952849999
100
AcDbArc
 50
336.5741855531008
 51
31.18794954510131
  0
ARC
  5
250D
330
1E
100
AcDbEntity
  8
文字
100
AcDbCircle
 10
164.7864317230455
 20
220.4617354464095
 30
0.0
 40
37.60316952849999
100
AcDbArc
 50
148.8120504548985
 51
203.425814446899
  0
ARC
  5
250E
330
1E
100
AcDbEntity
  8
文字
100
AcDbCircle
 10
197.1429374725454
 20
243.1180046824095
 30
0.0
 40
2.5
100
AcDbArc
 50
304.9999999780979
 51
124.999999316798
  0
CIRCLE
  5
250F
330
1E
100
AcDbEntity
  8
一点鎖線
100
AcDbCircle
 10
164.7864317230455
 20
220.4617354464095
 30
0.0
 40
40.49999999999999
  0
ARC
  5
2510
330
1E
100
AcDbEntity
  8
文字
100
AcDbCircle
 10
245.4413543119454
 20
108.4845775932094
 30
0.0
 40
0.1350000003
100
AcDbArc
 50
180.0000001256002
 51
237.6639736111965
  0
ARC
  5
2511
330
1E
100
AcDbEntity
  8
文字
100
AcDbCircle
 10
247.9713543113456
 20
108.4845775932094
 30
0.0
 40
0.1350000003
100
AcDbArc
 50
302.3360263888033
 51
359.9999998743996
  0
ARC
  5
2512
330
1E
100
AcDbEntity
  8
文字
100
AcDbCircle
 10
246.7063543116454
 20
110.4828268283094
 30
0.0
 40
2.5
100
AcDbArc
 50
285.2192785565017
 51
302.3360265660016
  0
ARC
  5
2513
330
1E
100
AcDbEntity
  8
文字
100
AcDbCircle
 10
246.7063543116454
 20
110.4828268283094
 30
0.0
 40
2.493145603399999
100
AcDbArc
 50
254.8121448370974
 51
263.4965773969975
  0
ARC
  5
2514
330
1E
100
AcDbEntity
  8
文字
100
AcDbCircle
 10
246.7063543116454
 20
110.4828268283094
 30
0.0
 40
2.5
100
AcDbArc
 50
237.6639734339984
 51
254.7807214432011
  0
ARC
  5
2515
330
1E
100
AcDbEntity
  8
文字
100
AcDbCircle
 10
246.7063543116454
 20
110.4828268283094
 30
0.0
 40
2.493145603399999
100
AcDbArc
 50
276.5034226030024
 51
285.1878551629025
  0
ARC
  5
2516
330
1E
100
AcDbEntity
  8
文字
100
AcDbCircle
 10
307.5976235478456
 20
108.4845775932094
 30
0.0
 40
0.1350000003
100
AcDbArc
 50
180.0000001256002
 51
237.6639736111965
  0
ARC
  5
2517
330
1E
100
AcDbEntity
  8
文字
100
AcDbCircle
 10
310.1276235472454
 20
108.4845775932094
 30
0.0
 40
0.1350000003
100
AcDbArc
 50
302.3360263888033
 51
359.9999998743996
  0
ARC
  5
2518
330
1E
100
AcDbEntity
  8
文字
100
AcDbCircle
 10
308.8626235475455
 20
110.4828268283094
 30
0.0
 40
2.5
100
AcDbArc
 50
285.2192785565017
 51
302.3360265660016
  0
ARC
  5
2519
330
1E
100
AcDbEntity
  8
文字
100
AcDbCircle
 10
308.8626235475455
 20
110.4828268283094
 30
0.0
 40
2.493145603399999
100
AcDbArc
 50
254.8121448370974
 51
263.4965773969975
  0
ARC
  5
251A
330
1E
100
AcDbEntity
  8
文字
100
AcDbCircle
 10
308.8626235475455
 20
110.4828268283094
 30
0.0
 40
2.5
100
AcDbArc
 50
237.6639734339984
 51
254.7807214432011
  0
ARC
  5
251B
330
1E
100
AcDbEntity
  8
文字
100
AcDbCircle
 10
308.8626235475455
 20
110.4828268283094
 30
0.0
 40
2.493145603399999
100
AcDbArc
 50
276.5034226030024
 51
285.1878551629025
  0
ARC
  5
251C
330
1E
100
AcDbEntity
  8
文字
100
AcDbCircle
 10
302.8630654018456
 20
117.3328268296095
 30
0.0
 40
0.0999999999
100
AcDbArc
 50
0.0000016952004301
 51
90.00000011849861
  0
ARC
  5
251D
330
1E
100
AcDbEntity
  8
文字
100
AcDbCircle
 10
294.0630654013456
 20
117.3328268296095
 30
0.0
 40
0.0999999999
100
AcDbArc
 50
89.99999988150138
 51
179.9999983047995
  0
ARC
  5
251E
330
1E
100
AcDbEntity
  8
文字
100
AcDbCircle
 10
286.2063543116454
 20
80.53282682830952
 30
0.0
 40
30.0
100
AcDbArc
 50
183.3476287809993
 51
356.6523712190005
  0
ARC
  5
251F
330
1E
100
AcDbEntity
  8
文字
100
AcDbCircle
 10
310.9943629573456
 20
109.4328268290094
 30
0.0
 40
0.2500000002
100
AcDbArc
 50
270.000000020603
 51
356.9999998533997
  0
ARC
  5
2520
330
1E
100
AcDbEntity
  8
文字
100
AcDbCircle
 10
244.5746149014455
 20
109.4328268281095
 30
0.0
 40
0.2499999998
100
AcDbArc
 50
182.9999999464004
 51
270.0000000326014
  0
ARC
  5
2521
330
1E
100
AcDbEntity
  8
文字
100
AcDbCircle
 10
250.8134668130455
 20
81.03038646430951
 30
0.0
 40
0.4999999999000001
100
AcDbArc
 50
182.9999989956997
 51
239.9999994815984
  0
ARC
  5
2522
330
1E
100
AcDbEntity
  8
文字
100
AcDbCircle
 10
321.5992418102456
 20
81.03038646430951
 30
0.0
 40
0.4999999999000001
100
AcDbArc
 50
300.0000005184014
 51
357.0000010043003
  0
ARC
  5
2523
330
1E
100
AcDbEntity
  8
文字
100
AcDbCircle
 10
318.5723797153456
 20
79.28282682980951
 30
0.0
 40
0.5000000014000002
100
AcDbArc
 50
270.0000000182972
 51
299.9999999041991
  0
ARC
  5
2524
330
1E
100
AcDbEntity
  8
文字
100
AcDbCircle
 10
253.8403289079456
 20
79.28282682980951
 30
0.0
 40
0.5000000014000002
100
AcDbArc
 50
240.0000000959966
 51
269.9999999815986
  0
LINE
  5
2525
330
1E
100
AcDbEntity
  8
文字
100
AcDbLine
 10
200.6970114644435
 20
51.78512670057386
 30
0.0
 11
189.7677045866203
 21
60.53442673945507
 31
0.0
  0
MTEXT
  5
2526
330
1E
100
AcDbEntity
  8
文字
100
AcDbMText
 10
198.552939661218
 20
56.3836916483023
 30
0.0
 40
2.5
 41
0.0
 71
     5
 72
     1
  1
SR60
 11
0.7771459614569706
 21
-0.6293203910498379
 31
0.0
 73
     1
 44
1.0
  0
INSERT
  5
2527
330
1E
100
AcDbEntity
  8
文字
100
AcDbBlockReference
  2
_OPEN30
 10
188.2063750326456
 20
61.78432674500953
 30
0.0
 41
1.999999999999968
 42
2.0
 43
2.0
 50
141.3214821155448
  0
LINE
  5
2528
330
1E
100
AcDbEntity
  8
文字
100
AcDbLine
 10
125.3691440973456
 20
114.9328268283094
 30
0.0
 11
100.0680748160456
 21
114.9328268283094
 31
0.0
  0
LINE
  5
2529
330
1E
100
AcDbEntity
  8
文字
100
AcDbLine
 10
163.2864317230454
 20
50.53282682830951
 30
0.0
 11
100.0680748160456
 21
50.53282682830952
 31
0.0
  0
LINE
  5
252A
330
1E
100
AcDbEntity
  8
文字
100
AcDbLine
 10
101.0680748160456
 20
112.9328268283094
 30
0.0
 11
101.0680748160456
 21
52.53282682830954
 31
0.0
  0
INSERT
  5
252B
330
1E
100
AcDbEntity
  8
文字
100
AcDbBlockReference
  2
_OPEN30
 10
101.0680748160456
 20
114.9328268283094
 30
0.0
 41
2.0
 42
2.0
 43
2.0
 50
90.0
  0
INSERT
  5
252C
330
1E
100
AcDbEntity
  8
文字
100
AcDbBlockReference
  2
_OPEN30
 10
101.0680748160456
 20
50.53282682830952
 30
0.0
 41
2.0
 42
2.0
 43
2.0
 50
270.0
  0
MTEXT
  5
252D
330
1E
100
AcDbEntity
  8
文字
100
AcDbMText
 10
98.81807481604562
 20
81.6236328918095
 30
0.0
 40
2.5
 41
0.0
 71
     5
 72
     1
  1
129
 11
-0.0056108919616789
 21
0.9999842588218049
 31
0.0
 73
     1
 44
1.0
  0
LINE
  5
252E
330
1E
100
AcDbEntity
  8
文字
100
AcDbLine
 10
125.2192376805455
 20
114.9328268283094
 30
0.0
 11
105.8813363262455
 21
114.9328268283094
 31
0.0
  0
LINE
  5
252F
330
1E
100
AcDbEntity
  8
文字
100
AcDbLine
 10
130.9204063191456
 20
78.7828268284095
 30
0.0
 11
105.8813363262455
 21
78.7828268284095
 31
0.0
  0
LINE
  5
2530
330
1E
100
AcDbEntity
  8
文字
100
AcDbLine
 10
106.8813363262455
 20
112.9328268283094
 30
0.0
 11
106.8813363262455
 21
80.78282682840947
 31
0.0
  0
INSERT
  5
2531
330
1E
100
AcDbEntity
  8
文字
100
AcDbBlockReference
  2
_OPEN30
 10
106.8813363262455
 20
114.9328268283094
 30
0.0
 41
2.0
 42
2.0
 43
2.0
 50
90.0
  0
INSERT
  5
2532
330
1E
100
AcDbEntity
  8
文字
100
AcDbBlockReference
  2
_OPEN30
 10
106.8813363262455
 20
78.7828268284095
 30
0.0
 41
2.0
 42
2.0
 43
2.0
 50
270.0
  0
MTEXT
  5
2533
330
1E
100
AcDbEntity
  8
文字
100
AcDbMText
 10
104.6313363262455
 20
95.14825166490949
 30
0.0
 40
2.5
 41
0.0
 71
     5
 72
     1
  1
72
 11
-0.0056108919616789
 21
0.9999842588218049
 31
0.0
 73
     1
 44
1.0
  0
LINE
  5
2534
330
1E
100
AcDbEntity
  8
文字
100
AcDbLine
 10
125.3334157162455
 20
114.9328268283094
 30
0.0
 11
100.0680748160456
 21
114.9328268283094
 31
0.0
  0
LINE
  5
2535
330
1E
100
AcDbEntity
  8
文字
100
AcDbLine
 10
151.0018299680456
 20
128.1828268283094
 30
0.0
 11
100.0680748160456
 21
128.1828268283094
 31
0.0
  0
LINE
  5
2536
330
1E
100
AcDbEntity
  8
文字
100
AcDbLine
 10
101.0680748160456
 20
116.9328268283094
 30
0.0
 11
101.0680748160456
 21
126.1828268283095
 31
0.0
  0
INSERT
  5
2537
330
1E
100
AcDbEntity
  8
文字
100
AcDbBlockReference
  2
_OPEN30
 10
101.0680748160456
 20
114.9328268283094
 30
0.0
 41
2.0
 42
2.0
 43
2.0
 50
270.0
  0
INSERT
  5
2538
330
1E
100
AcDbEntity
  8
文字
100
AcDbBlockReference
  2
_OPEN30
 10
101.0680748160456
 20
128.1828268283094
 30
0.0
 41
2.0
 42
2.0
 43
2.0
 50
90.0
  0
MTEXT
  5
2539
330
1E
100
AcDbEntity
  8
文字
100
AcDbMText
 10
98.81807481604562
 20
121.7852185362094
 30
0.0
 40
2.5
 41
0.0
 71
     5
 72
     1
  1
(27)
 11
-0.0056108919616789
 21
0.9999842588218049
 31
0.0
 73
     1
 44
1.0
  0
LINE
  5
253A
330
1E
100
AcDbEntity
  8
文字
100
AcDbLine
 10
125.2192376805455
 20
114.9328268283094
 30
0.0
 11
110.9193530808455
 21
114.9328268283094
 31
0.0
  0
LINE
  5
253B
330
1E
100
AcDbEntity
  8
文字
100
AcDbLine
 10
125.3433856985454
 20
111.9328268283094
 30
0.0
 11
110.9193530808455
 21
111.9328268283094
 31
0.0
  0
LINE
  5
253C
330
1E
100
AcDbEntity
  8
文字
100
AcDbLine
 10
111.9193530808455
 20
109.9328268283094
 30
0.0
 11
111.9193530808455
 21
107.9328268283095
 31
0.0
  0
LINE
  5
253D
330
1E
100
AcDbEntity
  8
文字
100
AcDbLine
 10
111.9193530808455
 20
116.9328268283094
 30
0.0
 11
111.9193530808455
 21
122.2661601616429
 31
0.0
  0
LINE
  5
253E
330
1E
100
AcDbEntity
  8
文字
100
AcDbLine
 10
111.9193530808455
 20
111.9328268283094
 30
0.0
 11
111.9193530808455
 21
114.9328268283094
 31
0.0
  0
INSERT
  5
253F
330
1E
100
AcDbEntity
  8
文字
100
AcDbBlockReference
  2
_OPEN30
 10
111.9193530808455
 20
111.9328268283094
 30
0.0
 41
2.0
 42
2.0
 43
2.0
 50
90.0
  0
INSERT
  5
2540
330
1E
100
AcDbEntity
  8
文字
100
AcDbBlockReference
  2
_OPEN30
 10
111.9193530808455
 20
114.9328268283094
 30
0.0
 41
2.0
 42
2.0
 43
2.0
 50
270.0
  0
MTEXT
  5
2541
330
1E
100
AcDbEntity
  8
文字
100
AcDbMText
 10
109.6693530808455
 20
120.5994934949762
 30
0.0
 40
2.5
 41
0.0
 71
     5
 72
     1
  1
6
 11
-0.0056108919616789
 21
0.9999842588218049
 31
0.0
 73
     1
 44
1.0
  0
LINE
  5
2542
330
1E
100
AcDbEntity
  8
文字
100
AcDbLine
 10
125.3691440973456
 20
114.9328268283094
 30
0.0
 11
117.8711065268456
 21
114.9328268283094
 31
0.0
  0
LINE
  5
2543
330
1E
100
AcDbEntity
  8
文字
100
AcDbLine
 10
125.4331498183455
 20
114.4328268283095
 30
0.0
 11
117.8711065268456
 21
114.4328268283095
 31
0.0
  0
LINE
  5
2544
330
1E
100
AcDbEntity
  8
文字
100
AcDbLine
 10
118.8711065268456
 20
112.4328268283095
 30
0.0
 11
118.8711065268456
 21
110.4328268283095
 31
0.0
  0
LINE
  5
2545
330
1E
100
AcDbEntity
  8
文字
100
AcDbLine
 10
118.8711065268456
 20
116.9328268283094
 30
0.0
 11
118.8711065268456
 21
121.6585763050427
 31
0.0
  0
LINE
  5
2546
330
1E
100
AcDbEntity
  8
文字
100
AcDbLine
 10
118.8711065268456
 20
114.4328268283095
 30
0.0
 11
118.8711065268456
 21
114.9328268283094
 31
0.0
  0
INSERT
  5
2547
330
1E
100
AcDbEntity
  8
文字
100
AcDbBlockReference
  2
_OPEN30
 10
118.8711065268456
 20
114.4328268283095
 30
0.0
 41
2.0
 42
2.0
 43
2.0
 50
90.0
  0
INSERT
  5
2548
330
1E
100
AcDbEntity
  8
文字
100
AcDbBlockReference
  2
_OPEN30
 10
118.8711065268456
 20
114.9328268283094
 30
0.0
 41
2.0
 42
2.0
 43
2.0
 50
270.0
  0
MTEXT
  5
2549
330
1E
100
AcDbEntity
  8
文字
100
AcDbMText
 10
116.6211065268455
 20
120.3252429717094
 30
0.0
 40
2.5
 41
0.0
 71
     5
 72
     1
  1
\A1;1
 11
0.0000000000000001
 21
1.0
 31
0.0
 73
     1
 44
1.0
  0
LINE
  5
254A
330
1E
100
AcDbEntity
  8
文字
100
AcDbLine
 10
150.0018299680456
 20
124.6828268283095
 30
0.0
 11
150.0018299680456
 21
139.5575187393095
 31
0.0
  0
LINE
  5
254B
330
1E
100
AcDbEntity
  8
文字
100
AcDbLine
 10
159.0018299680455
 20
124.6828268283095
 30
0.0
 11
159.0018299680455
 21
139.5575187393095
 31
0.0
  0
LINE
  5
254C
330
1E
100
AcDbEntity
  8
文字
100
AcDbLine
 10
152.0018299680456
 20
138.5575187393095
 30
0.0
 11
157.0018299680455
 21
138.5575187393095
 31
0.0
  0
LINE
  5
254D
330
1E
100
AcDbEntity
  8
文字
100
AcDbLine
 10
159.0018299680455
 20
138.5575187393095
 30
0.0
 11
175.0
 21
138.5575187393095
 31
0.0
  0
INSERT
  5
254E
330
1E
100
AcDbEntity
  8
文字
100
AcDbBlockReference
  2
_OPEN30
 10
150.0018299680456
 20
138.5575187393095
 30
0.0
 41
2.0
 42
2.0
 43
2.0
 50
180.0
  0
INSERT
  5
254F
330
1E
100
AcDbEntity
  8
文字
100
AcDbBlockReference
  2
_OPEN30
 10
159.0018299680455
 20
138.5575187393095
 30
0.0
 41
2.0
 42
2.0
 43
2.0
  0
MTEXT
  5
2550
330
1E
100
AcDbEntity
  8
文字
100
AcDbMText
 10
169.0681115889456
 20
140.8075187393095
 30
0.0
 40
2.5
 41
0.0
 71
     5
 72
     1
  1
(φ18）
  7
STANDARD1
 11
0.9999842588218049
 21
0.0056108919616789
 31
0.0
 73
     1
 44
1.0
  0
ARC
  5
2551
330
1E
100
AcDbEntity
  8
文字
100
AcDbCircle
 10
164.7864317230456
 20
220.461735446091
 30
0.0
 40
52.66652575699868
100
AcDbArc
 50
332.175925674875
 51
87.82407432535839
  0
INSERT
  5
2552
330
1E
100
AcDbEntity
  8
文字
100
AcDbBlockReference
  2
_OPEN30
 10
210.3969809577811
 20
194.1284725677776
 30
0.0
 41
1.999999999999974
 42
2.0
 43
2.0
 50
241.0879628375557
  0
INSERT
  5
2553
330
1E
100
AcDbEntity
  8
文字
100
AcDbBlockReference
  2
_OPEN30
 10
164.7864317230455
 20
273.1282612030896
 30
0.0
 41
1.999999999999981
 42
2.0
 43
2.0
 50
178.912037162679
  0
MTEXT
  5
2554
330
1E
100
AcDbEntity
  8
文字
100
AcDbMText
 10
209.9957270018711
 20
251.6377586307606
 30
0.0
 40
2.5
 41
0.0
 71
     5
 72
     1
  1
\A1;120°
 11
0.5676983886894284
 21
-0.8232366242335352
 31
0.0
 73
     1
 44
1.0
  0
LINE
  5
2555
330
1E
100
AcDbEntity
  8
文字
100
AcDbLine
 10
164.7864317230455
 20
260.2917633716094
 30
0.0
 11
164.7864317230455
 21
273.0
 31
0.0
  0
LINE
  5
2556
330
1E
100
AcDbEntity
  8
文字
100
AcDbLine
 10
154.5018299680456
 20
240.4684465363093
 30
0.0
 11
154.5018299680456
 21
269.5869121649095
 31
0.0
  0
LINE
  5
2557
330
1E
100
AcDbEntity
  8
文字
100
AcDbLine
 10
156.5018299680455
 20
267.5869121649095
 30
0.0
 11
162.7864317230454
 21
267.5869121649095
 31
0.0
  0
LINE
  5
2558
330
1E
100
AcDbEntity
  8
文字
100
AcDbLine
 10
164.7864317230455
 20
267.5869121649095
 30
0.0
 11
178.0
 21
267.5869121649095
 31
0.0
  0
INSERT
  5
2559
330
1E
100
AcDbEntity
  8
文字
100
AcDbBlockReference
  2
_OPEN30
 10
154.5018299680456
 20
267.5869121649095
 30
0.0
 41
2.0
 42
2.0
 43
2.0
 50
180.0
  0
INSERT
  5
255A
330
1E
100
AcDbEntity
  8
文字
100
AcDbBlockReference
  2
_OPEN30
 10
164.7864317230455
 20
267.5869121649095
 30
0.0
 41
2.0
 42
2.0
 43
2.0
  0
MTEXT
  5
255B
330
1E
100
AcDbEntity
  8
文字
100
AcDbMText
 10
172.8586791183456
 20
269.8369121649095
 30
0.0
 40
2.5
 41
0.0
 71
     5
 72
     1
  1
(20.5)
 73
     1
 44
1.0
  0
ARC
  5
255C
330
1E
100
AcDbEntity
  8
文字
100
AcDbCircle
 10
164.7864317230456
 20
220.461735445913
 30
0.0
 40
52.55945984444821
100
AcDbArc
 50
92.18035866459739
 51
207.8196413349135
  0
INSERT
  5
255D
330
1E
100
AcDbEntity
  8
文字
100
AcDbBlockReference
  2
_OPEN30
 10
164.7864317230455
 20
273.0211952903613
 30
0.0
 41
1.999999999999992
 42
2.0
 43
2.0
 50
1.090179332299161
  0
INSERT
  5
255E
330
1E
100
AcDbEntity
  8
文字
100
AcDbBlockReference
  2
_OPEN30
 10
119.268604288342
 20
194.1820055240756
 30
0.0
 41
2.000000000000003
 42
2.0
 43
2.0
 50
298.9098206672143
  0
MTEXT
  5
255F
330
1E
100
AcDbEntity
  8
文字
100
AcDbMText
 10
119.1553097211359
 20
250.8241726551855
 30
0.0
 40
2.5
 41
0.0
 71
     5
 72
     1
  1
\A1;120°
 11
0.5539634452782889
 21
0.8325409907598594
 31
0.0
 73
     1
 44
1.0
  0
LINE
  5
2560
330
1E
100
AcDbEntity
  8
文字
100
AcDbLine
 10
121.9509804288454
 20
220.4617354464095
 30
0.0
 11
118.8001443418454
 21
220.4617354464095
 31
0.0
  0
LINE
  5
2561
330
1E
100
AcDbEntity
  8
文字
100
AcDbLine
 10
146.7518299680456
 20
232.7184465363093
 30
0.0
 11
118.8001443418454
 21
232.7184465363093
 31
0.0
  0
LINE
  5
2562
330
1E
100
AcDbEntity
  8
文字
100
AcDbLine
 10
119.8001443418454
 20
222.4617354464095
 30
0.0
 11
119.8001443418454
 21
230.7184465363093
 31
0.0
  0
INSERT
  5
2563
330
1E
100
AcDbEntity
  8
文字
100
AcDbBlockReference
  2
_OPEN30
 10
119.8001443418454
 20
220.4617354464095
 30
0.0
 41
2.0
 42
2.0
 43
2.0
 50
270.0
  0
INSERT
  5
2564
330
1E
100
AcDbEntity
  8
文字
100
AcDbBlockReference
  2
_OPEN30
 10
119.8001443418454
 20
232.7184465363093
 30
0.0
 41
2.0
 42
2.0
 43
2.0
 50
90.0
  0
MTEXT
  5
2565
330
1E
100
AcDbEntity
  8
文字
100
AcDbMText
 10
117.5501443418454
 20
226.9074087296095
 30
0.0
 40
2.5
 41
0.0
 71
     5
 72
     1
  1
(24.5)
 11
0.0000000000000001
 21
1.0
 31
0.0
 73
     1
 44
1.0
  0
LINE
  5
2566
330
1E
100
AcDbEntity
  8
文字
100
AcDbLine
 10
115.8153551531023
 20
205.6234478364693
 30
0.0
 11
125.0595762493577
 21
202.023613766398
 31
0.0
  0
MTEXT
  5
2567
330
1E
100
AcDbEntity
  8
文字
100
AcDbMText
 10
120.9803989957024
 20
206.0266845929738
 30
0.0
 40
2.5
 41
0.0
 71
     5
 72
     1
  1
3-R6
 11
0.9335804264972015
 21
-0.3583679495453008
 31
0.0
 73
     1
 44
1.0
  0
LINE
  5
2568
330
1E
100
AcDbEntity
  8
文字
100
AcDbLine
 10
129.7124028695457
 20
200.2117354464094
 30
0.0
 11
126.9232544751454
 21
201.2978703746095
 31
0.0
  0
INSERT
  5
2569
330
1E
100
AcDbEntity
  8
文字
100
AcDbBlockReference
  2
_OPEN30
 10
126.9232544751454
 20
201.2978703746095
 30
0.0
 41
2.0
 42
2.0
 43
2.0
 50
338.7233382078771
  0
LINE
  5
256A
330
1E
100
AcDbEntity
  8
文字
100
AcDbLine
 10
120.2745742448872
 20
179.4567989046042
 30
0.0
 11
129.3812509879324
 21
199.4834920589339
 31
0.0
  0
MTEXT
  5
256B
330
1E
100
AcDbEntity
  8
文字
100
AcDbMText
 10
121.0983869144502
 20
186.7040357849944
 30
0.0
 40
2.5
 41
0.0
 71
     5
 72
     1
  1
3-φ4.8穴
  7
STANDARD1
 11
0.4067366430758004
 21
0.913545457642601
 31
0.0
 73
     1
 44
1.0
  0
INSERT
  5
256C
330
1E
100
AcDbEntity
  8
文字
100
AcDbBlockReference
  2
_OPEN30
 10
130.2091306918455
 20
201.3041005275094
 30
0.0
 41
2.00000000000002
 42
2.0
 43
2.0
 50
65.54742836121994
  0
LINE
  5
256D
330
1E
100
AcDbEntity
  8
文字
100
AcDbLine
 10
131.6839939286061
 20
171.4928927583416
 30
0.0
 11
186.3478202456015
 21
252.3577622361949
 31
0.0
  0
MTEXT
  5
256E
330
1E
100
AcDbEntity
  8
文字
100
AcDbMText
 10
132.2467633655106
 20
176.3430028950978
 30
0.0
 40
2.5
 41
0.0
 71
     5
 72
     1
  1
\U+2205162
 11
0.5591929034707468
 21
0.8290375725550417
 31
0.0
 73
     1
 44
1.0
  0
INSERT
  5
256F
330
1E
100
AcDbEntity
  8
文字
100
AcDbBlockReference
  2
_OPEN30
 10
187.4678923766456
 20
254.0146986928094
 30
0.0
 41
2.000000000000024
 42
2.0
 43
2.0
 50
55.94170804977322
  0
LINE
  5
2570
330
1E
100
AcDbEntity
  8
文字
100
AcDbLine
 10
144.6157589581439
 20
164.7087372472628
 30
0.0
 11
176.8988472590744
 21
253.9412078190631
 31
0.0
  0
MTEXT
  5
2571
330
1E
100
AcDbEntity
  8
文字
100
AcDbMText
 10
144.0875979193209
 20
169.8625051596593
 30
0.0
 40
2.5
 41
0.0
 71
     5
 72
     1
  1
\U+2205150.4
 11
0.3420201433256689
 21
0.9396926207859085
 31
0.0
 73
     1
 44
1.0
  0
INSERT
  5
2572
330
1E
100
AcDbEntity
  8
文字
100
AcDbBlockReference
  2
_OPEN30
 10
177.5792594637457
 20
255.8219096114092
 30
0.0
 41
2.000000000000002
 42
2.0
 43
2.0
 50
70.11056856864913
  0
MTEXT
  5
2573
330
1E
100
AcDbEntity
  8
文字
100
AcDbMText
 10
125.6499080858888
 20
184.6343365252114
 30
0.0
 40
2.5
 41
0.0
 71
     5
 72
     1
  1
(天井固定用穴）
  7
STANDARD1
 11
0.4139398519566016
 21
0.9103042342877172
 31
0.0
 73
     1
 44
1.0
  0
ENDSEC
  0
SECTION
  2
OBJECTS
  0
DICTIONARY
  5
C
330
0
100
AcDbDictionary
281
     1
  3
ACAD_GROUP
350
D
  3
ACAD_LAYOUT
350
19
  3
ACAD_MLINESTYLE
350
16
  3
ACAD_PLOTSETTINGS
350
18
  3
ACAD_PLOTSTYLENAME
350
E
  3
AcDbVariableDictionary
350
22B7
  0
DICTIONARY
  5
1FF2
330
2
100
AcDbDictionary
280
     1
281
     1
  3
ACAD_LAYERFILTERS
360
1FF3
  3
ACAD_LAYERSTATES
360
2058
  0
DICTIONARY
  5
D
102
{ACAD_REACTORS
330
C
102
}
330
C
100
AcDbDictionary
281
     1
  0
DICTIONARY
  5
19
102
{ACAD_REACTORS
330
C
102
}
330
C
100
AcDbDictionary
281
     1
  3
Model
350
21
  3
ﾚｲｱｳﾄ1
350
1D
  0
DICTIONARY
  5
16
102
{ACAD_REACTORS
330
C
102
}
330
C
100
AcDbDictionary
281
     1
  3
Standard
350
17
  0
DICTIONARY
  5
18
102
{ACAD_REACTORS
330
C
102
}
330
C
100
AcDbDictionary
281
     1
  0
ACDBDICTIONARYWDFLT
  5
E
102
{ACAD_REACTORS
330
C
102
}
330
C
100
AcDbDictionary
281
     1
  3
Normal
350
F
100
AcDbDictionaryWithDefault
340
F
  0
DICTIONARY
  5
22B7
102
{ACAD_REACTORS
330
C
102
}
330
C
100
AcDbDictionary
281
     1
  3
DIMASSOC
350
22B8
  0
DICTIONARY
  5
1FF3
102
{ACAD_REACTORS
330
1FF2
102
}
330
1FF2
100
AcDbDictionary
280
     1
281
     1
  3
0
360
1FF4
  3
01全体計画平面図
360
1FF5
  3
02現況平面図
360
1FF6
  3
03撤去平面図
360
1FF7
  3
04造成平面図
360
1FF8
  3
05施設平面図
360
1FF9
  3
06排水平面図
360
1FFA
  3
07給水平面図
360
1FFB
  3
08電気平面図
360
1FFC
  3
09植栽平面図-1
360
1FFD
  3
1
360
1FFE
  3
1-交差点処理図（最新1案）
360
1FFF
  3
10植栽平面図-2
360
2000
  3
11寸法図
360
2001
  3
1次施工
360
2002
  3
2
360
2003
  3
2-線形図1
360
2004
  3
2次施工
360
2005
  3
3
360
2006
  3
3-線形図2
360
2007
  3
3次施工
360
2008
  3
4
360
2009
  3
4次施工
360
200A
  3
5
360
200B
  3
50
360
200C
  3
6
360
200D
  3
7
360
200E
  3
7-専用部北行
360
200F
  3
8-ONﾗﾝﾌﾟ
360
2010
  3
9-OFFﾗﾝﾌﾟ
360
2011
  3
a
360
2012
  3
b
360
2013
  3
B北
360
2014
  3
c
360
2015
  3
CAR
360
2016
  3
d
360
2017
  3
DIM
360
2018
  3
DIM2
360
2019
  3
DIM3
360
201A
  3
e
360
201B
  3
E南
360
201C
  3
GENKYOU
360
201D
  3
HTXT
360
201E
  3
HTXT2
360
201F
  3
KAN
360
2020
  3
LAND
360
2021
  3
MASU
360
2022
  3
OFF
360
2023
  3
OFST
360
2024
  3
ON
360
2025
  3
ｼｭｳｾｲ
360
2026
  3
ｾﾒﾝﾄ注入量上半円
360
2027
  3
ﾌﾘｰｽﾞ解除
360
2028
  3
ﾙｼﾞｵﾝ値下半円
360
2029
  3
ｓ
360
202A
  3
その他
360
202B
  3
セメント注入量
360
202C
  3
フリーズ以外
360
202D
  3
ランプ
360
202E
  3
ルジオン値
360
202F
  3
ロック
360
2030
  3
ロック解除
360
2031
  3
案1
360
2032
  3
案2
360
2033
  3
一般
360
2034
  3
外部参照の非表示画層
360
2035
  3
形状
360
2036
  3
形状以外
360
2037
  3
計画
360
2038
  3
現況
360
2039
  3
暫定形
360
203A
  3
縦断セット
360
203B
  3
縦断計画
360
203C
  3
縦断埋設
360
203D
  3
数量用
360
203E
  3
専北
360
203F
  3
専用
360
2040
  3
線形
360
2041
  3
全帯
360
2042
  3
断面
360
2043
  3
東西線
360
2044
  3
道路詳細設計　平面図
360
2045
  3
南北線
360
2046
  3
非表示
360
2047
  3
非表示を表示
360
2048
  3
非表示画層を表示
360
2049
  3
表示レイヤ－を表示
360
204A
  3
副道
360
204B
  3
平面図
360
204C
  3
埋設
360
204D
  0
DICTIONARY
  5
2058
102
{ACAD_REACTORS
330
1FF2
102
}
330
1FF2
100
AcDbDictionary
281
     1
  0
LAYOUT
  5
21
102
{ACAD_REACTORS
330
19
102
}
330
19
100
AcDbPlotSettings
  1

  2
Adobe PDF
  4
A4
  6

 40
3.174999952316284
 41
3.174999952316284
 42
3.175003051757812
 43
3.17498779296875
 44
209.9733276367187
 45
297.0318298339843
 46
0.0
 47
0.0
 48
0.0
 49
0.0
140
420.0
141
297.0
142
1.0
143
1.458575536647462
 70
 11952
 72
     1
 73
     1
 74
     4
  7
A3.ctb
 75
     0
147
0.6856004196385342
148
0.0
149
0.0
100
AcDbLayout
  1
Model
 70
     1
 71
     0
 10
0.0
 20
0.0
 11
12.0
 21
9.0
 12
0.0
 22
0.0
 32
0.0
 14
0.0
 24
0.0
 34
0.0
 15
0.0
 25
0.0
 35
0.0
146
0.0
 13
0.0
 23
0.0
 33
0.0
 16
1.0
 26
0.0
 36
0.0
 17
0.0
 27
1.0
 37
0.0
 76
     0
330
1E
  0
LAYOUT
  5
1D
102
{ACAD_REACTORS
330
19
102
}
330
19
100
AcDbPlotSettings
  1

  2
なし
  4

  6

 40
0.0
 41
0.0
 42
0.0
 43
0.0
 44
0.0
 45
0.0
 46
0.0
 47
0.0
 48
0.0
 49
0.0
140
0.0
141
0.0
142
1.0
143
1.0
 70
   688
 72
     0
 73
     0
 74
     5
  7
A3.ctb
 75
    16
147
1.0
148
0.0
149
0.0
100
AcDbLayout
  1
ﾚｲｱｳﾄ1
 70
     1
 71
     1
 10
0.0
 20
0.0
 11
12.0
 21
9.0
 12
0.0
 22
0.0
 32
0.0
 14
1.000000000000000E+20
 24
1.000000000000000E+20
 34
1.000000000000000E+20
 15
-1.000000000000000E+20
 25
-1.000000000000000E+20
 35
-1.000000000000000E+20
146
0.0
 13
0.0
 23
0.0
 33
0.0
 16
1.0
 26
0.0
 36
0.0
 17
0.0
 27
1.0
 37
0.0
 76
     0
330
1A
  0
MLINESTYLE
  5
17
102
{ACAD_REACTORS
330
16
102
}
330
16
100
AcDbMlineStyle
  2
STANDARD
 70
     0
  3

 62
   256
 51
90.0
 52
90.0
 71
     2
 49
0.5
 62
   256
  6
BYLAYER
 49
-0.5
 62
   256
  6
BYLAYER
  0
ACDBPLACEHOLDER
  5
F
102
{ACAD_REACTORS
330
E
102
}
330
E
  0
DICTIONARYVAR
  5
22B8
102
{ACAD_REACTORS
330
22B7
102
}
330
22B7
100
DictionaryVariables
280
     0
  1
1
  0
XRECORD
  5
1FF4
102
{ACAD_REACTORS
330
1FF3
102
}
330
1FF3
100
AcDbXrecord
280
     1
  1
0
  1
0*
  1
*
  1
*
 70
     0
  1
*
  1
*
  0
XRECORD
  5
1FF5
102
{ACAD_REACTORS
330
1FF3
102
}
330
1FF3
100
AcDbXrecord
280
     1
  1
01全体計画平面図
  1
00*,01*,0A*,0E-2*
  1
*
  1
*
 70
     0
  1
*
  1
*
  0
XRECORD
  5
1FF6
102
{ACAD_REACTORS
330
1FF3
102
}
330
1FF3
100
AcDbXrecord
280
     1
  1
02現況平面図
  1
00*,02*,0B*
  1
*
  1
*
 70
     0
  1
*
  1
*
  0
XRECORD
  5
1FF7
102
{ACAD_REACTORS
330
1FF3
102
}
330
1FF3
100
AcDbXrecord
280
     1
  1
03撤去平面図
  1
00*,01*,0C*
  1
*
  1
*
 70
     0
  1
*
  1
*
  0
XRECORD
  5
1FF8
102
{ACAD_REACTORS
330
1FF3
102
}
330
1FF3
100
AcDbXrecord
280
     1
  1
04造成平面図
  1
00*,02*,0D*,03*
  1
*
  1
*
 70
     0
  1
*
  1
*
  0
XRECORD
  5
1FF9
102
{ACAD_REACTORS
330
1FF3
102
}
330
1FF3
100
AcDbXrecord
280
     1
  1
05施設平面図
  1
00*,02*,0E*
  1
*
  1
*
 70
     0
  1
*
  1
*
  0
XRECORD
  5
1FFA
102
{ACAD_REACTORS
330
1FF3
102
}
330
1FF3
100
AcDbXrecord
280
     1
  1
06排水平面図
  1
00*,02*,0F*
  1
*
  1
*
 70
     0
  1
*
  1
*
  0
XRECORD
  5
1FFB
102
{ACAD_REACTORS
330
1FF3
102
}
330
1FF3
100
AcDbXrecord
280
     1
  1
07給水平面図
  1
00*,02*,0G*
  1
*
  1
*
 70
     0
  1
*
  1
*
  0
XRECORD
  5
1FFC
102
{ACAD_REACTORS
330
1FF3
102
}
330
1FF3
100
AcDbXrecord
280
     1
  1
08電気平面図
  1
00*,02*,0H*
  1
*
  1
*
 70
     0
  1
*
  1
*
  0
XRECORD
  5
1FFD
102
{ACAD_REACTORS
330
1FF3
102
}
330
1FF3
100
AcDbXrecord
280
     1
  1
09植栽平面図-1
  1
00*,02*,0I*
  1
*
  1
*
 70
     0
  1
*
  1
*
  0
XRECORD
  5
1FFE
102
{ACAD_REACTORS
330
1FF3
102
}
330
1FF3
100
AcDbXrecord
280
     1
  1
1
  1
*計画*
  1
*
  1
*
 70
     0
  1
*
  1
*
  0
XRECORD
  5
1FFF
102
{ACAD_REACTORS
330
1FF3
102
}
330
1FF3
100
AcDbXrecord
280
     1
  1
1-交差点処理図（最新1案）
  1
*交差点処理図（最新1案）*
  1
*
  1
*
 70
     0
  1
*
  1
*
  0
XRECORD
  5
2000
102
{ACAD_REACTORS
330
1FF3
102
}
330
1FF3
100
AcDbXrecord
280
     1
  1
10植栽平面図-2
  1
00*,02*,0J*
  1
*
  1
*
 70
     0
  1
*
  1
*
  0
XRECORD
  5
2001
102
{ACAD_REACTORS
330
1FF3
102
}
330
1FF3
100
AcDbXrecord
280
     1
  1
11寸法図
  1
00*,02*,0K*,03*
  1
*
  1
*
 70
     0
  1
*
  1
*
  0
XRECORD
  5
2002
102
{ACAD_REACTORS
330
1FF3
102
}
330
1FF3
100
AcDbXrecord
280
     1
  1
1次施工
  1
*1次*
  1
*
  1
*
 70
     0
  1
*
  1
*
  0
XRECORD
  5
2003
102
{ACAD_REACTORS
330
1FF3
102
}
330
1FF3
100
AcDbXrecord
280
     1
  1
2
  1
*SOKUTENME
  1
*
  1
*
 70
     0
  1
*
  1
*
  0
XRECORD
  5
2004
102
{ACAD_REACTORS
330
1FF3
102
}
330
1FF3
100
AcDbXrecord
280
     1
  1
2-線形図1
  1
*線形図1*
  1
*
  1
*
 70
     0
  1
*
  1
*
  0
XRECORD
  5
2005
102
{ACAD_REACTORS
330
1FF3
102
}
330
1FF3
100
AcDbXrecord
280
     1
  1
2次施工
  1
*2次*
  1
*
  1
*
 70
     0
  1
*
  1
*
  0
XRECORD
  5
2006
102
{ACAD_REACTORS
330
1FF3
102
}
330
1FF3
100
AcDbXrecord
280
     1
  1
3
  1
*下部工*
  1
*
  1
*
 70
     0
  1
*
  1
*
  0
XRECORD
  5
2007
102
{ACAD_REACTORS
330
1FF3
102
}
330
1FF3
100
AcDbXrecord
280
     1
  1
3-線形図2
  1
*線形図2*
  1
*
  1
*
 70
     0
  1
*
  1
*
  0
XRECORD
  5
2008
102
{ACAD_REACTORS
330
1FF3
102
}
330
1FF3
100
AcDbXrecord
280
     1
  1
3次施工
  1
*3次*
  1
*
  1
*
 70
     0
  1
*
  1
*
  0
XRECORD
  5
2009
102
{ACAD_REACTORS
330
1FF3
102
}
330
1FF3
100
AcDbXrecord
280
     1
  1
4
  1
*
  1
4
  1
*
 70
     0
  1
*
  1
*
  0
XRECORD
  5
200A
102
{ACAD_REACTORS
330
1FF3
102
}
330
1FF3
100
AcDbXrecord
280
     1
  1
4次施工
  1
*4次*
  1
*
  1
*
 70
     0
  1
*
  1
*
  0
XRECORD
  5
200B
102
{ACAD_REACTORS
330
1FF3
102
}
330
1FF3
100
AcDbXrecord
280
     1
  1
5
  1
*
  1
5
  1
*
 70
     0
  1
*
  1
*
  0
XRECORD
  5
200C
102
{ACAD_REACTORS
330
1FF3
102
}
330
1FF3
100
AcDbXrecord
280
     1
  1
50
  1
*-50
  1
*
  1
*
 70
     0
  1
*
  1
*
  0
XRECORD
  5
200D
102
{ACAD_REACTORS
330
1FF3
102
}
330
1FF3
100
AcDbXrecord
280
     1
  1
6
  1
*
  1
6
  1
*
 70
     0
  1
*
  1
*
  0
XRECORD
  5
200E
102
{ACAD_REACTORS
330
1FF3
102
}
330
1FF3
100
AcDbXrecord
280
     1
  1
7
  1
*
  1
7
  1
*
 70
     0
  1
*
  1
*
  0
XRECORD
  5
200F
102
{ACAD_REACTORS
330
1FF3
102
}
330
1FF3
100
AcDbXrecord
280
     1
  1
7-専用部北行
  1
80*,90*,A0*,B0*,
  1
*
  1
*
 70
     0
  1
*
  1
*
  0
XRECORD
  5
2010
102
{ACAD_REACTORS
330
1FF3
102
}
330
1FF3
100
AcDbXrecord
280
     1
  1
8-ONﾗﾝﾌﾟ
  1
70*,90*,A0*,B0*,
  1
*
  1
*
 70
     0
  1
*
  1
*
  0
XRECORD
  5
2011
102
{ACAD_REACTORS
330
1FF3
102
}
330
1FF3
100
AcDbXrecord
280
     1
  1
9-OFFﾗﾝﾌﾟ
  1
70*,80*,A0*B0*,
  1
*
  1
*
 70
     0
  1
*
  1
*
  0
XRECORD
  5
2012
102
{ACAD_REACTORS
330
1FF3
102
}
330
1FF3
100
AcDbXrecord
280
     1
  1
a
  1
*A_*
  1
*
  1
*
 70
    12
  1
*
  1
*
  0
XRECORD
  5
2013
102
{ACAD_REACTORS
330
1FF3
102
}
330
1FF3
100
AcDbXrecord
280
     1
  1
b
  1
*b_*
  1
*
  1
*
 70
    12
  1
*
  1
*
  0
XRECORD
  5
2014
102
{ACAD_REACTORS
330
1FF3
102
}
330
1FF3
100
AcDbXrecord
280
     1
  1
B北
  1
*B北*
  1
*
  1
*
 70
     0
  1
*
  1
*
  0
XRECORD
  5
2015
102
{ACAD_REACTORS
330
1FF3
102
}
330
1FF3
100
AcDbXrecord
280
     1
  1
c
  1
*c_*
  1
*
  1
*
 70
    12
  1
*
  1
*
  0
XRECORD
  5
2016
102
{ACAD_REACTORS
330
1FF3
102
}
330
1FF3
100
AcDbXrecord
280
     1
  1
CAR
  1
CAR*
  1
*
  1
*
 70
     0
  1
*
  1
*
  0
XRECORD
  5
2017
102
{ACAD_REACTORS
330
1FF3
102
}
330
1FF3
100
AcDbXrecord
280
     1
  1
d
  1
*d_*
  1
*
  1
*
 70
    12
  1
*
  1
*
  0
XRECORD
  5
2018
102
{ACAD_REACTORS
330
1FF3
102
}
330
1FF3
100
AcDbXrecord
280
     1
  1
DIM
  1
*DIM
  1
*
  1
*
 70
     0
  1
*
  1
*
  0
XRECORD
  5
2019
102
{ACAD_REACTORS
330
1FF3
102
}
330
1FF3
100
AcDbXrecord
280
     1
  1
DIM2
  1
*DIM2
  1
*
  1
*
 70
     0
  1
*
  1
*
  0
XRECORD
  5
201A
102
{ACAD_REACTORS
330
1FF3
102
}
330
1FF3
100
AcDbXrecord
280
     1
  1
DIM3
  1
*DIM3
  1
*
  1
*
 70
     0
  1
*
  1
*
  0
XRECORD
  5
201B
102
{ACAD_REACTORS
330
1FF3
102
}
330
1FF3
100
AcDbXrecord
280
     1
  1
e
  1
*e_*
  1
*
  1
*
 70
    12
  1
*
  1
*
  0
XRECORD
  5
201C
102
{ACAD_REACTORS
330
1FF3
102
}
330
1FF3
100
AcDbXrecord
280
     1
  1
E南
  1
*E*南*
  1
*
  1
*
 70
     0
  1
*
  1
*
  0
XRECORD
  5
201D
102
{ACAD_REACTORS
330
1FF3
102
}
330
1FF3
100
AcDbXrecord
280
     1
  1
GENKYOU
  1
*G*
  1
*
  1
*
 70
     0
  1
*
  1
*
  0
XRECORD
  5
201E
102
{ACAD_REACTORS
330
1FF3
102
}
330
1FF3
100
AcDbXrecord
280
     1
  1
HTXT
  1
*HTXT
  1
*
  1
*
 70
     0
  1
*
  1
*
  0
XRECORD
  5
201F
102
{ACAD_REACTORS
330
1FF3
102
}
330
1FF3
100
AcDbXrecord
280
     1
  1
HTXT2
  1
*HTXT2
  1
*
  1
*
 70
     0
  1
*
  1
*
  0
XRECORD
  5
2020
102
{ACAD_REACTORS
330
1FF3
102
}
330
1FF3
100
AcDbXrecord
280
     1
  1
KAN
  1
W,S,T,G,E,
  1
*
  1
*
 70
     0
  1
*
  1
*
  0
XRECORD
  5
2021
102
{ACAD_REACTORS
330
1FF3
102
}
330
1FF3
100
AcDbXrecord
280
     1
  1
LAND
  1
*
  1
*
  1
*
 70
     0
  1
*
  1
*
  0
XRECORD
  5
2022
102
{ACAD_REACTORS
330
1FF3
102
}
330
1FF3
100
AcDbXrecord
280
     1
  1
MASU
  1
*MASU
  1
*
  1
*
 70
     0
  1
*
  1
*
  0
XRECORD
  5
2023
102
{ACAD_REACTORS
330
1FF3
102
}
330
1FF3
100
AcDbXrecord
280
     1
  1
OFF
  1
*OFF*
  1
*
  1
*
 70
     0
  1
*
  1
*
  0
XRECORD
  5
2024
102
{ACAD_REACTORS
330
1FF3
102
}
330
1FF3
100
AcDbXrecord
280
     1
  1
OFST
  1
*OFST
  1
*
  1
*
 70
     0
  1
*
  1
*
  0
XRECORD
  5
2025
102
{ACAD_REACTORS
330
1FF3
102
}
330
1FF3
100
AcDbXrecord
280
     1
  1
ON
  1
*ON*
  1
*
  1
*
 70
     0
  1
*
  1
*
  0
XRECORD
  5
2026
102
{ACAD_REACTORS
330
1FF3
102
}
330
1FF3
100
AcDbXrecord
280
     1
  1
ｼｭｳｾｲ
  1
*
  1
*
  1
*
 70
     0
  1
*
  1
*
  0
XRECORD
  5
2027
102
{ACAD_REACTORS
330
1FF3
102
}
330
1FF3
100
AcDbXrecord
280
     1
  1
ｾﾒﾝﾄ注入量上半円
  1
CE-?-T-?
  1
*
  1
*
 70
     0
  1
*
  1
*
  0
XRECORD
  5
2028
102
{ACAD_REACTORS
330
1FF3
102
}
330
1FF3
100
AcDbXrecord
280
     1
  1
ﾌﾘｰｽﾞ解除
  1
*
  1
*
  1
*
 70
    12
  1
*
  1
*
  0
XRECORD
  5
2029
102
{ACAD_REACTORS
330
1FF3
102
}
330
1FF3
100
AcDbXrecord
280
     1
  1
ﾙｼﾞｵﾝ値下半円
  1
LU-?-B-?
  1
*
  1
*
 70
     0
  1
*
  1
*
  0
XRECORD
  5
202A
102
{ACAD_REACTORS
330
1FF3
102
}
330
1FF3
100
AcDbXrecord
280
     1
  1
ｓ
  1
*SOKUTENME
  1
*
  1
*
 70
     0
  1
*
  1
*
  0
XRECORD
  5
202B
102
{ACAD_REACTORS
330
1FF3
102
}
330
1FF3
100
AcDbXrecord
280
     1
  1
その他
  1
O*
  1
*
  1
*
 70
     0
  1
*
  1
*
  0
XRECORD
  5
202C
102
{ACAD_REACTORS
330
1FF3
102
}
330
1FF3
100
AcDbXrecord
280
     1
  1
セメント注入量
  1
CE-*
  1
*
  1
*
 70
     0
  1
*
  1
*
  0
XRECORD
  5
202D
102
{ACAD_REACTORS
330
1FF3
102
}
330
1FF3
100
AcDbXrecord
280
     1
  1
フリーズ以外
  1
*
  1
*
  1
*
 70
    12
  1
*
  1
*
  0
XRECORD
  5
202E
102
{ACAD_REACTORS
330
1FF3
102
}
330
1FF3
100
AcDbXrecord
280
     1
  1
ランプ
  1
*ランプ*
  1
*
  1
*
 70
     0
  1
*
  1
*
  0
XRECORD
  5
202F
102
{ACAD_REACTORS
330
1FF3
102
}
330
1FF3
100
AcDbXrecord
280
     1
  1
ルジオン値
  1
LU-*
  1
*
  1
*
 70
     0
  1
*
  1
*
  0
XRECORD
  5
2030
102
{ACAD_REACTORS
330
1FF3
102
}
330
1FF3
100
AcDbXrecord
280
     1
  1
ロック
  1
*
  1
*
  1
*
 70
   256
  1
*
  1
*
  0
XRECORD
  5
2031
102
{ACAD_REACTORS
330
1FF3
102
}
330
1FF3
100
AcDbXrecord
280
     1
  1
ロック解除
  1
*
  1
*
  1
*
 70
   768
  1
*
  1
*
  0
XRECORD
  5
2032
102
{ACAD_REACTORS
330
1FF3
102
}
330
1FF3
100
AcDbXrecord
280
     1
  1
案1
  1
*案1
  1
*
  1
*
 70
     0
  1
*
  1
*
  0
XRECORD
  5
2033
102
{ACAD_REACTORS
330
1FF3
102
}
330
1FF3
100
AcDbXrecord
280
     1
  1
案2
  1
*案2
  1
*
  1
*
 70
     0
  1
*
  1
*
  0
XRECORD
  5
2034
102
{ACAD_REACTORS
330
1FF3
102
}
330
1FF3
100
AcDbXrecord
280
     1
  1
一般
  1
*般*
  1
*
  1
*
 70
     0
  1
*
  1
*
  0
XRECORD
  5
2035
102
{ACAD_REACTORS
330
1FF3
102
}
330
1FF3
100
AcDbXrecord
280
     1
  1
外部参照の非表示画層
  1
*
  1
*
  1
*
 70
     0
  1
*
  1
*
  0
XRECORD
  5
2036
102
{ACAD_REACTORS
330
1FF3
102
}
330
1FF3
100
AcDbXrecord
280
     1
  1
形状
  1
pen1,pen3,pen4,up,dia,low
  1
*
  1
*
 70
     0
  1
*
  1
*
  0
XRECORD
  5
2037
102
{ACAD_REACTORS
330
1FF3
102
}
330
1FF3
100
AcDbXrecord
280
     1
  1
形状以外
  1
dim,cen,text,sakuzu1,sakuzu2,siten,defpoints,0
  1
*
  1
*
 70
     0
  1
*
  1
*
  0
XRECORD
  5
2038
102
{ACAD_REACTORS
330
1FF3
102
}
330
1FF3
100
AcDbXrecord
280
     1
  1
計画
  1
K*
  1
*
  1
*
 70
     0
  1
*
  1
*
  0
XRECORD
  5
2039
102
{ACAD_REACTORS
330
1FF3
102
}
330
1FF3
100
AcDbXrecord
280
     1
  1
現況
  1
G*
  1
*
  1
*
 70
     0
  1
*
  1
*
  0
XRECORD
  5
203A
102
{ACAD_REACTORS
330
1FF3
102
}
330
1FF3
100
AcDbXrecord
280
     1
  1
暫定形
  1
*暫*
  1
*
  1
*
 70
     0
  1
*
  1
*
  0
XRECORD
  5
203B
102
{ACAD_REACTORS
330
1FF3
102
}
330
1FF3
100
AcDbXrecord
280
     1
  1
縦断セット
  1
JO*
  1
*
  1
*
 70
     0
  1
*
  1
*
  0
XRECORD
  5
203C
102
{ACAD_REACTORS
330
1FF3
102
}
330
1FF3
100
AcDbXrecord
280
     1
  1
縦断計画
  1
JK*
  1
*
  1
*
 70
     0
  1
*
  1
*
  0
XRECORD
  5
203D
102
{ACAD_REACTORS
330
1FF3
102
}
330
1FF3
100
AcDbXrecord
280
     1
  1
縦断埋設
  1
JM*
  1
*
  1
*
 70
     0
  1
*
  1
*
  0
XRECORD
  5
203E
102
{ACAD_REACTORS
330
1FF3
102
}
330
1FF3
100
AcDbXrecord
280
     1
  1
数量用
  1
*数量用*
  1
*
  1
*
 70
     0
  1
*
  1
*
  0
XRECORD
  5
203F
102
{ACAD_REACTORS
330
1FF3
102
}
330
1FF3
100
AcDbXrecord
280
     1
  1
専北
  1
*専北*
  1
*
  1
*
 70
     0
  1
*
  1
*
  0
XRECORD
  5
2040
102
{ACAD_REACTORS
330
1FF3
102
}
330
1FF3
100
AcDbXrecord
280
     1
  1
専用
  1
*専*
  1
*
  1
*
 70
     0
  1
*
  1
*
  0
XRECORD
  5
2041
102
{ACAD_REACTORS
330
1FF3
102
}
330
1FF3
100
AcDbXrecord
280
     1
  1
線形
  1
*線形*
  1
*
  1
*
 70
     0
  1
*
  1
*
  0
XRECORD
  5
2042
102
{ACAD_REACTORS
330
1FF3
102
}
330
1FF3
100
AcDbXrecord
280
     1
  1
全帯
  1
*帯*
  1
*
  1
*
 70
     0
  1
*
  1
*
  0
XRECORD
  5
2043
102
{ACAD_REACTORS
330
1FF3
102
}
330
1FF3
100
AcDbXrecord
280
     1
  1
断面
  1
*断面*
  1
*
  1
*
 70
     0
  1
*
  1
*
  0
XRECORD
  5
2044
102
{ACAD_REACTORS
330
1FF3
102
}
330
1FF3
100
AcDbXrecord
280
     1
  1
東西線
  1
*A
  1
*
  1
*
 70
     0
  1
*
  1
*
  0
XRECORD
  5
2045
102
{ACAD_REACTORS
330
1FF3
102
}
330
1FF3
100
AcDbXrecord
280
     1
  1
道路詳細設計　平面図
  1
道路中心線
  1
*
  1
*
 70
     0
  1
*
  1
*
  0
XRECORD
  5
2046
102
{ACAD_REACTORS
330
1FF3
102
}
330
1FF3
100
AcDbXrecord
280
     1
  1
南北線
  1
*B
  1
*
  1
*
 70
     0
  1
*
  1
*
  0
XRECORD
  5
2047
102
{ACAD_REACTORS
330
1FF3
102
}
330
1FF3
100
AcDbXrecord
280
     1
  1
非表示
  1
z*
  1
*
  1
*
 70
     0
  1
*
  1
*
  0
XRECORD
  5
2048
102
{ACAD_REACTORS
330
1FF3
102
}
330
1FF3
100
AcDbXrecord
280
     1
  1
非表示を表示
  1
*
  1
*
  1
*
 70
     3
  1
*
  1
*
  0
XRECORD
  5
2049
102
{ACAD_REACTORS
330
1FF3
102
}
330
1FF3
100
AcDbXrecord
280
     1
  1
非表示画層を表示
  1
*
  1
*
  1
*
 70
     3
  1
*
  1
*
  0
XRECORD
  5
204A
102
{ACAD_REACTORS
330
1FF3
102
}
330
1FF3
100
AcDbXrecord
280
     1
  1
表示レイヤ－を表示
  1
*
  1
*
  1
*
 70
     1
  1
*
  1
*
  0
XRECORD
  5
204B
102
{ACAD_REACTORS
330
1FF3
102
}
330
1FF3
100
AcDbXrecord
280
     1
  1
副道
  1
*副*
  1
*
  1
*
 70
     0
  1
*
  1
*
  0
XRECORD
  5
204C
102
{ACAD_REACTORS
330
1FF3
102
}
330
1FF3
100
AcDbXrecord
280
     1
  1
平面図
  1
*平*
  1
*
  1
*
 70
     0
  1
*
  1
*
  0
XRECORD
  5
204D
102
{ACAD_REACTORS
330
1FF3
102
}
330
1FF3
100
AcDbXrecord
280
     1
  1
埋設
  1
M*
  1
*
  1
*
 70
     0
  1
*
  1
*
  0
ENDSEC
  0
EOF
