  0
SECTION
  2
HEADER
  9
$ACADVER
  1
AC1015
  9
$ACADMAINTVER
 70
    13
  9
$DWGCODEPAGE
  3
ANSI_932
  9
$INSBASE
 10
0.0
 20
0.0
 30
0.0
  9
$EXTMIN
 10
-0.0256272352702354
 20
-0.0181221163696819
 30
-0.000000000000013
  9
$EXTMAX
 10
420.0256404375882
 20
297.0181314522944
 30
0.0000000000000023
  9
$LIMMIN
 10
0.0
 20
0.0
  9
$LIMMAX
 10
420.0
 20
297.0
  9
$ORTHOMODE
 70
     1
  9
$REGENMODE
 70
     1
  9
$FILLMODE
 70
     1
  9
$QTEXTMODE
 70
     0
  9
$MIRRTEXT
 70
     1
  9
$LTSCALE
 40
23.1
  9
$ATTMODE
 70
     1
  9
$TEXTSIZE
 40
0.2
  9
$TRACEWID
 40
0.05
  9
$TEXTSTYLE
  7
STANDARD
  9
$CLAYER
  8
0
  9
$CELTYPE
  6
ByLayer
  9
$CECOLOR
 62
   256
  9
$CELTSCALE
 40
1.0
  9
$DISPSILH
 70
     0
  9
$DIMSCALE
 40
1.0
  9
$DIMASZ
 40
2.0
  9
$DIMEXO
 40
1.0
  9
$DIMDLI
 40
1.0
  9
$DIMRND
 40
0.0
  9
$DIMDLE
 40
0.0
  9
$DIMEXE
 40
1.0
  9
$DIMTP
 40
0.0
  9
$DIMTM
 40
0.0
  9
$DIMTXT
 40
2.5
  9
$DIMCEN
 40
2.0
  9
$DIMTSZ
 40
0.0
  9
$DIMTOL
 70
     0
  9
$DIMLIM
 70
     0
  9
$DIMTIH
 70
     1
  9
$DIMTOH
 70
     1
  9
$DIMSE1
 70
     0
  9
$DIMSE2
 70
     0
  9
$DIMTAD
 70
     0
  9
$DIMZIN
 70
     0
  9
$DIMBLK
  1
OPEN
  9
$DIMASO
 70
     1
  9
$DIMSHO
 70
     1
  9
$DIMPOST
  1

  9
$DIMAPOST
  1

  9
$DIMALT
 70
     0
  9
$DIMALTD
 70
     2
  9
$DIMALTF
 40
25.4
  9
$DIMLFAC
 40
1.0
  9
$DIMTOFL
 70
     0
  9
$DIMTVP
 40
0.0
  9
$DIMTIX
 70
     0
  9
$DIMSOXD
 70
     0
  9
$DIMSAH
 70
     0
  9
$DIMBLK1
  1

  9
$DIMBLK2
  1

  9
$DIMSTYLE
  2
Standard
  9
$DIMCLRD
 70
     0
  9
$DIMCLRE
 70
     0
  9
$DIMCLRT
 70
     0
  9
$DIMTFAC
 40
1.0
  9
$DIMGAP
 40
1.0
  9
$DIMJUST
 70
     0
  9
$DIMSD1
 70
     0
  9
$DIMSD2
 70
     0
  9
$DIMTOLJ
 70
     1
  9
$DIMTZIN
 70
     0
  9
$DIMALTZ
 70
     0
  9
$DIMALTTZ
 70
     0
  9
$DIMUPT
 70
     0
  9
$DIMDEC
 70
     1
  9
$DIMTDEC
 70
     1
  9
$DIMALTU
 70
     2
  9
$DIMALTTD
 70
     2
  9
$DIMTXSTY
  7
STANDARD
  9
$DIMAUNIT
 70
     0
  9
$DIMADEC
 70
     0
  9
$DIMALTRND
 40
0.0
  9
$DIMAZIN
 70
     0
  9
$DIMDSEP
 70
    46
  9
$DIMATFIT
 70
     3
  9
$DIMFRAC
 70
     0
  9
$DIMLDRBLK
  1
OPEN
  9
$DIMLUNIT
 70
     2
  9
$DIMLWD
 70
    -2
  9
$DIMLWE
 70
    -2
  9
$DIMTMOVE
 70
     0
  9
$LUNITS
 70
     2
  9
$LUPREC
 70
     4
  9
$SKETCHINC
 40
0.1
  9
$FILLETRAD
 40
0.0
  9
$AUNITS
 70
     0
  9
$AUPREC
 70
     0
  9
$MENU
  1
.
  9
$ELEVATION
 40
0.0
  9
$PELEVATION
 40
0.0
  9
$THICKNESS
 40
0.0
  9
$LIMCHECK
 70
     0
  9
$CHAMFERA
 40
0.0
  9
$CHAMFERB
 40
0.0
  9
$CHAMFERC
 40
0.0
  9
$CHAMFERD
 40
0.0
  9
$SKPOLY
 70
     0
  9
$TDCREATE
 40
2455708.391048356
  9
$TDUCREATE
 40
2455708.016048356
  9
$TDUPDATE
 40
2455883.826393137
  9
$TDUUPDATE
 40
2455883.451393136
  9
$TDINDWG
 40
0.0551003009
  9
$TDUSRTIMER
 40
0.0550970370
  9
$USRTIMER
 70
     1
  9
$ANGBASE
 50
0.0
  9
$ANGDIR
 70
     0
  9
$PDMODE
 70
     3
  9
$PDSIZE
 40
8.0
  9
$PLINEWID
 40
0.0
  9
$SPLFRAME
 70
     0
  9
$SPLINETYPE
 70
     6
  9
$SPLINESEGS
 70
     8
  9
$HANDSEED
  5
14A1
  9
$SURFTAB1
 70
     6
  9
$SURFTAB2
 70
     6
  9
$SURFTYPE
 70
     6
  9
$SURFU
 70
     6
  9
$SURFV
 70
     6
  9
$UCSBASE
  2

  9
$UCSNAME
  2

  9
$UCSORG
 10
0.0
 20
0.0
 30
0.0
  9
$UCSXDIR
 10
1.0
 20
0.0
 30
0.0
  9
$UCSYDIR
 10
0.0
 20
1.0
 30
0.0
  9
$UCSORTHOREF
  2

  9
$UCSORTHOVIEW
 70
     0
  9
$UCSORGTOP
 10
0.0
 20
0.0
 30
0.0
  9
$UCSORGBOTTOM
 10
0.0
 20
0.0
 30
0.0
  9
$UCSORGLEFT
 10
0.0
 20
0.0
 30
0.0
  9
$UCSORGRIGHT
 10
0.0
 20
0.0
 30
0.0
  9
$UCSORGFRONT
 10
0.0
 20
0.0
 30
0.0
  9
$UCSORGBACK
 10
0.0
 20
0.0
 30
0.0
  9
$PUCSBASE
  2

  9
$PUCSNAME
  2

  9
$PUCSORG
 10
0.0
 20
0.0
 30
0.0
  9
$PUCSXDIR
 10
1.0
 20
0.0
 30
0.0
  9
$PUCSYDIR
 10
0.0
 20
1.0
 30
0.0
  9
$PUCSORTHOREF
  2

  9
$PUCSORTHOVIEW
 70
     0
  9
$PUCSORGTOP
 10
0.0
 20
0.0
 30
0.0
  9
$PUCSORGBOTTOM
 10
0.0
 20
0.0
 30
0.0
  9
$PUCSORGLEFT
 10
0.0
 20
0.0
 30
0.0
  9
$PUCSORGRIGHT
 10
0.0
 20
0.0
 30
0.0
  9
$PUCSORGFRONT
 10
0.0
 20
0.0
 30
0.0
  9
$PUCSORGBACK
 10
0.0
 20
0.0
 30
0.0
  9
$USERI1
 70
     0
  9
$USERI2
 70
     0
  9
$USERI3
 70
     0
  9
$USERI4
 70
     0
  9
$USERI5
 70
     0
  9
$USERR1
 40
0.0
  9
$USERR2
 40
0.0
  9
$USERR3
 40
0.0
  9
$USERR4
 40
0.0
  9
$USERR5
 40
0.0
  9
$WORLDVIEW
 70
     1
  9
$SHADEDGE
 70
     3
  9
$SHADEDIF
 70
    70
  9
$TILEMODE
 70
     1
  9
$MAXACTVP
 70
    64
  9
$PINSBASE
 10
0.0
 20
0.0
 30
0.0
  9
$PLIMCHECK
 70
     0
  9
$PEXTMIN
 10
1.000000000000000E+20
 20
1.000000000000000E+20
 30
1.000000000000000E+20
  9
$PEXTMAX
 10
-1.000000000000000E+20
 20
-1.000000000000000E+20
 30
-1.000000000000000E+20
  9
$PLIMMIN
 10
0.0
 20
0.0
  9
$PLIMMAX
 10
12.0
 20
9.0
  9
$UNITMODE
 70
     0
  9
$VISRETAIN
 70
     1
  9
$PLINEGEN
 70
     0
  9
$PSLTSCALE
 70
     1
  9
$TREEDEPTH
 70
  3020
  9
$CMLSTYLE
  2
Standard
  9
$CMLJUST
 70
     0
  9
$CMLSCALE
 40
1.0
  9
$PROXYGRAPHICS
 70
     1
  9
$MEASUREMENT
 70
     0
  9
$CELWEIGHT
370
    -1
  9
$ENDCAPS
280
     0
  9
$JOINSTYLE
280
     0
  9
$LWDISPLAY
290
     0
  9
$INSUNITS
 70
     0
  9
$HYPERLINKBASE
  1

  9
$STYLESHEET
  1
A3.ctb
  9
$XEDIT
290
     1
  9
$CEPSNTYPE
380
     0
  9
$PSTYLEMODE
290
     1
  9
$FINGERPRINTGUID
  2
{5879DE04-2DA2-424D-B1E7-39E4718775F6}
  9
$VERSIONGUID
  2
{50E384B1-F819-450A-B314-BE62773B4EF3}
  9
$EXTNAMES
290
     1
  9
$PSVPSCALE
 40
0.0
  9
$OLESTARTUP
290
     0
  0
ENDSEC
  0
SECTION
  2
CLASSES
  0
CLASS
  1
ACDBDICTIONARYWDFLT
  2
AcDbDictionaryWithDefault
  3
AutoCAD 2000
 90
        0
280
     0
281
     0
  0
CLASS
  1
ACDBPLACEHOLDER
  2
AcDbPlaceHolder
  3
AutoCAD 2000
 90
        0
280
     0
281
     0
  0
CLASS
  1
LAYOUT
  2
AcDbLayout
  3
AutoCAD 2000
 90
        0
280
     0
281
     0
  0
CLASS
  1
DICTIONARYVAR
  2
AcDbDictionaryVar
  3
AutoCAD 2000
 90
        0
280
     0
281
     0
  0
ENDSEC
  0
SECTION
  2
TABLES
  0
TABLE
  2
VPORT
  5
8
330
0
100
AcDbSymbolTable
 70
     2
  0
VPORT
  5
14A0
330
8
100
AcDbSymbolTableRecord
100
AcDbViewportTableRecord
  2
*Active
 70
     0
 10
0.0
 20
0.0
 11
1.0
 21
1.0
 12
210.000006601159
 22
148.5000046679624
 13
0.0
 23
0.0
 14
1.0
 24
1.0
 15
0.0
 25
0.0
 16
0.0
 26
0.0
 36
1.0
 17
0.0
 27
0.0
 37
0.0
 40
299.2584699295269
 41
1.469413233458177
 42
50.0
 43
0.0
 44
0.0
 50
0.0
 51
0.0
 71
     0
 72
   100
 73
     1
 74
     1
 75
     1
 76
     0
 77
     0
 78
     0
281
     0
 65
     1
110
0.0
120
0.0
130
0.0
111
1.0
121
0.0
131
0.0
112
0.0
122
1.0
132
0.0
 79
     0
146
0.0
  0
ENDTAB
  0
TABLE
  2
LTYPE
  5
5
330
0
100
AcDbSymbolTable
 70
     6
  0
LTYPE
  5
13
330
5
100
AcDbSymbolTableRecord
100
AcDbLinetypeTableRecord
  2
ByBlock
 70
     0
  3

 72
    65
 73
     0
 40
0.0
  0
LTYPE
  5
14
330
5
100
AcDbSymbolTableRecord
100
AcDbLinetypeTableRecord
  2
ByLayer
 70
     0
  3

 72
    65
 73
     0
 40
0.0
  0
LTYPE
  5
15
330
5
100
AcDbSymbolTableRecord
100
AcDbLinetypeTableRecord
  2
CONTINUOUS
 70
     0
  3
Solid line
 72
    65
 73
     0
 40
0.0
  0
LTYPE
  5
24
330
5
100
AcDbSymbolTableRecord
100
AcDbLinetypeTableRecord
  2
CENTER
 70
     0
  3
____ _ ____ _ ____ _ ____ _ ____ _ ____ _ ____
 72
    65
 73
     4
 40
0.6
 49
0.375
 74
     0
 49
-0.075
 74
     0
 49
0.075
 74
     0
 49
-0.075
 74
     0
  0
LTYPE
  5
25
330
5
100
AcDbSymbolTableRecord
100
AcDbLinetypeTableRecord
  2
HIDDEN
 70
     0
  3
- - - - - - - - - - - - - - - - - - - -
 72
    65
 73
     2
 40
0.2
 49
0.1
 74
     0
 49
-0.1
 74
     0
  0
LTYPE
  5
26
330
5
100
AcDbSymbolTableRecord
100
AcDbLinetypeTableRecord
  2
PHANTOM
 70
     0
  3
_____ _ _ _____ _ _ _____ _ _ _____
 72
    65
 73
     6
 40
0.8
 49
0.45
 74
     0
 49
-0.05
 74
     0
 49
0.1
 74
     0
 49
-0.05
 74
     0
 49
0.1
 74
     0
 49
-0.05
 74
     0
  0
LTYPE
  5
27
330
5
100
AcDbSymbolTableRecord
100
AcDbLinetypeTableRecord
  2
DOT
 70
     0
  3
. . . . . . . . . . . . . . . . . . . .
 72
    65
 73
     2
 40
0.2
 49
0.1
 74
     0
 49
-0.1
 74
     0
  0
LTYPE
  5
28
330
5
100
AcDbSymbolTableRecord
100
AcDbLinetypeTableRecord
  2
DASHED
 70
     0
  3
- - - - - - - - - - - - - - - - - - - -
 72
    65
 73
     2
 40
0.2
 49
0.1
 74
     0
 49
-0.1
 74
     0
  0
ENDTAB
  0
TABLE
  2
LAYER
  5
2
102
{ACAD_XDICTIONARY
360
1222
102
}
330
0
100
AcDbSymbolTable
 70
   106
  0
LAYER
  5
10
330
2
100
AcDbSymbolTableRecord
100
AcDbLayerTableRecord
  2
0
 70
     0
 62
     7
  6
CONTINUOUS
370
    -3
390
F
  0
LAYER
  5
29
330
2
100
AcDbSymbolTableRecord
100
AcDbLayerTableRecord
  2
DEFAULT_1
 70
     0
 62
     7
  6
CENTER
370
    -3
390
F
  0
LAYER
  5
2A
330
2
100
AcDbSymbolTableRecord
100
AcDbLayerTableRecord
  2
DEFAULT_2
 70
     0
 62
     8
  6
HIDDEN
370
    -3
390
F
  0
LAYER
  5
2B
330
2
100
AcDbSymbolTableRecord
100
AcDbLayerTableRecord
  2
DEFAULT_3
 70
     0
 62
     7
  6
PHANTOM
370
    -3
390
F
  0
LAYER
  5
2C
330
2
100
AcDbSymbolTableRecord
100
AcDbLayerTableRecord
  2
_2D_DELETED_OBJS
 70
     0
 62
     7
  6
CONTINUOUS
370
    -3
390
F
  0
LAYER
  5
2D
330
2
100
AcDbSymbolTableRecord
100
AcDbLayerTableRecord
  2
_BLACK_HOLE
 70
     0
 62
     7
  6
CONTINUOUS
370
    -3
390
F
  0
LAYER
  5
2E
330
2
100
AcDbSymbolTableRecord
100
AcDbLayerTableRecord
  2
00_COMPONENTS
 70
     0
 62
     7
  6
CONTINUOUS
370
    -3
390
F
  0
LAYER
  5
2F
330
2
100
AcDbSymbolTableRecord
100
AcDbLayerTableRecord
  2
01___PRT_ALL_DTM_PLN
 70
     0
 62
     7
  6
CONTINUOUS
370
    -3
390
F
  0
LAYER
  5
30
330
2
100
AcDbSymbolTableRecord
100
AcDbLayerTableRecord
  2
01___PRT_DEF_DTM_PLN
 70
     0
 62
     7
  6
CONTINUOUS
370
    -3
390
F
  0
LAYER
  5
31
330
2
100
AcDbSymbolTableRecord
100
AcDbLayerTableRecord
  2
02___PRT_ALL_AXES
 70
     0
 62
     7
  6
CONTINUOUS
370
    -3
390
F
  0
LAYER
  5
32
330
2
100
AcDbSymbolTableRecord
100
AcDbLayerTableRecord
  2
03_ALL_AXES
 70
     0
 62
     7
  6
CONTINUOUS
370
    -3
390
F
  0
LAYER
  5
33
330
2
100
AcDbSymbolTableRecord
100
AcDbLayerTableRecord
  2
03___PRT_ALL_CURVES
 70
     0
 62
     7
  6
CONTINUOUS
370
    -3
390
F
  0
LAYER
  5
34
330
2
100
AcDbSymbolTableRecord
100
AcDbLayerTableRecord
  2
04___PRT_ALL_DTM_PNT
 70
     0
 62
     7
  6
CONTINUOUS
370
    -3
390
F
  0
LAYER
  5
35
330
2
100
AcDbSymbolTableRecord
100
AcDbLayerTableRecord
  2
05_ALL_CURVES
 70
     0
 62
     7
  6
CONTINUOUS
370
    -3
390
F
  0
LAYER
  5
36
330
2
100
AcDbSymbolTableRecord
100
AcDbLayerTableRecord
  2
05___PRT_ALL_DTM_CSYS
 70
     0
 62
     7
  6
CONTINUOUS
370
    -3
390
F
  0
LAYER
  5
37
330
2
100
AcDbSymbolTableRecord
100
AcDbLayerTableRecord
  2
05___PRT_DEF_DTM_CSYS
 70
     0
 62
     7
  6
CONTINUOUS
370
    -3
390
F
  0
LAYER
  5
38
330
2
100
AcDbSymbolTableRecord
100
AcDbLayerTableRecord
  2
06___PRT_ALL_SURFS
 70
     0
 62
     7
  6
CONTINUOUS
370
    -3
390
F
  0
LAYER
  5
39
330
2
100
AcDbSymbolTableRecord
100
AcDbLayerTableRecord
  2
0_COMPONENTS
 70
     0
 62
     7
  6
CONTINUOUS
370
    -3
390
F
  0
LAYER
  5
3A
330
2
100
AcDbSymbolTableRecord
100
AcDbLayerTableRecord
  2
1_ALL_DIMS
 70
     0
 62
     7
  6
CONTINUOUS
370
    -3
390
F
  0
LAYER
  5
3B
330
2
100
AcDbSymbolTableRecord
100
AcDbLayerTableRecord
  2
1_ALL_DRAFT_DIMS
 70
     0
 62
     7
  6
CONTINUOUS
370
    -3
390
F
  0
LAYER
  5
3C
330
2
100
AcDbSymbolTableRecord
100
AcDbLayerTableRecord
  2
1_ALL_PLANES
 70
     0
 62
     7
  6
CONTINUOUS
370
    -3
390
F
  0
LAYER
  5
3D
330
2
100
AcDbSymbolTableRecord
100
AcDbLayerTableRecord
  2
1__ALL_DRIVEN_DIMS
 70
     0
 62
     7
  6
CONTINUOUS
370
    -3
390
F
  0
LAYER
  5
3E
330
2
100
AcDbSymbolTableRecord
100
AcDbLayerTableRecord
  2
1__ALL_REF_DIMS
 70
     0
 62
     7
  6
CONTINUOUS
370
    -3
390
F
  0
LAYER
  5
3F
330
2
100
AcDbSymbolTableRecord
100
AcDbLayerTableRecord
  2
1__DEF_ASM_PLN
 70
     0
 62
     7
  6
CONTINUOUS
370
    -3
390
F
  0
LAYER
  5
40
330
2
100
AcDbSymbolTableRecord
100
AcDbLayerTableRecord
  2
1__DEF_PLANES
 70
     0
 62
     7
  6
CONTINUOUS
370
    -3
390
F
  0
LAYER
  5
41
330
2
100
AcDbSymbolTableRecord
100
AcDbLayerTableRecord
  2
1__DEF_PRT_PLN
 70
     0
 62
     7
  6
CONTINUOUS
370
    -3
390
F
  0
LAYER
  5
42
330
2
100
AcDbSymbolTableRecord
100
AcDbLayerTableRecord
  2
20_ALL_FEATURES
 70
     0
 62
     7
  6
CONTINUOUS
370
    -3
390
F
  0
LAYER
  5
43
330
2
100
AcDbSymbolTableRecord
100
AcDbLayerTableRecord
  2
2_ALL_CSYS
 70
     0
 62
     7
  6
CONTINUOUS
370
    -3
390
F
  0
LAYER
  5
44
330
2
100
AcDbSymbolTableRecord
100
AcDbLayerTableRecord
  2
2_ALL_NOTES
 70
     0
 62
     7
  6
CONTINUOUS
370
    -3
390
F
  0
LAYER
  5
45
330
2
100
AcDbSymbolTableRecord
100
AcDbLayerTableRecord
  2
2__DEF_ASM_CSYS
 70
     0
 62
     7
  6
CONTINUOUS
370
    -3
390
F
  0
LAYER
  5
46
330
2
100
AcDbSymbolTableRecord
100
AcDbLayerTableRecord
  2
2__DEF_CSYS
 70
     0
 62
     7
  6
CONTINUOUS
370
    -3
390
F
  0
LAYER
  5
47
330
2
100
AcDbSymbolTableRecord
100
AcDbLayerTableRecord
  2
2__DEF_PRT_CSYS
 70
     0
 62
     7
  6
CONTINUOUS
370
    -3
390
F
  0
LAYER
  5
48
330
2
100
AcDbSymbolTableRecord
100
AcDbLayerTableRecord
  2
3_ALL_AXES
 70
     0
 62
     7
  6
CONTINUOUS
370
    -3
390
F
  0
LAYER
  5
49
330
2
100
AcDbSymbolTableRecord
100
AcDbLayerTableRecord
  2
3_ALL_SYMBOLS
 70
     0
 62
     7
  6
CONTINUOUS
370
    -3
390
F
  0
LAYER
  5
4A
330
2
100
AcDbSymbolTableRecord
100
AcDbLayerTableRecord
  2
3__ALL_HOES
 70
     0
 62
     7
  6
CONTINUOUS
370
    -3
390
F
  0
LAYER
  5
4B
330
2
100
AcDbSymbolTableRecord
100
AcDbLayerTableRecord
  2
3__ALL_HOLES
 70
     0
 62
     7
  6
CONTINUOUS
370
    -3
390
F
  0
LAYER
  5
4C
330
2
100
AcDbSymbolTableRecord
100
AcDbLayerTableRecord
  2
49-H1003G001
 70
     0
 62
     7
  6
CONTINUOUS
370
    -3
390
F
  0
LAYER
  5
4D
330
2
100
AcDbSymbolTableRecord
100
AcDbLayerTableRecord
  2
4_ALL_POINTS
 70
     0
 62
     7
  6
CONTINUOUS
370
    -3
390
F
  0
LAYER
  5
4E
330
2
100
AcDbSymbolTableRecord
100
AcDbLayerTableRecord
  2
510210600
 70
     0
 62
     7
  6
CONTINUOUS
370
    -3
390
F
  0
LAYER
  5
4F
330
2
100
AcDbSymbolTableRecord
100
AcDbLayerTableRecord
  2
51_ALL_DIMS
 70
     0
 62
     7
  6
CONTINUOUS
370
    -3
390
F
  0
LAYER
  5
50
330
2
100
AcDbSymbolTableRecord
100
AcDbLayerTableRecord
  2
5_ALL_CURVES
 70
     0
 62
     7
  6
CONTINUOUS
370
    -3
390
F
  0
LAYER
  5
51
330
2
100
AcDbSymbolTableRecord
100
AcDbLayerTableRecord
  2
5_ALL_GTOLS_FREE_
 70
     0
 62
     7
  6
CONTINUOUS
370
    -3
390
F
  0
LAYER
  5
52
330
2
100
AcDbSymbolTableRecord
100
AcDbLayerTableRecord
  2
6_ALL_SFINS
 70
     0
 62
     7
  6
CONTINUOUS
370
    -3
390
F
  0
LAYER
  5
53
330
2
100
AcDbSymbolTableRecord
100
AcDbLayerTableRecord
  2
6_ALL_SURFS
 70
     0
 62
     7
  6
CONTINUOUS
370
    -3
390
F
  0
LAYER
  5
54
330
2
100
AcDbSymbolTableRecord
100
AcDbLayerTableRecord
  2
7_ALL_COSMETICS
 70
     0
 62
     7
  6
CONTINUOUS
370
    -3
390
F
  0
LAYER
  5
55
330
2
100
AcDbSymbolTableRecord
100
AcDbLayerTableRecord
  2
7_ALL_DRAFT_GEOMS
 70
     0
 62
     7
  6
CONTINUOUS
370
    -3
390
F
  0
LAYER
  5
56
330
2
100
AcDbSymbolTableRecord
100
AcDbLayerTableRecord
  2
7_ALL_FEATURES
 70
     0
 62
     7
  6
CONTINUOUS
370
    -3
390
F
  0
LAYER
  5
57
330
2
100
AcDbSymbolTableRecord
100
AcDbLayerTableRecord
  2
7_ALL_FEATURES_8
 70
     0
 62
     7
  6
CONTINUOUS
370
    -3
390
F
  0
LAYER
  5
58
330
2
100
AcDbSymbolTableRecord
100
AcDbLayerTableRecord
  2
8_ALL_DTL_ITEMS
 70
     0
 62
     7
  6
CONTINUOUS
370
    -3
390
F
  0
LAYER
  5
59
330
2
100
AcDbSymbolTableRecord
100
AcDbLayerTableRecord
  2
8_ALL_ROUNDS
 70
     0
 62
     7
  6
CONTINUOUS
370
    -3
390
F
  0
LAYER
  5
5A
330
2
100
AcDbSymbolTableRecord
100
AcDbLayerTableRecord
  2
8_ALL_ROUNS
 70
     0
 62
     7
  6
CONTINUOUS
370
    -3
390
F
  0
LAYER
  5
5B
330
2
100
AcDbSymbolTableRecord
100
AcDbLayerTableRecord
  2
9_ALL_COSM_SKETCH
 70
     0
 62
     7
  6
CONTINUOUS
370
    -3
390
F
  0
LAYER
  5
5C
330
2
100
AcDbSymbolTableRecord
100
AcDbLayerTableRecord
  2
9_ALL_COSM_SKETCHS
 70
     0
 62
     7
  6
CONTINUOUS
370
    -3
390
F
  0
LAYER
  5
5D
330
2
100
AcDbSymbolTableRecord
100
AcDbLayerTableRecord
  2
AXIS
 70
     0
 62
     7
  6
CONTINUOUS
370
    -3
390
F
  0
LAYER
  5
5E
330
2
100
AcDbSymbolTableRecord
100
AcDbLayerTableRecord
  2
COLOR11
 70
     0
 62
     7
  6
CONTINUOUS
370
    -3
390
F
  0
LAYER
  5
5F
330
2
100
AcDbSymbolTableRecord
100
AcDbLayerTableRecord
  2
COLOR13
 70
     0
 62
     7
  6
CONTINUOUS
370
    -3
390
F
  0
LAYER
  5
60
330
2
100
AcDbSymbolTableRecord
100
AcDbLayerTableRecord
  2
COLOR2
 70
     0
 62
     7
  6
CONTINUOUS
370
    -3
390
F
  0
LAYER
  5
61
330
2
100
AcDbSymbolTableRecord
100
AcDbLayerTableRecord
  2
COLOR26
 70
     0
 62
     7
  6
CONTINUOUS
370
    -3
390
F
  0
LAYER
  5
62
330
2
100
AcDbSymbolTableRecord
100
AcDbLayerTableRecord
  2
COLOR31
 70
     0
 62
     7
  6
CONTINUOUS
370
    -3
390
F
  0
LAYER
  5
63
330
2
100
AcDbSymbolTableRecord
100
AcDbLayerTableRecord
  2
COLOR6
 70
     0
 62
     7
  6
CONTINUOUS
370
    -3
390
F
  0
LAYER
  5
64
330
2
100
AcDbSymbolTableRecord
100
AcDbLayerTableRecord
  2
COLOR9
 70
     0
 62
     7
  6
CONTINUOUS
370
    -3
390
F
  0
LAYER
  5
65
330
2
100
AcDbSymbolTableRecord
100
AcDbLayerTableRecord
  2
CSYS
 70
     0
 62
     7
  6
CONTINUOUS
370
    -3
390
F
  0
LAYER
  5
66
330
2
100
AcDbSymbolTableRecord
100
AcDbLayerTableRecord
  2
G1-SOMA
 70
     0
 62
     7
  6
CONTINUOUS
370
    -3
390
F
  0
LAYER
  5
67
330
2
100
AcDbSymbolTableRecord
100
AcDbLayerTableRecord
  2
GALAEPO
 70
     0
 62
     7
  6
CONTINUOUS
370
    -3
390
F
  0
LAYER
  5
68
330
2
100
AcDbSymbolTableRecord
100
AcDbLayerTableRecord
  2
GR01-0015
 70
     0
 62
     7
  6
CONTINUOUS
370
    -3
390
F
  0
LAYER
  5
69
330
2
100
AcDbSymbolTableRecord
100
AcDbLayerTableRecord
  2
GR04-0006
 70
     0
 62
     7
  6
CONTINUOUS
370
    -3
390
F
  0
LAYER
  5
6A
330
2
100
AcDbSymbolTableRecord
100
AcDbLayerTableRecord
  2
GR04-0006_1
 70
     0
 62
     7
  6
CONTINUOUS
370
    -3
390
F
  0
LAYER
  5
6B
330
2
100
AcDbSymbolTableRecord
100
AcDbLayerTableRecord
  2
GR04-0016
 70
     0
 62
     7
  6
CONTINUOUS
370
    -3
390
F
  0
LAYER
  5
6C
330
2
100
AcDbSymbolTableRecord
100
AcDbLayerTableRecord
  2
GR07-0007
 70
     0
 62
     7
  6
CONTINUOUS
370
    -3
390
F
  0
LAYER
  5
6D
330
2
100
AcDbSymbolTableRecord
100
AcDbLayerTableRecord
  2
INTF_GREEN
 70
     0
 62
     7
  6
CONTINUOUS
370
    -3
390
F
  0
LAYER
  5
6E
330
2
100
AcDbSymbolTableRecord
100
AcDbLayerTableRecord
  2
INTF_MAGENTA
 70
     0
 62
     7
  6
CONTINUOUS
370
    -3
390
F
  0
LAYER
  5
6F
330
2
100
AcDbSymbolTableRecord
100
AcDbLayerTableRecord
  2
INTF_RED
 70
     0
 62
     7
  6
CONTINUOUS
370
    -3
390
F
  0
LAYER
  5
70
330
2
100
AcDbSymbolTableRecord
100
AcDbLayerTableRecord
  2
IR_EN
 70
     0
 62
     7
  6
CONTINUOUS
370
    -3
390
F
  0
LAYER
  5
71
330
2
100
AcDbSymbolTableRecord
100
AcDbLayerTableRecord
  2
L1
 70
     0
 62
     7
  6
CONTINUOUS
370
    -3
390
F
  0
LAYER
  5
72
330
2
100
AcDbSymbolTableRecord
100
AcDbLayerTableRecord
  2
L8
 70
     0
 62
     7
  6
CONTINUOUS
370
    -3
390
F
  0
LAYER
  5
73
330
2
100
AcDbSymbolTableRecord
100
AcDbLayerTableRecord
  2
NEW-ASIA
 70
     0
 62
     7
  6
CONTINUOUS
370
    -3
390
F
  0
LAYER
  5
74
330
2
100
AcDbSymbolTableRecord
100
AcDbLayerTableRecord
  2
PATTERN
 70
     0
 62
     7
  6
CONTINUOUS
370
    -3
390
F
  0
LAYER
  5
75
330
2
100
AcDbSymbolTableRecord
100
AcDbLayerTableRecord
  2
PATTERN_1
 70
     0
 62
     7
  6
CONTINUOUS
370
    -3
390
F
  0
LAYER
  5
76
330
2
100
AcDbSymbolTableRecord
100
AcDbLayerTableRecord
  2
PATTERN_2
 70
     0
 62
     7
  6
CONTINUOUS
370
    -3
390
F
  0
LAYER
  5
77
330
2
100
AcDbSymbolTableRecord
100
AcDbLayerTableRecord
  2
PATTERN_3
 70
     0
 62
     7
  6
CONTINUOUS
370
    -3
390
F
  0
LAYER
  5
78
330
2
100
AcDbSymbolTableRecord
100
AcDbLayerTableRecord
  2
PLN
 70
     0
 62
     7
  6
CONTINUOUS
370
    -3
390
F
  0
LAYER
  5
79
330
2
100
AcDbSymbolTableRecord
100
AcDbLayerTableRecord
  2
PNT
 70
     0
 62
     7
  6
CONTINUOUS
370
    -3
390
F
  0
LAYER
  5
7A
330
2
100
AcDbSymbolTableRecord
100
AcDbLayerTableRecord
  2
PRT0006
 70
     0
 62
     7
  6
CONTINUOUS
370
    -3
390
F
  0
LAYER
  5
7B
330
2
100
AcDbSymbolTableRecord
100
AcDbLayerTableRecord
  2
PRT0007
 70
     0
 62
     7
  6
CONTINUOUS
370
    -3
390
F
  0
LAYER
  5
7C
330
2
100
AcDbSymbolTableRecord
100
AcDbLayerTableRecord
  2
PRT0008
 70
     0
 62
     7
  6
CONTINUOUS
370
    -3
390
F
  0
LAYER
  5
7D
330
2
100
AcDbSymbolTableRecord
100
AcDbLayerTableRecord
  2
REGIST
 70
     0
 62
     7
  6
CONTINUOUS
370
    -3
390
F
  0
LAYER
  5
7E
330
2
100
AcDbSymbolTableRecord
100
AcDbLayerTableRecord
  2
SCREW-4
 70
     0
 62
     7
  6
CONTINUOUS
370
    -3
390
F
  0
LAYER
  5
7F
330
2
100
AcDbSymbolTableRecord
100
AcDbLayerTableRecord
  2
SCREW-4_1
 70
     0
 62
     7
  6
CONTINUOUS
370
    -3
390
F
  0
LAYER
  5
80
330
2
100
AcDbSymbolTableRecord
100
AcDbLayerTableRecord
  2
SCREW_MX1_7X3
 70
     0
 62
     7
  6
CONTINUOUS
370
    -3
390
F
  0
LAYER
  5
81
330
2
100
AcDbSymbolTableRecord
100
AcDbLayerTableRecord
  2
SCREW_MX1_7X3_1
 70
     0
 62
     7
  6
CONTINUOUS
370
    -3
390
F
  0
LAYER
  5
82
330
2
100
AcDbSymbolTableRecord
100
AcDbLayerTableRecord
  2
SCREW_MX1_7X3_2
 70
     0
 62
     7
  6
CONTINUOUS
370
    -3
390
F
  0
LAYER
  5
83
330
2
100
AcDbSymbolTableRecord
100
AcDbLayerTableRecord
  2
WIDE
 70
     0
 62
     7
  6
CONTINUOUS
370
    -3
390
F
  0
LAYER
  5
84
330
2
100
AcDbSymbolTableRecord
100
AcDbLayerTableRecord
  2
XSEC_DATUMS
 70
     0
 62
     7
  6
CONTINUOUS
370
    -3
390
F
  0
LAYER
  5
85
330
2
100
AcDbSymbolTableRecord
100
AcDbLayerTableRecord
  2
YC-19-BARREL-1
 70
     0
 62
     7
  6
CONTINUOUS
370
    -3
390
F
  0
LAYER
  5
86
330
2
100
AcDbSymbolTableRecord
100
AcDbLayerTableRecord
  2
YC-19-CAM-1
 70
     0
 62
     7
  6
CONTINUOUS
370
    -3
390
F
  0
LAYER
  5
87
330
2
100
AcDbSymbolTableRecord
100
AcDbLayerTableRecord
  2
YC-19-FOCUSE
 70
     0
 62
     7
  6
CONTINUOUS
370
    -3
390
F
  0
LAYER
  5
88
330
2
100
AcDbSymbolTableRecord
100
AcDbLayerTableRecord
  2
YC-19-SCREW-1
 70
     0
 62
     7
  6
CONTINUOUS
370
    -3
390
F
  0
LAYER
  5
89
330
2
100
AcDbSymbolTableRecord
100
AcDbLayerTableRecord
  2
YC-19-SCREW-2
 70
     0
 62
     7
  6
CONTINUOUS
370
    -3
390
F
  0
LAYER
  5
8A
330
2
100
AcDbSymbolTableRecord
100
AcDbLayerTableRecord
  2
YC-19-STICKER-240
 70
     0
 62
     7
  6
CONTINUOUS
370
    -3
390
F
  0
LAYER
  5
8B
330
2
100
AcDbSymbolTableRecord
100
AcDbLayerTableRecord
  2
YC_19_BARREL2
 70
     0
 62
     7
  6
CONTINUOUS
370
    -3
390
F
  0
LAYER
  5
8C
330
2
100
AcDbSymbolTableRecord
100
AcDbLayerTableRecord
  2
YC_19_CAM2
 70
     0
 62
     7
  6
CONTINUOUS
370
    -3
390
F
  0
LAYER
  5
8D
330
2
100
AcDbSymbolTableRecord
100
AcDbLayerTableRecord
  2
YC_19_REARCELL
 70
     0
 62
     7
  6
CONTINUOUS
370
    -3
390
F
  0
LAYER
  5
8E
330
2
100
AcDbSymbolTableRecord
100
AcDbLayerTableRecord
  2
YC_19_REAR_ASM
 70
     0
 62
     7
  6
CONTINUOUS
370
    -3
390
F
  0
LAYER
  5
8F
330
2
100
AcDbSymbolTableRecord
100
AcDbLayerTableRecord
  2
___SHELL
 70
     0
 62
     7
  6
CONTINUOUS
370
    -3
390
F
  0
LAYER
  5
127E
330
2
100
AcDbSymbolTableRecord
100
AcDbLayerTableRecord
  2
非表示
 70
     0
 62
     5
  6
CONTINUOUS
290
     0
370
    -3
390
F
  0
LAYER
  5
12AD
330
2
100
AcDbSymbolTableRecord
100
AcDbLayerTableRecord
  2
Defpoints
 70
     0
 62
     7
  6
CONTINUOUS
290
     0
370
    -3
390
F
  0
ENDTAB
  0
TABLE
  2
STYLE
  5
3
330
0
100
AcDbSymbolTable
 70
     2
  0
STYLE
  5
11
330
3
100
AcDbSymbolTableRecord
100
AcDbTextStyleTableRecord
  2
STANDARD
 70
     0
 40
0.0
 41
0.8
 50
0.0
 71
     0
 42
0.2
  3
txt
  4

  0
STYLE
  5
127F
330
3
100
AcDbSymbolTableRecord
100
AcDbTextStyleTableRecord
  2
STANDARD1
 70
     0
 40
0.0
 41
0.8
 50
0.0
 71
     0
 42
2.5
  3
MONOTXT.shx
  4
BIGFONT.shx
  0
ENDTAB
  0
TABLE
  2
VIEW
  5
6
330
0
100
AcDbSymbolTable
 70
     0
  0
ENDTAB
  0
TABLE
  2
UCS
  5
7
330
0
100
AcDbSymbolTable
 70
     0
  0
ENDTAB
  0
TABLE
  2
APPID
  5
9
330
0
100
AcDbSymbolTable
 70
     1
  0
APPID
  5
12
330
9
100
AcDbSymbolTableRecord
100
AcDbRegAppTableRecord
  2
ACAD
 70
     0
  0
ENDTAB
  0
TABLE
  2
DIMSTYLE
  5
A
330
0
100
AcDbSymbolTable
 70
     1
100
AcDbDimStyleTable
 71
     1
340
1220
  0
DIMSTYLE
105
1220
330
A
100
AcDbSymbolTableRecord
100
AcDbDimStyleTableRecord
  2
Standard
 70
     0
340
11
  0
ENDTAB
  0
TABLE
  2
BLOCK_RECORD
  5
1
330
0
100
AcDbSymbolTable
 70
    28
  0
BLOCK_RECORD
  5
1E
330
1
100
AcDbSymbolTableRecord
100
AcDbBlockTableRecord
  2
*Model_Space
340
21
  0
BLOCK_RECORD
  5
1A
330
1
100
AcDbSymbolTableRecord
100
AcDbBlockTableRecord
  2
*Paper_Space
340
1D
  0
BLOCK_RECORD
  5
92
330
1
100
AcDbSymbolTableRecord
100
AcDbBlockTableRecord
  2
*D0
340
0
  0
BLOCK_RECORD
  5
98
330
1
100
AcDbSymbolTableRecord
100
AcDbBlockTableRecord
  2
_OPEN
340
0
102
{BLKREFS
331
99
331
9A
331
A2
331
A3
331
AB
331
AC
331
B4
331
B5
331
BD
331
BE
331
C6
331
C7
331
CF
331
D0
331
D7
331
D8
331
E0
331
E1
331
E8
331
E9
331
F0
331
F1
331
F9
331
FA
331
FF
331
12B3
331
12B4
331
12C0
331
12C1
331
12CD
331
12CE
331
12DA
331
12DB
331
12E7
331
12E8
331
12F4
331
12F5
331
1301
331
1302
331
130D
331
1316
331
131E
331
1327
331
1330
331
1339
331
1344
331
1345
331
134E
331
134F
331
1358
331
1359
331
1362
331
1363
331
136C
331
136D
331
1376
331
1377
331
1380
331
1381
331
1389
331
138F
331
1394
331
139A
331
13A0
331
13A6
331
13AF
331
13B0
331
13B9
331
13BA
331
13C3
331
13C4
331
13CD
331
13CE
331
13D7
331
13D8
331
13E1
331
13E2
331
13EB
331
13EC
331
13F4
331
13FA
331
13FF
331
1405
331
140B
331
1411
331
141A
331
141B
331
1423
331
1424
331
142C
331
142D
331
1433
331
1434
331
1438
331
143C
331
1441
331
1442
331
1447
331
144B
331
1450
331
1451
331
1456
331
145B
331
145C
331
1462
331
1463
331
1469
331
146A
331
146F
102
}
  0
BLOCK_RECORD
  5
9C
330
1
100
AcDbSymbolTableRecord
100
AcDbBlockTableRecord
  2
*D2
340
0
  0
BLOCK_RECORD
  5
A5
330
1
100
AcDbSymbolTableRecord
100
AcDbBlockTableRecord
  2
*D3
340
0
  0
BLOCK_RECORD
  5
AE
330
1
100
AcDbSymbolTableRecord
100
AcDbBlockTableRecord
  2
*D4
340
0
  0
BLOCK_RECORD
  5
B7
330
1
100
AcDbSymbolTableRecord
100
AcDbBlockTableRecord
  2
*D5
340
0
  0
BLOCK_RECORD
  5
C0
330
1
100
AcDbSymbolTableRecord
100
AcDbBlockTableRecord
  2
*D6
340
0
  0
BLOCK_RECORD
  5
C9
330
1
100
AcDbSymbolTableRecord
100
AcDbBlockTableRecord
  2
*D7
340
0
  0
BLOCK_RECORD
  5
D2
330
1
100
AcDbSymbolTableRecord
100
AcDbBlockTableRecord
  2
*D8
340
0
  0
BLOCK_RECORD
  5
DA
330
1
100
AcDbSymbolTableRecord
100
AcDbBlockTableRecord
  2
*D9
340
0
  0
BLOCK_RECORD
  5
E3
330
1
100
AcDbSymbolTableRecord
100
AcDbBlockTableRecord
  2
*D10
340
0
  0
BLOCK_RECORD
  5
EB
330
1
100
AcDbSymbolTableRecord
100
AcDbBlockTableRecord
  2
*D11
340
0
  0
BLOCK_RECORD
  5
F3
330
1
100
AcDbSymbolTableRecord
100
AcDbBlockTableRecord
  2
*D12
340
0
  0
BLOCK_RECORD
  5
FC
330
1
100
AcDbSymbolTableRecord
100
AcDbBlockTableRecord
  2
*D13
340
0
  0
BLOCK_RECORD
  5
101
330
1
100
AcDbSymbolTableRecord
100
AcDbBlockTableRecord
  2
K_GAIKEI_JISB0405V_BL0
340
0
102
{BLKREFS
331
880
102
}
  0
BLOCK_RECORD
  5
12AE
330
1
100
AcDbSymbolTableRecord
100
AcDbBlockTableRecord
  2
*D15
340
0
  0
BLOCK_RECORD
  5
12BB
330
1
100
AcDbSymbolTableRecord
100
AcDbBlockTableRecord
  2
*D16
340
0
  0
BLOCK_RECORD
  5
12C8
330
1
100
AcDbSymbolTableRecord
100
AcDbBlockTableRecord
  2
*D17
340
0
  0
BLOCK_RECORD
  5
12D5
330
1
100
AcDbSymbolTableRecord
100
AcDbBlockTableRecord
  2
*D18
340
0
  0
BLOCK_RECORD
  5
12E2
330
1
100
AcDbSymbolTableRecord
100
AcDbBlockTableRecord
  2
*D19
340
0
  0
BLOCK_RECORD
  5
12EF
330
1
100
AcDbSymbolTableRecord
100
AcDbBlockTableRecord
  2
*D20
340
0
  0
BLOCK_RECORD
  5
12FC
330
1
100
AcDbSymbolTableRecord
100
AcDbBlockTableRecord
  2
*D21
340
0
  0
BLOCK_RECORD
  5
1309
330
1
100
AcDbSymbolTableRecord
100
AcDbBlockTableRecord
  2
*D22
340
0
  0
BLOCK_RECORD
  5
1312
330
1
100
AcDbSymbolTableRecord
100
AcDbBlockTableRecord
  2
*D23
340
0
  0
BLOCK_RECORD
  5
131B
330
1
100
AcDbSymbolTableRecord
100
AcDbBlockTableRecord
  2
*D24
340
0
  0
BLOCK_RECORD
  5
1323
330
1
100
AcDbSymbolTableRecord
100
AcDbBlockTableRecord
  2
*D25
340
0
  0
BLOCK_RECORD
  5
132C
330
1
100
AcDbSymbolTableRecord
100
AcDbBlockTableRecord
  2
*D26
340
0
  0
BLOCK_RECORD
  5
1335
330
1
100
AcDbSymbolTableRecord
100
AcDbBlockTableRecord
  2
*D27
340
0
  0
ENDTAB
  0
ENDSEC
  0
SECTION
  2
BLOCKS
  0
BLOCK
  5
1F
330
1E
100
AcDbEntity
  8
0
100
AcDbBlockBegin
  2
*Model_Space
 70
     0
 10
0.0
 20
0.0
 30
0.0
  3
*Model_Space
  1

  0
ENDBLK
  5
20
330
1E
100
AcDbEntity
  8
0
100
AcDbBlockEnd
  0
BLOCK
  5
1B
330
1A
100
AcDbEntity
 67
     1
  8
0
100
AcDbBlockBegin
  2
*Paper_Space
 70
     0
 10
0.0
 20
0.0
 30
0.0
  3
*Paper_Space
  1

  0
ENDBLK
  5
1C
330
1A
100
AcDbEntity
 67
     1
  8
0
100
AcDbBlockEnd
  0
BLOCK
  5
93
330
92
100
AcDbEntity
  8
1_ALL_DRAFT_DIMS
  6
Continuous
 62
     2
100
AcDbBlockBegin
  2
*D0
 70
     1
 10
0.0
 20
0.0
 30
0.0
  3
*D0
  1

  0
LINE
  5
94
330
92
100
AcDbEntity
  8
1_ALL_DRAFT_DIMS
  6
Continuous
 62
     2
100
AcDbLine
 10
94.88953271680001
 20
151.3943575377
 30
0.0
 11
59.98672074579999
 21
151.3943575377
 31
0.0
  0
LINE
  5
95
330
92
100
AcDbEntity
  8
1_ALL_DRAFT_DIMS
  6
Continuous
 62
     2
100
AcDbLine
 10
141.2169359643999
 20
43.3943575377
 30
0.0
 11
59.98672074579999
 21
43.3943575377
 31
0.0
  0
LINE
  5
96
330
92
100
AcDbEntity
  8
1_ALL_DRAFT_DIMS
  6
Continuous
 62
     2
100
AcDbLine
 10
60.9867207458
 20
151.3943575377
 30
0.0
 11
60.9867207458
 21
97.39435753770001
 31
0.0
  0
LINE
  5
97
330
92
100
AcDbEntity
  8
1_ALL_DRAFT_DIMS
  6
Continuous
 62
     2
100
AcDbLine
 10
60.9867207458
 20
43.3943575377
 30
0.0
 11
60.9867207458
 21
97.39435753770001
 31
0.0
  0
INSERT
  5
99
330
92
100
AcDbEntity
  8
1_ALL_DRAFT_DIMS
  6
Continuous
 62
     2
100
AcDbBlockReference
  2
_OPEN
 10
60.9867207458
 20
151.3943575377
 30
0.0
 41
2.0
 42
2.0
 43
2.0
 50
90.0
  0
INSERT
  5
9A
330
92
100
AcDbEntity
  8
1_ALL_DRAFT_DIMS
  6
Continuous
 62
     2
100
AcDbBlockReference
  2
_OPEN
 10
60.9867207458
 20
43.3943575377
 30
0.0
 41
2.0
 42
2.0
 43
2.0
 50
270.0
  0
ENDBLK
  5
9B
330
92
100
AcDbEntity
  8
0
  6
ByBlock
 62
     0
100
AcDbBlockEnd
  0
BLOCK
  5
852
330
98
100
AcDbEntity
  8
0
100
AcDbBlockBegin
  2
_OPEN
 70
     0
 10
0.0
 20
0.0
 30
0.0
  3
_OPEN
  1

  0
LINE
  5
853
330
98
100
AcDbEntity
  8
0
  6
ByBlock
 62
     0
100
AcDbLine
 10
0.0
 20
0.0
 30
0.0
 11
-1.0
 21
0.3125
 31
0.0
  0
LINE
  5
854
330
98
100
AcDbEntity
  8
0
  6
ByBlock
 62
     0
100
AcDbLine
 10
-1.0
 20
-0.3125
 30
0.0
 11
0.0
 21
0.0
 31
0.0
  0
LINE
  5
855
330
98
100
AcDbEntity
  8
0
  6
ByBlock
 62
     0
100
AcDbLine
 10
-1.0
 20
0.0
 30
0.0
 11
0.0
 21
0.0
 31
0.0
  0
ENDBLK
  5
856
330
98
100
AcDbEntity
  8
0
  6
ByBlock
 62
     0
100
AcDbBlockEnd
  0
BLOCK
  5
9D
330
9C
100
AcDbEntity
  8
1_ALL_DRAFT_DIMS
  6
Continuous
 62
     2
100
AcDbBlockBegin
  2
*D2
 70
     1
 10
0.0
 20
0.0
 30
0.0
  3
*D2
  1

  0
LINE
  5
9E
330
9C
100
AcDbEntity
  8
1_ALL_DRAFT_DIMS
  6
Continuous
 62
     2
100
AcDbLine
 10
94.88953271680001
 20
151.3943575377
 30
0.0
 11
70.34960934049999
 21
151.3943575377
 31
0.0
  0
LINE
  5
9F
330
9C
100
AcDbEntity
  8
1_ALL_DRAFT_DIMS
  6
Continuous
 62
     2
100
AcDbLine
 10
86.0622802487
 20
90.89435753770001
 30
0.0
 11
70.34960934049999
 21
90.89435753770001
 31
0.0
  0
LINE
  5
A0
330
9C
100
AcDbEntity
  8
1_ALL_DRAFT_DIMS
  6
Continuous
 62
     2
100
AcDbLine
 10
71.34960934049998
 20
151.3943575377
 30
0.0
 11
71.34960934049998
 21
121.1443575377
 31
0.0
  0
LINE
  5
A1
330
9C
100
AcDbEntity
  8
1_ALL_DRAFT_DIMS
  6
Continuous
 62
     2
100
AcDbLine
 10
71.34960934049998
 20
90.89435753770001
 30
0.0
 11
71.34960934049998
 21
121.1443575377
 31
0.0
  0
INSERT
  5
A2
330
9C
100
AcDbEntity
  8
1_ALL_DRAFT_DIMS
  6
Continuous
 62
     2
100
AcDbBlockReference
  2
_OPEN
 10
71.34960934049998
 20
151.3943575377
 30
0.0
 41
2.0
 42
2.0
 43
2.0
 50
90.0
  0
INSERT
  5
A3
330
9C
100
AcDbEntity
  8
1_ALL_DRAFT_DIMS
  6
Continuous
 62
     2
100
AcDbBlockReference
  2
_OPEN
 10
71.34960934049998
 20
90.89435753770001
 30
0.0
 41
2.0
 42
2.0
 43
2.0
 50
270.0
  0
ENDBLK
  5
A4
330
9C
100
AcDbEntity
  8
0
  6
ByBlock
 62
     0
100
AcDbBlockEnd
  0
BLOCK
  5
A6
330
A5
100
AcDbEntity
  8
1_ALL_DRAFT_DIMS
  6
Continuous
 62
     2
100
AcDbBlockBegin
  2
*D3
 70
     1
 10
0.0
 20
0.0
 30
0.0
  3
*D3
  1

  0
LINE
  5
A7
330
A5
100
AcDbEntity
  8
1_ALL_DRAFT_DIMS
  6
Continuous
 62
     2
100
AcDbLine
 10
144.7170359643999
 20
258.4515801975999
 30
0.0
 11
236.649912149
 21
258.4515801975999
 31
0.0
  0
LINE
  5
A8
330
A5
100
AcDbEntity
  8
1_ALL_DRAFT_DIMS
  6
Continuous
 62
     2
100
AcDbLine
 10
144.7170359643999
 20
174.9515801975999
 30
0.0
 11
236.649912149
 21
174.9515801975999
 31
0.0
  0
LINE
  5
A9
330
A5
100
AcDbEntity
  8
1_ALL_DRAFT_DIMS
  6
Continuous
 62
     2
100
AcDbLine
 10
235.649912149
 20
258.4515801975999
 30
0.0
 11
235.649912149
 21
216.7015801975999
 31
0.0
  0
LINE
  5
AA
330
A5
100
AcDbEntity
  8
1_ALL_DRAFT_DIMS
  6
Continuous
 62
     2
100
AcDbLine
 10
235.649912149
 20
174.9515801975999
 30
0.0
 11
235.649912149
 21
216.7015801975999
 31
0.0
  0
INSERT
  5
AB
330
A5
100
AcDbEntity
  8
1_ALL_DRAFT_DIMS
  6
Continuous
 62
     2
100
AcDbBlockReference
  2
_OPEN
 10
235.649912149
 20
258.4515801975999
 30
0.0
 41
2.0
 42
2.0
 43
2.0
 50
90.0
  0
INSERT
  5
AC
330
A5
100
AcDbEntity
  8
1_ALL_DRAFT_DIMS
  6
Continuous
 62
     2
100
AcDbBlockReference
  2
_OPEN
 10
235.649912149
 20
174.9515801975999
 30
0.0
 41
2.0
 42
2.0
 43
2.0
 50
270.0
  0
ENDBLK
  5
AD
330
A5
100
AcDbEntity
  8
0
  6
ByBlock
 62
     0
100
AcDbBlockEnd
  0
BLOCK
  5
AF
330
AE
100
AcDbEntity
  8
1_ALL_DRAFT_DIMS
  6
Continuous
 62
     2
100
AcDbBlockBegin
  2
*D4
 70
     1
 10
0.0
 20
0.0
 30
0.0
  3
*D4
  1

  0
LINE
  5
B0
330
AE
100
AcDbEntity
  8
1_ALL_DRAFT_DIMS
  6
Continuous
 62
     2
100
AcDbLine
 10
149.7169359643999
 20
246.7015801975998
 30
0.0
 11
228.8278397208999
 21
246.7015801975998
 31
0.0
  0
LINE
  5
B1
330
AE
100
AcDbEntity
  8
1_ALL_DRAFT_DIMS
  6
Continuous
 62
     2
100
AcDbLine
 10
149.7169359643999
 20
186.7015801975998
 30
0.0
 11
228.8278397208999
 21
186.7015801975998
 31
0.0
  0
LINE
  5
B2
330
AE
100
AcDbEntity
  8
1_ALL_DRAFT_DIMS
  6
Continuous
 62
     2
100
AcDbLine
 10
227.8278397208999
 20
246.7015801975998
 30
0.0
 11
227.8278397208999
 21
216.7015801975999
 31
0.0
  0
LINE
  5
B3
330
AE
100
AcDbEntity
  8
1_ALL_DRAFT_DIMS
  6
Continuous
 62
     2
100
AcDbLine
 10
227.8278397208999
 20
186.7015801975998
 30
0.0
 11
227.8278397208999
 21
216.7015801975999
 31
0.0
  0
INSERT
  5
B4
330
AE
100
AcDbEntity
  8
1_ALL_DRAFT_DIMS
  6
Continuous
 62
     2
100
AcDbBlockReference
  2
_OPEN
 10
227.8278397208999
 20
246.7015801975998
 30
0.0
 41
2.0
 42
2.0
 43
2.0
 50
90.0
  0
INSERT
  5
B5
330
AE
100
AcDbEntity
  8
1_ALL_DRAFT_DIMS
  6
Continuous
 62
     2
100
AcDbBlockReference
  2
_OPEN
 10
227.8278397208999
 20
186.7015801975998
 30
0.0
 41
2.0
 42
2.0
 43
2.0
 50
270.0
  0
ENDBLK
  5
B6
330
AE
100
AcDbEntity
  8
0
  6
ByBlock
 62
     0
100
AcDbBlockEnd
  0
BLOCK
  5
B8
330
B7
100
AcDbEntity
  8
1_ALL_DRAFT_DIMS
  6
Continuous
 62
     2
100
AcDbBlockBegin
  2
*D5
 70
     1
 10
0.0
 20
0.0
 30
0.0
  3
*D5
  1

  0
LINE
  5
B9
330
B7
100
AcDbEntity
  8
1_ALL_DRAFT_DIMS
  6
Continuous
 62
     2
100
AcDbLine
 10
108.1957273647998
 20
241.1578042704999
 30
0.0
 11
66.92301984720001
 21
241.1578042704999
 31
0.0
  0
LINE
  5
BA
330
B7
100
AcDbEntity
  8
1_ALL_DRAFT_DIMS
  6
Continuous
 62
     2
100
AcDbLine
 10
77.1069629568
 20
216.7015801975999
 30
0.0
 11
66.92301984720001
 21
216.7015801975999
 31
0.0
  0
LINE
  5
BB
330
B7
100
AcDbEntity
  8
1_ALL_DRAFT_DIMS
  6
Continuous
 62
     2
100
AcDbLine
 10
67.92301984720001
 20
241.1578042704999
 30
0.0
 11
67.92301984720001
 21
228.9296922341
 31
0.0
  0
LINE
  5
BC
330
B7
100
AcDbEntity
  8
1_ALL_DRAFT_DIMS
  6
Continuous
 62
     2
100
AcDbLine
 10
67.92301984720001
 20
216.7015801975999
 30
0.0
 11
67.92301984720001
 21
228.9296922341
 31
0.0
  0
INSERT
  5
BD
330
B7
100
AcDbEntity
  8
1_ALL_DRAFT_DIMS
  6
Continuous
 62
     2
100
AcDbBlockReference
  2
_OPEN
 10
67.92301984720001
 20
241.1578042704999
 30
0.0
 41
2.0
 42
2.0
 43
2.0
 50
90.0
  0
INSERT
  5
BE
330
B7
100
AcDbEntity
  8
1_ALL_DRAFT_DIMS
  6
Continuous
 62
     2
100
AcDbBlockReference
  2
_OPEN
 10
67.92301984720001
 20
216.7015801975999
 30
0.0
 41
2.0
 42
2.0
 43
2.0
 50
270.0
  0
ENDBLK
  5
BF
330
B7
100
AcDbEntity
  8
0
  6
ByBlock
 62
     0
100
AcDbBlockEnd
  0
BLOCK
  5
C1
330
C0
100
AcDbEntity
  8
1_ALL_DRAFT_DIMS
  6
Continuous
 62
     2
100
AcDbBlockBegin
  2
*D6
 70
     1
 10
0.0
 20
0.0
 30
0.0
  3
*D6
  1

  0
LINE
  5
C2
330
C0
100
AcDbEntity
  8
1_ALL_DRAFT_DIMS
  6
Continuous
 62
     2
100
AcDbLine
 10
141.7169359644
 20
267.9244655668999
 30
0.0
 11
141.7169359644
 21
265.8910537566999
 31
0.0
  0
LINE
  5
C3
330
C0
100
AcDbEntity
  8
1_ALL_DRAFT_DIMS
  6
Continuous
 62
     2
100
AcDbLine
 10
121.1957273647998
 20
254.1578042704999
 30
0.0
 11
121.1957273647998
 21
267.9244655668999
 31
0.0
  0
LINE
  5
C4
330
C0
100
AcDbEntity
  8
1_ALL_DRAFT_DIMS
  6
Continuous
 62
     2
100
AcDbLine
 10
141.7169359644
 20
266.9244655668999
 30
0.0
 11
131.4563316645999
 21
266.9244655668999
 31
0.0
  0
LINE
  5
C5
330
C0
100
AcDbEntity
  8
1_ALL_DRAFT_DIMS
  6
Continuous
 62
     2
100
AcDbLine
 10
121.1957273647998
 20
266.9244655668999
 30
0.0
 11
131.4563316645999
 21
266.9244655668999
 31
0.0
  0
INSERT
  5
C6
330
C0
100
AcDbEntity
  8
1_ALL_DRAFT_DIMS
  6
Continuous
 62
     2
100
AcDbBlockReference
  2
_OPEN
 10
141.7169359644
 20
266.9244655668999
 30
0.0
 41
2.0
 42
2.0
 43
2.0
  0
INSERT
  5
C7
330
C0
100
AcDbEntity
  8
1_ALL_DRAFT_DIMS
  6
Continuous
 62
     2
100
AcDbBlockReference
  2
_OPEN
 10
121.1957273647998
 20
266.9244655668999
 30
0.0
 41
2.0
 42
2.0
 43
2.0
 50
180.0
  0
ENDBLK
  5
C8
330
C0
100
AcDbEntity
  8
0
  6
ByBlock
 62
     0
100
AcDbBlockEnd
  0
BLOCK
  5
CA
330
C9
100
AcDbEntity
  8
1_ALL_DRAFT_DIMS
  6
Continuous
 62
     2
100
AcDbBlockBegin
  2
*D7
 70
     1
 10
0.0
 20
0.0
 30
0.0
  3
*D7
  1

  0
LINE
  5
CB
330
C9
100
AcDbEntity
  8
1_ALL_DRAFT_DIMS
  6
Continuous
 62
     2
100
AcDbLine
 10
99.96693596440001
 20
213.7014801976
 30
0.0
 11
99.96693596440001
 21
207.4584095172
 31
0.0
  0
LINE
  5
CC
330
C9
100
AcDbEntity
  8
1_ALL_DRAFT_DIMS
  6
Continuous
 62
     2
100
AcDbLine
 10
183.4669359643999
 20
213.7014801976
 30
0.0
 11
183.4669359643999
 21
207.4584095172
 31
0.0
  0
LINE
  5
CD
330
C9
100
AcDbEntity
  8
1_ALL_DRAFT_DIMS
  6
Continuous
 62
     2
100
AcDbLine
 10
99.96693596440001
 20
208.4584095172
 30
0.0
 11
141.7169359644
 21
208.4584095172
 31
0.0
  0
LINE
  5
CE
330
C9
100
AcDbEntity
  8
1_ALL_DRAFT_DIMS
  6
Continuous
 62
     2
100
AcDbLine
 10
183.4669359643999
 20
208.4584095172
 30
0.0
 11
141.7169359644
 21
208.4584095172
 31
0.0
  0
INSERT
  5
CF
330
C9
100
AcDbEntity
  8
1_ALL_DRAFT_DIMS
  6
Continuous
 62
     2
100
AcDbBlockReference
  2
_OPEN
 10
99.96693596440001
 20
208.4584095172
 30
0.0
 41
2.0
 42
2.0
 43
2.0
 50
180.0
  0
INSERT
  5
D0
330
C9
100
AcDbEntity
  8
1_ALL_DRAFT_DIMS
  6
Continuous
 62
     2
100
AcDbBlockReference
  2
_OPEN
 10
183.4669359643999
 20
208.4584095172
 30
0.0
 41
2.0
 42
2.0
 43
2.0
  0
ENDBLK
  5
D1
330
C9
100
AcDbEntity
  8
0
  6
ByBlock
 62
     0
100
AcDbBlockEnd
  0
BLOCK
  5
D3
330
D2
100
AcDbEntity
  8
1_ALL_DRAFT_DIMS
  6
Continuous
 62
     2
100
AcDbBlockBegin
  2
*D8
 70
     1
 10
0.0
 20
0.0
 30
0.0
  3
*D8
  1

  0
LINE
  5
D4
330
D2
100
AcDbEntity
  8
1_ALL_DRAFT_DIMS
  6
Continuous
 62
     2
100
AcDbLine
 10
95.69137703450001
 20
172.4312900831999
 30
0.0
 11
141.7169359644
 21
216.7015801975999
 31
0.0
  0
LINE
  5
D5
330
D2
100
AcDbEntity
  8
1_ALL_DRAFT_DIMS
  6
Continuous
 62
     2
100
AcDbLine
 10
141.7169359644
 20
216.7015801975999
 30
0.0
 11
84.7212846795
 21
161.8795622512
 31
0.0
  0
LINE
  5
D6
330
D2
100
AcDbEntity
  8
1_ALL_DRAFT_DIMS
  6
Continuous
 62
     2
100
AcDbLine
 10
187.7424948941999
 20
260.9718703121
 30
0.0
 11
141.7169359644
 21
216.7015801975999
 31
0.0
  0
INSERT
  5
D7
330
D2
100
AcDbEntity
  8
1_ALL_DRAFT_DIMS
  6
Continuous
 62
     2
100
AcDbBlockReference
  2
_OPEN
 10
95.69137703450001
 20
172.4312900831999
 30
0.0
 41
2.0
 42
2.0
 43
2.0
 50
223.8863629999999
  0
INSERT
  5
D8
330
D2
100
AcDbEntity
  8
1_ALL_DRAFT_DIMS
  6
Continuous
 62
     2
100
AcDbBlockReference
  2
_OPEN
 10
187.7424948941999
 20
260.9718703121
 30
0.0
 41
2.0
 42
2.0
 43
2.0
 50
43.886363
  0
ENDBLK
  5
D9
330
D2
100
AcDbEntity
  8
0
  6
ByBlock
 62
     0
100
AcDbBlockEnd
  0
BLOCK
  5
DB
330
DA
100
AcDbEntity
  8
1_ALL_DRAFT_DIMS
  6
Continuous
 62
     2
100
AcDbBlockBegin
  2
*D9
 70
     1
 10
0.0
 20
0.0
 30
0.0
  3
*D9
  1

  0
LINE
  5
DC
330
DA
100
AcDbEntity
  8
1_ALL_DRAFT_DIMS
  6
Continuous
 62
     2
100
AcDbLine
 10
140.0281491213999
 20
185.6301330443
 30
0.0
 11
141.7169359644
 21
186.7015801975998
 31
0.0
  0
LINE
  5
DD
330
DA
100
AcDbEntity
  8
1_ALL_DRAFT_DIMS
  6
Continuous
 62
     2
100
AcDbLine
 10
141.7169359644
 20
186.7015801975998
 30
0.0
 11
122.8039784507999
 21
174.7022952830998
 31
0.0
  0
LINE
  5
DE
330
DA
100
AcDbEntity
  8
1_ALL_DRAFT_DIMS
  6
Continuous
 62
     2
100
AcDbLine
 10
143.4057228074
 20
187.773027351
 30
0.0
 11
141.7169359644
 21
186.7015801975998
 31
0.0
  0
LINE
  5
DF
330
DA
100
AcDbEntity
  8
1_ALL_DRAFT_DIMS
  6
Continuous
 62
     2
100
AcDbLine
 10
141.7169359644
 20
186.7015801975998
 30
0.0
 11
147.6276899122999
 21
190.4516452326998
 31
0.0
  0
INSERT
  5
E0
330
DA
100
AcDbEntity
  8
1_ALL_DRAFT_DIMS
  6
Continuous
 62
     2
100
AcDbBlockReference
  2
_OPEN
 10
140.0281491220999
 20
185.6301330448
 30
0.0
 41
2.0
 42
2.0
 43
2.0
 50
32.393576
  0
INSERT
  5
E1
330
DA
100
AcDbEntity
  8
1_ALL_DRAFT_DIMS
  6
Continuous
 62
     2
100
AcDbBlockReference
  2
_OPEN
 10
143.4057228067
 20
187.7730273505
 30
0.0
 41
2.0
 42
2.0
 43
2.0
 50
212.394174
  0
ENDBLK
  5
E2
330
DA
100
AcDbEntity
  8
0
  6
ByBlock
 62
     0
100
AcDbBlockEnd
  0
BLOCK
  5
E4
330
E3
100
AcDbEntity
  8
1_ALL_DRAFT_DIMS
  6
Continuous
 62
     2
100
AcDbBlockBegin
  2
*D10
 70
     1
 10
0.0
 20
0.0
 30
0.0
  3
*D10
  1

  0
LINE
  5
E5
330
E3
100
AcDbEntity
  8
1_ALL_DRAFT_DIMS
  6
Continuous
 62
     2
100
AcDbLine
 10
186.4737255467
 20
228.3013387396
 30
0.0
 11
182.0443392119998
 21
227.5072753307
 31
0.0
  0
LINE
  5
E6
330
E3
100
AcDbEntity
  8
1_ALL_DRAFT_DIMS
  6
Continuous
 62
     2
100
AcDbLine
 10
182.0443392119998
 20
227.5072753307
 30
0.0
 11
220.048255217
 21
234.3203001636
 31
0.0
  0
LINE
  5
E7
330
E3
100
AcDbEntity
  8
1_ALL_DRAFT_DIMS
  6
Continuous
 62
     2
100
AcDbLine
 10
177.6149528772
 20
226.7132119218
 30
0.0
 11
182.0443392119998
 21
227.5072753307
 31
0.0
  0
INSERT
  5
E8
330
E3
100
AcDbEntity
  8
1_ALL_DRAFT_DIMS
  6
Continuous
 62
     2
100
AcDbBlockReference
  2
_OPEN
 10
186.4737255467
 20
228.3013387396
 30
0.0
 41
2.0
 42
2.0
 43
2.0
 50
10.16354699999999
  0
INSERT
  5
E9
330
E3
100
AcDbEntity
  8
1_ALL_DRAFT_DIMS
  6
Continuous
 62
     2
100
AcDbBlockReference
  2
_OPEN
 10
177.6149528772
 20
226.7132119218
 30
0.0
 41
2.0
 42
2.0
 43
2.0
 50
190.163547
  0
ENDBLK
  5
EA
330
E3
100
AcDbEntity
  8
0
  6
ByBlock
 62
     0
100
AcDbBlockEnd
  0
BLOCK
  5
EC
330
EB
100
AcDbEntity
  8
1_ALL_DRAFT_DIMS
  6
Continuous
 62
     2
100
AcDbBlockBegin
  2
*D11
 70
     1
 10
0.0
 20
0.0
 30
0.0
  3
*D11
  1

  0
LINE
  5
ED
330
EB
100
AcDbEntity
  8
1_ALL_DRAFT_DIMS
  6
Continuous
 62
     2
100
AcDbLine
 10
113.5300850228
 20
247.5794806469
 30
0.0
 11
121.1957273647998
 21
241.1578042704999
 31
0.0
  0
LINE
  5
EE
330
EB
100
AcDbEntity
  8
1_ALL_DRAFT_DIMS
  6
Continuous
 62
     2
100
AcDbLine
 10
121.1957273647998
 20
241.1578042704999
 30
0.0
 11
102.602941255
 21
256.7333881556999
 31
0.0
  0
LINE
  5
EF
330
EB
100
AcDbEntity
  8
1_ALL_DRAFT_DIMS
  6
Continuous
 62
     2
100
AcDbLine
 10
128.8613697069
 20
234.7361278941
 30
0.0
 11
121.1957273647998
 21
241.1578042704999
 31
0.0
  0
INSERT
  5
F0
330
EB
100
AcDbEntity
  8
1_ALL_DRAFT_DIMS
  6
Continuous
 62
     2
100
AcDbBlockReference
  2
_OPEN
 10
113.5300850228
 20
247.5794806469
 30
0.0
 41
2.0
 42
2.0
 43
2.0
 50
140.046355
  0
INSERT
  5
F1
330
EB
100
AcDbEntity
  8
1_ALL_DRAFT_DIMS
  6
Continuous
 62
     2
100
AcDbBlockReference
  2
_OPEN
 10
128.8613697069
 20
234.7361278941
 30
0.0
 41
2.0
 42
2.0
 43
2.0
 50
320.046355
  0
ENDBLK
  5
F2
330
EB
100
AcDbEntity
  8
0
  6
ByBlock
 62
     0
100
AcDbBlockEnd
  0
BLOCK
  5
F4
330
F3
100
AcDbEntity
  8
1_ALL_DRAFT_DIMS
  6
Continuous
 62
     2
100
AcDbBlockBegin
  2
*D12
 70
     1
 10
0.0
 20
0.0
 30
0.0
  3
*D12
  1

  0
LINE
  5
F5
330
F3
100
AcDbEntity
  8
1_ALL_DRAFT_DIMS
  6
Continuous
 62
     2
100
AcDbLine
 10
185.8459423143994
 20
215.9332516281
 30
0.0
 11
183.4669359643999
 21
216.7015801975999
 31
0.0
  0
LINE
  5
F6
330
F3
100
AcDbEntity
  8
1_ALL_DRAFT_DIMS
  6
Continuous
 62
     2
100
AcDbLine
 10
183.4669359643999
 20
216.7015801975999
 30
0.0
 11
218.5502405423
 21
205.3710071534
 31
0.0
  0
LINE
  5
F7
330
F3
100
AcDbEntity
  8
1_ALL_DRAFT_DIMS
  6
Continuous
 62
     2
100
AcDbLine
 10
181.0879296143999
 20
217.4699087672
 30
0.0
 11
183.4669359643999
 21
216.7015801975999
 31
0.0
  0
LINE
  5
F8
330
F3
100
AcDbEntity
  8
1_ALL_DRAFT_DIMS
  6
Continuous
 62
     2
100
AcDbLine
 10
183.4669359643999
 20
216.7015801975999
 30
0.0
 11
176.3299169166999
 21
219.0065659055
 31
0.0
  0
INSERT
  5
F9
330
F3
100
AcDbEntity
  8
1_ALL_DRAFT_DIMS
  6
Continuous
 62
     2
100
AcDbBlockReference
  2
_OPEN
 10
185.8459423136
 20
215.9332516284
 30
0.0
 41
2.0
 42
2.0
 43
2.0
 50
162.1002349999999
  0
INSERT
  5
FA
330
F3
100
AcDbEntity
  8
1_ALL_DRAFT_DIMS
  6
Continuous
 62
     2
100
AcDbBlockReference
  2
_OPEN
 10
181.0879296152
 20
217.4699087668999
 30
0.0
 41
2.0
 42
2.0
 43
2.0
 50
342.100235
  0
ENDBLK
  5
FB
330
F3
100
AcDbEntity
  8
0
  6
ByBlock
 62
     0
100
AcDbBlockEnd
  0
BLOCK
  5
FD
330
FC
100
AcDbEntity
  8
0
  6
Continuous
 62
     2
100
AcDbBlockBegin
  2
*D13
 70
     1
 10
0.0
 20
0.0
 30
0.0
  3
*D13
  1

  0
LINE
  5
FE
330
FC
100
AcDbEntity
  8
0
  6
Continuous
 62
     2
100
AcDbLine
 10
179.5456076009
 20
62.1673388582
 30
0.0
 11
201.7894902395999
 21
45.2753782256
 31
0.0
  0
INSERT
  5
FF
330
FC
100
AcDbEntity
  8
0
  6
Continuous
 62
     2
100
AcDbBlockReference
  2
_OPEN
 10
179.5456076009
 20
62.1673388582
 30
0.0
 41
2.0
 42
2.0
 43
2.0
 50
142.787035
  0
ENDBLK
  5
100
330
FC
100
AcDbEntity
  8
0
  6
ByBlock
 62
     0
100
AcDbBlockEnd
  0
BLOCK
  5
102
330
101
100
AcDbEntity
  8
3_ALL_SYMBOLS
  6
Continuous
 62
     2
100
AcDbBlockBegin
  2
K_GAIKEI_JISB0405V_BL0
 70
     0
 10
389.219538161
 20
62.7283231881
 30
0.0
  3
K_GAIKEI_JISB0405V_BL0
  1

  0
LINE
  5
103
330
101
100
AcDbEntity
  8
3_ALL_SYMBOLS
  6
Continuous
 62
     2
100
AcDbLine
 10
375.6751831055
 20
75.3987680054
 30
0.0
 11
376.2376867676
 21
75.3987680054
 31
0.0
  0
LWPOLYLINE
  5
104
330
101
100
AcDbEntity
  8
3_ALL_SYMBOLS
  6
Continuous
 62
     2
100
AcDbPolyline
 90
        4
 70
     0
 43
0.0
 10
375.9876708983998
 20
75.8362701416
 10
375.9876708983998
 20
74.0862680054
 10
375.9251733398
 20
74.0237704468
 10
375.6751831055
 20
74.0862680054
  0
LWPOLYLINE
  5
10A
330
101
100
AcDbEntity
  8
3_ALL_SYMBOLS
  6
Continuous
 62
     2
100
AcDbPolyline
 90
        3
 70
     0
 43
0.0
 10
375.6126855469
 20
74.6487652588
 10
375.9876708983998
 20
74.89876831050001
 10
376.2376867676
 20
75.08626739499998
  0
LWPOLYLINE
  5
10F
330
101
100
AcDbEntity
  8
3_ALL_SYMBOLS
  6
Continuous
 62
     2
100
AcDbPolyline
 90
        6
 70
     0
 43
0.0
 10
376.4251794433998
 20
75.8362701416
 10
376.4251794433998
 20
75.14876495359999
 10
376.4876770019998
 20
75.08626739499998
 10
377.2376733398
 20
75.08626739499998
 10
377.3626684569998
 20
75.14876495359999
 10
377.3626684569998
 20
75.3362704468
  0
LINE
  5
117
330
101
100
AcDbEntity
  8
3_ALL_SYMBOLS
  6
Continuous
 62
     2
100
AcDbLine
 10
376.4251794433998
 20
75.5237695312
 30
0.0
 11
377.3001708983998
 21
75.71126861569999
 31
0.0
  0
LWPOLYLINE
  5
118
330
101
100
AcDbEntity
  8
3_ALL_SYMBOLS
  6
Continuous
 62
     2
100
AcDbPolyline
 90
        5
 70
     0
 43
0.0
 10
376.4251794433998
 20
74.83627075200002
 10
376.4251794433998
 20
74.0862680054
 10
377.3001708983998
 20
74.0862680054
 10
377.3001708983998
 20
74.83627075200002
 10
376.4251794433998
 20
74.83627075200002
  0
LINE
  5
11F
330
101
100
AcDbEntity
  8
3_ALL_SYMBOLS
  6
Continuous
 62
     2
100
AcDbLine
 10
376.4251794433998
 20
74.4612661743
 30
0.0
 11
377.3001708983998
 21
74.4612661743
 31
0.0
  0
LWPOLYLINE
  5
120
330
101
100
AcDbEntity
  8
3_ALL_SYMBOLS
  6
Continuous
 62
     2
100
AcDbPolyline
 90
        6
 70
     0
 43
0.0
 10
377.6751818848
 20
75.27376647949998
 10
377.6751818848
 20
75.64876464840001
 10
379.3001696776999
 20
75.64876464840001
 10
379.3626672362999
 20
75.64876464840001
 10
379.4251647948998
 20
75.58626708979999
 10
379.3626672362999
 20
75.27376647949998
  0
LINE
  5
128
330
101
100
AcDbEntity
  8
3_ALL_SYMBOLS
  6
Continuous
 62
     2
100
AcDbLine
 10
378.5501733398
 20
75.64876464840001
 30
0.0
 11
378.5501733398
 21
75.8362701416
 31
0.0
  0
LINE
  5
129
330
101
100
AcDbEntity
  8
3_ALL_SYMBOLS
  6
Continuous
 62
     2
100
AcDbLine
 10
377.9251721191
 20
75.27376647949998
 30
0.0
 11
379.1751745605
 21
75.27376647949998
 31
0.0
  0
LINE
  5
12A
330
101
100
AcDbEntity
  8
3_ALL_SYMBOLS
  6
Continuous
 62
     2
100
AcDbLine
 10
378.5501733398
 20
75.27376647949998
 30
0.0
 11
378.5501733398
 21
74.0862680054
 31
0.0
  0
LINE
  5
12B
330
101
100
AcDbEntity
  8
3_ALL_SYMBOLS
  6
Continuous
 62
     2
100
AcDbLine
 10
378.5501733398
 20
74.7112692261
 30
0.0
 11
379.3001696776999
 21
74.7112692261
 31
0.0
  0
LWPOLYLINE
  5
12C
330
101
100
AcDbEntity
  8
3_ALL_SYMBOLS
  6
Continuous
 62
     2
100
AcDbPolyline
 90
        4
 70
     0
 43
0.0
 10
378.0501672362999
 20
74.9612658691
 10
377.9251721191
 20
74.58626770020001
 10
377.8001770019999
 20
74.27376708979998
 10
377.6126843262
 20
74.0237704468
  0
LWPOLYLINE
  5
132
330
101
100
AcDbEntity
  8
3_ALL_SYMBOLS
  6
Continuous
 62
     2
100
AcDbPolyline
 90
        5
 70
     0
 43
0.0
 10
377.9251721191
 20
74.58626770020001
 10
378.1126647948998
 20
74.3362646484
 10
378.3001831055
 20
74.148765564
 10
378.5501733398
 20
74.0862680054
 10
379.4251647948998
 20
74.0237704468
  0
LINE
  5
139
330
101
100
AcDbEntity
  8
3_ALL_SYMBOLS
  6
Continuous
 62
     2
100
AcDbLine
 10
379.8001757812999
 20
75.8362701416
 30
0.0
 11
379.8001757812999
 21
74.3362646484
 31
0.0
  0
LINE
  5
13A
330
101
100
AcDbEntity
  8
3_ALL_SYMBOLS
  6
Continuous
 62
     2
100
AcDbLine
 10
379.6126831055
 20
74.148765564
 30
0.0
 11
380.6751672362999
 21
74.7737667847
 31
0.0
  0
LINE
  5
13B
330
101
100
AcDbEntity
  8
3_ALL_SYMBOLS
  6
Continuous
 62
     2
100
AcDbLine
 10
379.8001757812999
 20
74.3362646484
 30
0.0
 11
379.8001757812999
 21
74.27376708979998
 31
0.0
  0
LINE
  5
13C
330
101
100
AcDbEntity
  8
3_ALL_SYMBOLS
  6
Continuous
 62
     2
100
AcDbLine
 10
380.1126635741999
 20
75.77376617430001
 30
0.0
 11
380.6751672362999
 21
75.08626739499998
 31
0.0
  0
LWPOLYLINE
  5
13D
330
101
100
AcDbEntity
  8
3_ALL_SYMBOLS
  6
Continuous
 62
     2
100
AcDbPolyline
 90
        7
 70
     0
 43
0.0
 10
379.987668457
 20
74.0237704468
 10
380.4251770019998
 20
74.148765564
 10
380.7376647948998
 20
74.27376708979998
 10
380.9251831055
 20
74.4612661743
 10
381.0501782226999
 20
74.7112692261
 10
381.1751733398
 20
75.14876495359999
 10
381.1751733398
 20
75.8362701416
  0
LINE
  5
146
330
101
100
AcDbEntity
  8
3_ALL_SYMBOLS
  6
Continuous
 62
     2
100
AcDbLine
 10
381.0501782226999
 20
74.7112692261
 30
0.0
 11
381.4251635741999
 21
74.0237704468
 31
0.0
  0
LWPOLYLINE
  5
147
330
101
100
AcDbEntity
  8
3_ALL_SYMBOLS
  6
Continuous
 62
     2
100
AcDbPolyline
 90
        9
 70
     0
 43
0.0
 10
381.6126818848
 20
74.89876831050001
 10
381.9251696776999
 20
75.58626708979999
 10
381.9251696776999
 20
75.8362701416
 10
382.4876733398
 20
75.8362701416
 10
382.6126684569998
 20
75.71126861569999
 10
382.5501708983998
 20
75.27376647949998
 10
382.3001806641
 20
74.7737667847
 10
381.9876672362998
 20
74.3362646484
 10
381.6126818848
 20
74.0237704468
  0
LINE
  5
152
330
101
100
AcDbEntity
  8
3_ALL_SYMBOLS
  6
Continuous
 62
     2
100
AcDbLine
 10
381.8001745605
 20
75.21126892089998
 30
0.0
 11
382.3626782226999
 21
74.89876831050001
 31
0.0
  0
LINE
  5
153
330
101
100
AcDbEntity
  8
3_ALL_SYMBOLS
  6
Continuous
 62
     2
100
AcDbLine
 10
382.9251818848
 20
75.8362701416
 30
0.0
 11
382.9251818848
 21
74.0237704468
 31
0.0
  0
LINE
  5
154
330
101
100
AcDbEntity
  8
3_ALL_SYMBOLS
  6
Continuous
 62
     2
100
AcDbLine
 10
382.9251818848
 20
75.08626739499998
 30
0.0
 11
383.4251879883
 21
74.83627075200002
 31
0.0
  0
LWPOLYLINE
  5
155
330
101
100
AcDbEntity
  8
3_ALL_SYMBOLS
  6
Continuous
 62
     2
100
AcDbPolyline
 90
       23
 70
     0
 43
0.0
 10
384.6126672362998
 20
75.64876464840001
 10
384.5501696776999
 20
75.08626739499998
 10
384.4251745605
 20
74.52377014159998
 10
384.3001794433999
 20
74.2112695312
 10
384.1751843262
 20
74.0862680054
 10
384.0501635742
 20
74.0862680054
 10
383.8626708984
 20
74.2112695312
 10
383.8001733398
 20
74.4612661743
 10
383.7376757812999
 20
74.7112692261
 10
383.7376757812999
 20
75.02376983640001
 10
383.8626708984
 20
75.3987680054
 10
384.1751843262
 20
75.64876464840001
 10
384.6126672362998
 20
75.64876464840001
 10
384.9251806641
 20
75.58626708979999
 10
385.1751708984
 20
75.461265564
 10
385.3626635742
 20
75.21126892089998
 10
385.4251867676
 20
74.9612658691
 10
385.4251867676
 20
74.6487652588
 10
385.3626635742
 20
74.4612661743
 10
385.2376684569998
 20
74.27376708979998
 10
385.0501757812999
 20
74.148765564
 10
384.8626831055
 20
74.0862680054
 10
384.6126672362998
 20
74.0237704468
  0
LINE
  5
16E
330
101
100
AcDbEntity
  8
3_ALL_SYMBOLS
  6
Continuous
 62
     2
100
AcDbLine
 10
385.6126794433998
 20
75.3987680054
 30
0.0
 11
387.3626879883
 21
75.3987680054
 31
0.0
  0
LWPOLYLINE
  5
16F
330
101
100
AcDbEntity
  8
3_ALL_SYMBOLS
  6
Continuous
 62
     2
100
AcDbPolyline
 90
        4
 70
     0
 43
0.0
 10
386.9251794433998
 20
75.77376617430001
 10
386.9251794433998
 20
74.148765564
 10
386.8001843262
 20
74.0237704468
 10
386.2376806641
 20
74.148765564
  0
LINE
  5
175
330
101
100
AcDbEntity
  8
3_ALL_SYMBOLS
  6
Continuous
 62
     2
100
AcDbLine
 10
386.0501879883
 20
75.08626739499998
 30
0.0
 11
386.4251733398
 21
74.58626770020001
 31
0.0
  0
LINE
  5
176
330
101
100
AcDbEntity
  8
3_ALL_SYMBOLS
  6
Continuous
 62
     2
100
AcDbLine
 10
387.7376733398
 20
75.77376617430001
 30
0.0
 11
388.0501867676
 21
75.461265564
 31
0.0
  0
LINE
  5
177
330
101
100
AcDbEntity
  8
3_ALL_SYMBOLS
  6
Continuous
 62
     2
100
AcDbLine
 10
387.6126782226999
 20
75.3362704468
 30
0.0
 11
387.9251660156
 21
75.02376983640001
 31
0.0
  0
LWPOLYLINE
  5
178
330
101
100
AcDbEntity
  8
3_ALL_SYMBOLS
  6
Continuous
 62
     2
100
AcDbPolyline
 90
        3
 70
     0
 43
0.0
 10
387.6126782226999
 20
74.0862680054
 10
387.8626684569998
 20
74.39876861569999
 10
388.0501867676
 20
74.7737667847
  0
LWPOLYLINE
  5
17D
330
101
100
AcDbEntity
  8
3_ALL_SYMBOLS
  6
Continuous
 62
     2
100
AcDbPolyline
 90
        3
 70
     0
 43
0.0
 10
388.2376794433998
 20
75.5237695312
 10
389.3001635741999
 20
75.5237695312
 10
389.3626867676
 20
75.5237695312
  0
LINE
  5
182
330
101
100
AcDbEntity
  8
3_ALL_SYMBOLS
  6
Continuous
 62
     2
100
AcDbLine
 10
388.8001831055
 20
75.8362701416
 30
0.0
 11
388.8001831055
 21
74.9612658691
 31
0.0
  0
LINE
  5
183
330
101
100
AcDbEntity
  8
3_ALL_SYMBOLS
  6
Continuous
 62
     2
100
AcDbLine
 10
388.1751818848
 20
74.9612658691
 30
0.0
 11
389.4251843262
 21
74.9612658691
 31
0.0
  0
LINE
  5
184
330
101
100
AcDbEntity
  8
3_ALL_SYMBOLS
  6
Continuous
 62
     2
100
AcDbLine
 10
388.8001831055
 20
74.9612658691
 30
0.0
 11
388.3626745604999
 21
74.0862680054
 31
0.0
  0
LINE
  5
185
330
101
100
AcDbEntity
  8
3_ALL_SYMBOLS
  6
Continuous
 62
     2
100
AcDbLine
 10
388.1751818848
 20
74.0237704468
 30
0.0
 11
389.3001635741999
 21
74.27376708979998
 31
0.0
  0
LINE
  5
186
330
101
100
AcDbEntity
  8
3_ALL_SYMBOLS
  6
Continuous
 62
     2
100
AcDbLine
 10
389.0501733398
 20
74.6487652588
 30
0.0
 11
389.4251843262
 21
74.0237704468
 31
0.0
  0
LWPOLYLINE
  5
187
330
101
100
AcDbEntity
  8
3_ALL_SYMBOLS
  6
Continuous
 62
     2
100
AcDbPolyline
 90
        3
 70
     0
 43
0.0
 10
389.8001696776999
 20
75.8362701416
 10
389.7376721191
 20
74.83627075200002
 10
389.8001696776999
 20
74.0237704468
  0
LWPOLYLINE
  5
18C
330
101
100
AcDbEntity
  8
3_ALL_SYMBOLS
  6
Continuous
 62
     2
100
AcDbPolyline
 90
        4
 70
     0
 43
0.0
 10
390.1126831055
 20
75.58626708979999
 10
390.7376843262
 20
75.58626708979999
 10
391.1751672362999
 20
75.5237695312
 10
390.8001818848
 20
75.14876495359999
  0
LWPOLYLINE
  5
192
330
101
100
AcDbEntity
  8
3_ALL_SYMBOLS
  6
Continuous
 62
     2
100
AcDbPolyline
 90
        8
 70
     0
 43
0.0
 10
390.2376782226999
 20
74.7112692261
 10
390.1126831055
 20
74.52377014159998
 10
390.0501855469
 20
74.39876861569999
 10
390.0501855469
 20
74.27376708979998
 10
390.1126831055
 20
74.2112695312
 10
390.5501660155999
 20
74.148765564
 10
390.9876745605
 20
74.148765564
 10
391.3626855469
 20
74.2112695312
  0
LWPOLYLINE
  5
19C
330
101
100
AcDbEntity
  8
3_ALL_SYMBOLS
  6
Continuous
 62
     2
100
AcDbPolyline
 90
        3
 70
     0
 43
0.0
 10
391.6751733398
 20
75.5237695312
 10
392.4876672362998
 20
75.5237695312
 10
392.5501647948999
 20
75.5237695312
  0
LINE
  5
1A1
330
101
100
AcDbEntity
  8
3_ALL_SYMBOLS
  6
Continuous
 62
     2
100
AcDbLine
 10
392.1126818848
 20
75.5237695312
 30
0.0
 11
392.1126818848
 21
75.8362701416
 31
0.0
  0
LWPOLYLINE
  5
1A2
330
101
100
AcDbEntity
  8
3_ALL_SYMBOLS
  6
Continuous
 62
     2
100
AcDbPolyline
 90
        5
 70
     0
 43
0.0
 10
392.3626721191
 20
75.5237695312
 10
392.2376770019998
 20
75.08626739499998
 10
392.1126818848
 20
74.7112692261
 10
391.9251635742
 20
74.39876861569999
 10
391.6126757812999
 20
74.0237704468
  0
LINE
  5
1A9
330
101
100
AcDbEntity
  8
3_ALL_SYMBOLS
  6
Continuous
 62
     2
100
AcDbLine
 10
391.7376708983998
 20
75.3362704468
 30
0.0
 11
392.4251696776999
 21
74.2112695312
 31
0.0
  0
LINE
  5
1AA
330
101
100
AcDbEntity
  8
3_ALL_SYMBOLS
  6
Continuous
 62
     2
100
AcDbLine
 10
392.6126879883
 20
75.3987680054
 30
0.0
 11
393.4251818848
 21
75.3987680054
 31
0.0
  0
LWPOLYLINE
  5
1AB
330
101
100
AcDbEntity
  8
3_ALL_SYMBOLS
  6
Continuous
 62
     2
100
AcDbPolyline
 90
        5
 70
     0
 43
0.0
 10
393.1751660155999
 20
75.8362701416
 10
393.1751660155999
 20
74.0862680054
 10
393.112668457
 20
74.0237704468
 10
393.0501708983998
 20
74.0237704468
 10
392.6751855469
 20
74.148765564
  0
LINE
  5
1B2
330
101
100
AcDbEntity
  8
3_ALL_SYMBOLS
  6
Continuous
 62
     2
100
AcDbLine
 10
392.6126879883
 20
75.14876495359999
 30
0.0
 11
392.9251757812999
 21
74.52377014159998
 31
0.0
  0
LINE
  5
1B3
330
101
100
AcDbEntity
  8
3_ALL_SYMBOLS
  6
Continuous
 62
     2
100
AcDbLine
 10
393.6751721191
 20
75.5237695312
 30
0.0
 11
395.4251806641
 21
75.5237695312
 31
0.0
  0
LWPOLYLINE
  5
1B4
330
101
100
AcDbEntity
  8
3_ALL_SYMBOLS
  6
Continuous
 62
     2
100
AcDbPolyline
 90
       17
 70
     0
 43
0.0
 10
394.9876721191
 20
75.8362701416
 10
394.9876721191
 20
74.7737667847
 10
394.9251745605
 20
74.6487652588
 10
394.8001794433999
 20
74.52377014159998
 10
394.5501635741999
 20
74.4612661743
 10
394.3001733398
 20
74.4612661743
 10
394.1126806641
 20
74.52377014159998
 10
393.9876855469
 20
74.6487652588
 10
393.9251879883
 20
74.7737667847
 10
393.9251879883
 20
74.89876831050001
 10
393.9876855469
 20
75.08626739499998
 10
394.1126806641
 20
75.21126892089998
 10
394.3001733398
 20
75.27376647949998
 10
394.6126867675999
 20
75.27376647949998
 10
394.8001794433999
 20
75.21126892089998
 10
394.9251745605
 20
75.08626739499998
 10
394.9876721191
 20
74.9612658691
  0
LWPOLYLINE
  5
1C7
330
101
100
AcDbEntity
  8
3_ALL_SYMBOLS
  6
Continuous
 62
     2
100
AcDbPolyline
 90
        6
 70
     0
 43
0.0
 10
394.9876721191
 20
74.7737667847
 10
394.9876721191
 20
74.52377014159998
 10
394.9251745605
 20
74.3362646484
 10
394.8001794433999
 20
74.2112695312
 10
394.6126867675999
 20
74.0862680054
 10
394.2376757812999
 20
74.0237704468
  0
LWPOLYLINE
  5
1CF
330
101
100
AcDbEntity
  8
3_ALL_SYMBOLS
  6
Continuous
 62
     2
100
AcDbPolyline
 90
       25
 70
     0
 43
0.0
 10
395.9251867676
 20
75.64876464840001
 10
397.0501684569999
 20
75.64876464840001
 10
395.7376684569998
 20
74.7112692261
 10
396.4251672362999
 20
75.08626739499998
 10
396.8001782226999
 20
75.14876495359999
 10
397.1126660156
 20
75.14876495359999
 10
397.3001843262
 20
75.08626739499998
 10
397.4251794433998
 20
74.89876831050001
 10
397.4251794433998
 20
74.7112692261
 10
397.4251794433998
 20
74.6487652588
 10
397.3626818848
 20
74.52377014159998
 10
397.2376867676
 20
74.3362646484
 10
397.0501684569999
 20
74.2112695312
 10
396.8001782226999
 20
74.148765564
 10
396.4876647948999
 20
74.148765564
 10
396.2376745605
 20
74.2112695312
 10
396.0501818848
 20
74.3362646484
 10
395.9876843262
 20
74.39876861569999
 10
395.9876843262
 20
74.4612661743
 10
396.0501818848
 20
74.52377014159998
 10
396.1751770019998
 20
74.58626770020001
 10
396.3626696776998
 20
74.58626770020001
 10
396.5501879883
 20
74.52377014159998
 10
396.6751831055
 20
74.39876861569999
 10
396.8001782226999
 20
74.148765564
  0
LINE
  5
1EA
330
101
100
AcDbEntity
  8
3_ALL_SYMBOLS
  6
Continuous
 62
     2
100
AcDbLine
 10
397.6126721191
 20
75.3987680054
 30
0.0
 11
399.3626806641
 21
75.3987680054
 31
0.0
  0
LWPOLYLINE
  5
1EB
330
101
100
AcDbEntity
  8
3_ALL_SYMBOLS
  6
Continuous
 62
     2
100
AcDbPolyline
 90
        4
 70
     0
 43
0.0
 10
398.9251721191
 20
75.77376617430001
 10
398.9251721191
 20
74.148765564
 10
398.8001770019998
 20
74.0237704468
 10
398.2376733398
 20
74.148765564
  0
LINE
  5
1F1
330
101
100
AcDbEntity
  8
3_ALL_SYMBOLS
  6
Continuous
 62
     2
100
AcDbLine
 10
398.0501806641
 20
75.08626739499998
 30
0.0
 11
398.4251660155999
 21
74.58626770020001
 31
0.0
  0
LINE
  5
1F2
330
101
100
AcDbEntity
  8
3_ALL_SYMBOLS
  6
Continuous
 62
     2
100
AcDbLine
 10
399.7376660156
 20
75.77376617430001
 30
0.0
 11
400.0501794433999
 21
75.461265564
 31
0.0
  0
LINE
  5
1F3
330
101
100
AcDbEntity
  8
3_ALL_SYMBOLS
  6
Continuous
 62
     2
100
AcDbLine
 10
399.6126708983998
 20
75.3362704468
 30
0.0
 11
399.9251843262
 21
75.02376983640001
 31
0.0
  0
LWPOLYLINE
  5
1F4
330
101
100
AcDbEntity
  8
3_ALL_SYMBOLS
  6
Continuous
 62
     2
100
AcDbPolyline
 90
        3
 70
     0
 43
0.0
 10
399.6126708983998
 20
74.0862680054
 10
399.8626867676
 20
74.39876861569999
 10
400.0501794433999
 20
74.7737667847
  0
LWPOLYLINE
  5
1F9
330
101
100
AcDbEntity
  8
3_ALL_SYMBOLS
  6
Continuous
 62
     2
100
AcDbPolyline
 90
        3
 70
     0
 43
0.0
 10
400.2376721191
 20
75.5237695312
 10
401.3001818848001
 20
75.5237695312
 10
401.3626794433998
 20
75.5237695312
  0
LINE
  5
1FE
330
101
100
AcDbEntity
  8
3_ALL_SYMBOLS
  6
Continuous
 62
     2
100
AcDbLine
 10
400.8001757813
 20
75.8362701416
 30
0.0
 11
400.8001757813
 21
74.9612658691
 31
0.0
  0
LINE
  5
1FF
330
101
100
AcDbEntity
  8
3_ALL_SYMBOLS
  6
Continuous
 62
     2
100
AcDbLine
 10
400.1751745605
 20
74.9612658691
 30
0.0
 11
401.4251770019998
 21
74.9612658691
 31
0.0
  0
LINE
  5
200
330
101
100
AcDbEntity
  8
3_ALL_SYMBOLS
  6
Continuous
 62
     2
100
AcDbLine
 10
400.8001757813
 20
74.9612658691
 30
0.0
 11
400.3626672362998
 21
74.0862680054
 31
0.0
  0
LINE
  5
201
330
101
100
AcDbEntity
  8
3_ALL_SYMBOLS
  6
Continuous
 62
     2
100
AcDbLine
 10
400.1751745605
 20
74.0237704468
 30
0.0
 11
401.3001818848001
 21
74.27376708979998
 31
0.0
  0
LINE
  5
202
330
101
100
AcDbEntity
  8
3_ALL_SYMBOLS
  6
Continuous
 62
     2
100
AcDbLine
 10
401.0501660155999
 20
74.6487652588
 30
0.0
 11
401.4251770019998
 21
74.0237704468
 31
0.0
  0
LINE
  5
203
330
101
100
AcDbEntity
  8
3_ALL_SYMBOLS
  6
Continuous
 62
     2
100
AcDbLine
 10
401.8001879883
 20
75.21126892089998
 30
0.0
 11
403.2376831055
 21
75.21126892089998
 31
0.0
  0
LINE
  5
204
330
101
100
AcDbEntity
  8
3_ALL_SYMBOLS
  6
Continuous
 62
     2
100
AcDbLine
 10
401.6751672362999
 20
74.89876831050001
 30
0.0
 11
403.3626782226999
 21
74.89876831050001
 31
0.0
  0
LINE
  5
205
330
101
100
AcDbEntity
  8
3_ALL_SYMBOLS
  6
Continuous
 62
     2
100
AcDbLine
 10
402.5501843262
 20
75.5237695312
 30
0.0
 11
402.5501843262
 21
74.89876831050001
 31
0.0
  0
LINE
  5
206
330
101
100
AcDbEntity
  8
3_ALL_SYMBOLS
  6
Continuous
 62
     2
100
AcDbLine
 10
403.0501647948999
 20
75.8362701416
 30
0.0
 11
402.8626721191
 21
75.5237695312
 31
0.0
  0
LINE
  5
207
330
101
100
AcDbEntity
  8
3_ALL_SYMBOLS
  6
Continuous
 62
     2
100
AcDbLine
 10
402.2376708983999
 20
75.5237695312
 30
0.0
 11
402.0501782226999
 21
75.8362701416
 31
0.0
  0
LINE
  5
208
330
101
100
AcDbEntity
  8
3_ALL_SYMBOLS
  6
Continuous
 62
     2
100
AcDbLine
 10
401.7376647948998
 20
75.5237695312
 30
0.0
 11
403.3001806641
 21
75.5237695312
 31
0.0
  0
LINE
  5
209
330
101
100
AcDbEntity
  8
3_ALL_SYMBOLS
  6
Continuous
 62
     2
100
AcDbLine
 10
402.2376708983999
 20
74.89876831050001
 30
0.0
 11
401.6126696776998
 21
74.0237704468
 31
0.0
  0
LINE
  5
20A
330
101
100
AcDbEntity
  8
3_ALL_SYMBOLS
  6
Continuous
 62
     2
100
AcDbLine
 10
402.3001684569996
 20
74.6487652588
 30
0.0
 11
403.3001806641
 21
74.6487652588
 31
0.0
  0
LINE
  5
20B
330
101
100
AcDbEntity
  8
3_ALL_SYMBOLS
  6
Continuous
 62
     2
100
AcDbLine
 10
402.8001745605
 20
74.6487652588
 30
0.0
 11
402.8001745605
 21
74.0862680054
 31
0.0
  0
LINE
  5
20C
330
101
100
AcDbEntity
  8
3_ALL_SYMBOLS
  6
Continuous
 62
     2
100
AcDbLine
 10
402.0501782226999
 20
74.0862680054
 30
0.0
 11
403.4251757813
 21
74.0862680054
 31
0.0
  0
LWPOLYLINE
  5
20D
330
101
100
AcDbEntity
  8
3_ALL_SYMBOLS
  6
Continuous
 62
     2
100
AcDbPolyline
 90
       10
 70
     0
 43
0.0
 10
373.7376818848
 20
72.836265564
 10
373.5501635742
 20
72.7112704468
 10
373.4251684569998
 20
72.58626892089998
 10
373.3001733398
 20
72.39876983640001
 10
373.2376757812999
 20
72.0862692261
 10
373.2376757812999
 20
71.77376861569999
 10
373.3001733398
 20
71.4612680054
 10
373.4251684569998
 20
71.2737689209
 10
373.5501635742
 20
71.14876739499995
 10
373.7376818848
 20
71.02376586910001
  0
LWPOLYLINE
  5
219
330
101
100
AcDbEntity
  8
3_ALL_SYMBOLS
  6
Continuous
 62
     2
100
AcDbPolyline
 90
       11
 70
     0
 43
0.0
 10
376.0501684569998
 20
72.836265564
 10
376.0501684569998
 20
71.5862695312
 10
375.9876708983998
 20
71.33626647949999
 10
375.9251733398
 20
71.21126495359999
 10
375.8001782226999
 20
71.0862698364
 10
375.6751831055
 20
71.02376586910001
 10
375.3626696776998
 20
71.02376586910001
 10
375.1751770019998
 20
71.0862698364
 10
375.0501818848
 20
71.21126495359999
 10
374.9876843262
 20
71.33626647949999
 10
374.9251867676
 20
71.523765564
  0
LINE
  5
226
330
101
100
AcDbEntity
  8
3_ALL_SYMBOLS
  6
Continuous
 62
     2
100
AcDbLine
 10
377.5501867676
 20
72.836265564
 30
0.0
 11
377.5501867676
 21
71.02376586910001
 31
0.0
  0
LINE
  5
227
330
101
100
AcDbEntity
  8
3_ALL_SYMBOLS
  6
Continuous
 62
     2
100
AcDbLine
 10
377.3626684569998
 20
71.02376586910001
 30
0.0
 11
377.7376794433998
 21
71.02376586910001
 31
0.0
  0
LINE
  5
228
330
101
100
AcDbEntity
  8
3_ALL_SYMBOLS
  6
Continuous
 62
     2
100
AcDbLine
 10
377.3626684569998
 20
72.836265564
 30
0.0
 11
377.7376794433998
 21
72.836265564
 31
0.0
  0
LWPOLYLINE
  5
229
330
101
100
AcDbEntity
  8
3_ALL_SYMBOLS
  6
Continuous
 62
     2
100
AcDbPolyline
 90
       22
 70
     0
 43
0.0
 10
380.2376843262
 20
72.46126739499998
 10
380.1126635741999
 20
72.6487664795
 10
379.9251708983998
 20
72.7737680054
 10
379.6751806641
 20
72.836265564
 10
379.3626672362999
 20
72.836265564
 10
379.0501794433998
 20
72.7737680054
 10
378.9251843262
 20
72.6487664795
 10
378.8626867676
 20
72.46126739499998
 10
378.8626867676
 20
72.2737683105
 10
379.0501794433998
 20
72.0862692261
 10
379.2376721191
 20
72.0237652588
 10
379.8001757812999
 20
71.8987701416
 10
380.1126635741999
 20
71.77376861569999
 10
380.2376843262
 20
71.5862695312
 10
380.2376843262
 20
71.33626647949999
 10
380.1751867675997
 20
71.21126495359999
 10
380.0501660155999
 20
71.0862698364
 10
379.7376782226999
 20
71.02376586910001
 10
379.4251647948998
 20
71.02376586910001
 10
379.1126770019999
 20
71.0862698364
 10
378.9251843262
 20
71.21126495359999
 10
378.8001635741999
 20
71.3987704468
  0
LWPOLYLINE
  5
241
330
101
100
AcDbEntity
  8
3_ALL_SYMBOLS
  6
Continuous
 62
     2
100
AcDbPolyline
 90
       11
 70
     0
 43
0.0
 10
382.9251818848
 20
72.836265564
 10
382.9251818848
 20
71.0862698364
 10
383.9251684569995
 20
71.0862698364
 10
384.1126867675999
 20
71.14876739499995
 10
384.2376818848
 20
71.2737689209
 10
384.3001794433999
 20
71.4612680054
 10
384.3001794433999
 20
71.5862695312
 10
384.2376818848
 20
71.77376861569999
 10
384.1126867675999
 20
71.8987701416
 10
383.9251684569995
 20
71.96126770020001
 10
382.9251818848
 20
71.96126770020001
  0
LWPOLYLINE
  5
24E
330
101
100
AcDbEntity
  8
3_ALL_SYMBOLS
  6
Continuous
 62
     2
100
AcDbPolyline
 90
        9
 70
     0
 43
0.0
 10
382.9251818848
 20
72.836265564
 10
383.9251684569995
 20
72.836265564
 10
384.1126867675999
 20
72.7737680054
 10
384.2376818848
 20
72.6487664795
 10
384.3001794433999
 20
72.46126739499998
 10
384.3001794433999
 20
72.3362658691
 10
384.2376818848
 20
72.1487667847
 10
384.1126867675999
 20
72.0237652588
 10
383.9251684569995
 20
71.96126770020001
  0
LWPOLYLINE
  5
259
330
101
100
AcDbEntity
  8
3_ALL_SYMBOLS
  6
Continuous
 62
     2
100
AcDbPolyline
 90
       25
 70
     0
 43
0.0
 10
387.6126782226999
 20
72.836265564
 10
387.4251855469
 20
72.836265564
 10
387.2376672362999
 20
72.7737680054
 10
387.1126721191
 20
72.7112704468
 10
386.9876770019999
 20
72.58626892089998
 10
386.8626818848
 20
72.39876983640001
 10
386.8001843262
 20
72.0862692261
 10
386.8001843262
 20
71.77376861569999
 10
386.8626818848
 20
71.4612680054
 10
386.9876770019999
 20
71.2737689209
 10
387.1126721191
 20
71.14876739499995
 10
387.2376672362999
 20
71.0862698364
 10
387.4251855469
 20
71.02376586910001
 10
387.6126782226999
 20
71.02376586910001
 10
387.8001708983998
 20
71.0862698364
 10
387.9251660156
 20
71.14876739499995
 10
388.0501867676
 20
71.2737689209
 10
388.1751818848
 20
71.4612680054
 10
388.2376794433998
 20
71.77376861569999
 10
388.2376794433998
 20
72.0862692261
 10
388.1751818848
 20
72.39876983640001
 10
388.0501867676
 20
72.58626892089998
 10
387.9251660156
 20
72.7112704468
 10
387.8001708983998
 20
72.7737680054
 10
387.6126782226999
 20
72.836265564
  0
LWPOLYLINE
  5
274
330
101
100
AcDbEntity
  8
3_ALL_SYMBOLS
  6
Continuous
 62
     2
100
AcDbPolyline
 90
        4
 70
     0
 43
0.0
 10
389.9251647948998
 20
71.02376586910001
 10
389.9251647948998
 20
72.836265564
 10
388.7376855469
 20
71.4612680054
 10
390.2376782226999
 20
71.4612680054
  0
LWPOLYLINE
  5
27A
330
101
100
AcDbEntity
  8
3_ALL_SYMBOLS
  6
Continuous
 62
     2
100
AcDbPolyline
 90
       25
 70
     0
 43
0.0
 10
391.6126757812999
 20
72.836265564
 10
391.4251831055
 20
72.836265564
 10
391.2376647948999
 20
72.7737680054
 10
391.1126696776999
 20
72.7112704468
 10
390.9876745605
 20
72.58626892089998
 10
390.8626794433999
 20
72.39876983640001
 10
390.8001818848
 20
72.0862692261
 10
390.8001818848
 20
71.77376861569999
 10
390.8626794433999
 20
71.4612680054
 10
390.9876745605
 20
71.2737689209
 10
391.1126696776999
 20
71.14876739499995
 10
391.2376647948999
 20
71.0862698364
 10
391.4251831055
 20
71.02376586910001
 10
391.6126757812999
 20
71.02376586910001
 10
391.800168457
 20
71.0862698364
 10
391.9251635742
 20
71.14876739499995
 10
392.0501843262
 20
71.2737689209
 10
392.1751794433999
 20
71.4612680054
 10
392.2376770019998
 20
71.77376861569999
 10
392.2376770019998
 20
72.0862692261
 10
392.1751794433999
 20
72.39876983640001
 10
392.0501843262
 20
72.58626892089998
 10
391.9251635742
 20
72.7112704468
 10
391.800168457
 20
72.7737680054
 10
391.6126757812999
 20
72.836265564
  0
LINE
  5
295
330
101
100
AcDbEntity
  8
3_ALL_SYMBOLS
  6
Continuous
 62
     2
100
AcDbLine
 10
392.8001806641
 20
72.836265564
 30
0.0
 11
394.2376757812999
 21
72.836265564
 31
0.0
  0
LWPOLYLINE
  5
296
330
101
100
AcDbEntity
  8
3_ALL_SYMBOLS
  6
Continuous
 62
     2
100
AcDbPolyline
 90
       19
 70
     0
 43
0.0
 10
392.8001806641
 20
72.836265564
 10
392.8001806641
 20
71.96126770020001
 10
392.9876733398
 20
72.0862692261
 10
393.112668457
 20
72.1487667847
 10
393.3626843262
 20
72.211270752
 10
393.6126745605
 20
72.211270752
 10
393.8626647948998
 20
72.1487667847
 10
394.0501831055
 20
72.0237652588
 10
394.1751782226999
 20
71.8987701416
 10
394.2376757812999
 20
71.77376861569999
 10
394.2376757812999
 20
71.523765564
 10
394.1751782226999
 20
71.33626647949999
 10
394.0501831055
 20
71.21126495359999
 10
393.8626647948998
 20
71.0862698364
 10
393.6126745605
 20
71.02376586910001
 10
393.3626843262
 20
71.02376586910001
 10
393.1751660155999
 20
71.0862698364
 10
392.9251757812999
 20
71.21126495359999
 10
392.8001806641
 20
71.33626647949999
  0
LWPOLYLINE
  5
2AB
330
101
100
AcDbEntity
  8
3_ALL_SYMBOLS
  6
Continuous
 62
     2
100
AcDbPolyline
 90
        3
 70
     0
 43
0.0
 10
396.8001782226999
 20
72.836265564
 10
397.4876770019998
 20
71.02376586910001
 10
398.2376733398
 20
72.836265564
  0
LINE
  5
2B0
330
101
100
AcDbEntity
  8
3_ALL_SYMBOLS
  6
Continuous
 62
     2
100
AcDbLine
 10
398.9876696776999
 20
72.836265564
 30
0.0
 11
398.8001770019998
 21
72.46126739499998
 31
0.0
  0
LINE
  5
2B1
330
101
100
AcDbEntity
  8
3_ALL_SYMBOLS
  6
Continuous
 62
     2
100
AcDbLine
 10
398.6751818848
 20
72.58626892089998
 30
0.0
 11
398.9251721191
 21
72.211270752
 31
0.0
  0
LINE
  5
2B2
330
101
100
AcDbEntity
  8
3_ALL_SYMBOLS
  6
Continuous
 62
     2
100
AcDbLine
 10
399.2376855469
 20
72.6487664795
 30
0.0
 11
398.7376794433998
 21
71.8987701416
 31
0.0
  0
LINE
  5
2B3
330
101
100
AcDbEntity
  8
3_ALL_SYMBOLS
  6
Continuous
 62
     2
100
AcDbLine
 10
398.6126843262
 20
71.8987701416
 30
0.0
 11
399.1751879883
 21
71.96126770020001
 31
0.0
  0
LINE
  5
2B4
330
101
100
AcDbEntity
  8
3_ALL_SYMBOLS
  6
Continuous
 62
     2
100
AcDbLine
 10
399.1751879883
 20
72.1487667847
 30
0.0
 11
399.3001831055
 21
71.8362661743
 31
0.0
  0
LINE
  5
2B5
330
101
100
AcDbEntity
  8
3_ALL_SYMBOLS
  6
Continuous
 62
     2
100
AcDbLine
 10
399.1751879883
 20
71.96126770020001
 30
0.0
 11
399.2376855469
 21
71.96126770020001
 31
0.0
  0
LINE
  5
2B6
330
101
100
AcDbEntity
  8
3_ALL_SYMBOLS
  6
Continuous
 62
     2
100
AcDbLine
 10
398.9876696776999
 20
71.8987701416
 30
0.0
 11
398.9876696776999
 21
71.02376586910001
 31
0.0
  0
LINE
  5
2B7
330
101
100
AcDbEntity
  8
3_ALL_SYMBOLS
  6
Continuous
 62
     2
100
AcDbLine
 10
398.6126843262
 20
71.0862698364
 30
0.0
 11
398.8001770019998
 21
71.7112646484
 31
0.0
  0
LINE
  5
2B8
330
101
100
AcDbEntity
  8
3_ALL_SYMBOLS
  6
Continuous
 62
     2
100
AcDbLine
 10
399.1751879883
 20
71.77376861569999
 30
0.0
 11
399.2376855469
 21
71.4612680054
 31
0.0
  0
LWPOLYLINE
  5
2B9
330
101
100
AcDbEntity
  8
3_ALL_SYMBOLS
  6
Continuous
 62
     2
100
AcDbPolyline
 90
        5
 70
     0
 43
0.0
 10
399.1126647948999
 20
71.0862698364
 10
399.3626806641
 20
71.4612680054
 10
399.5501733398
 20
71.8362661743
 10
399.675168457
 20
72.3362658691
 10
399.675168457
 20
72.7737680054
  0
LWPOLYLINE
  5
2C0
330
101
100
AcDbEntity
  8
3_ALL_SYMBOLS
  6
Continuous
 62
     2
100
AcDbPolyline
 90
        9
 70
     0
 43
0.0
 10
399.3626806641
 20
72.7737680054
 10
400.1751745605
 20
72.7737680054
 10
400.0501794433999
 20
72.2737683105
 10
400.3001696776999
 20
72.2737683105
 10
400.3626672362998
 20
72.211270752
 10
400.3001696776999
 20
71.8987701416
 10
400.0501794433999
 20
71.523765564
 10
399.7376660156
 20
71.21126495359999
 10
399.4251782226999
 20
71.02376586910001
  0
LWPOLYLINE
  5
2CB
330
101
100
AcDbEntity
  8
3_ALL_SYMBOLS
  6
Continuous
 62
     2
100
AcDbPolyline
 90
        5
 70
     0
 43
0.0
 10
399.675168457
 20
72.3362658691
 10
399.8001635741999
 20
71.8987701416
 10
399.9876818848
 20
71.4612680054
 10
400.1751745605
 20
71.21126495359999
 10
400.4251647948999
 20
71.02376586910001
  0
LINE
  5
2D2
330
101
100
AcDbEntity
  8
3_ALL_SYMBOLS
  6
Continuous
 62
     2
100
AcDbLine
 10
400.6751806641
 20
72.7737680054
 30
0.0
 11
400.987668457
 21
72.5237649536
 31
0.0
  0
LINE
  5
2D3
330
101
100
AcDbEntity
  8
3_ALL_SYMBOLS
  6
Continuous
 62
     2
100
AcDbLine
 10
400.6126831055
 20
72.39876983640001
 30
0.0
 11
400.9251708984
 21
72.1487667847
 31
0.0
  0
LWPOLYLINE
  5
2D4
330
101
100
AcDbEntity
  8
3_ALL_SYMBOLS
  6
Continuous
 62
     2
100
AcDbPolyline
 90
        3
 70
     0
 43
0.0
 10
400.6126831055
 20
71.5862695312
 10
400.9251708984
 20
71.8362661743
 10
401.1126635742
 20
72.0862692261
  0
LWPOLYLINE
  5
2D9
330
101
100
AcDbEntity
  8
3_ALL_SYMBOLS
  6
Continuous
 62
     2
100
AcDbPolyline
 90
        3
 70
     0
 43
0.0
 10
400.987668457
 20
72.3362658691
 10
401.3001818848001
 20
72.58626892089998
 10
401.4251770019998
 20
72.836265564
  0
LWPOLYLINE
  5
2DE
330
101
100
AcDbEntity
  8
3_ALL_SYMBOLS
  6
Continuous
 62
     2
100
AcDbPolyline
 90
        3
 70
     0
 43
0.0
 10
401.3001818848001
 20
72.58626892089998
 10
401.3001818848001
 20
71.64876708979999
 10
402.3626660156
 20
71.64876708979999
  0
LINE
  5
2E3
330
101
100
AcDbEntity
  8
3_ALL_SYMBOLS
  6
Continuous
 62
     2
100
AcDbLine
 10
401.3001818848001
 20
71.96126770020001
 30
0.0
 11
402.3001684569996
 21
71.96126770020001
 31
0.0
  0
LINE
  5
2E4
330
101
100
AcDbEntity
  8
3_ALL_SYMBOLS
  6
Continuous
 62
     2
100
AcDbLine
 10
401.3001818848001
 20
72.2737683105
 30
0.0
 11
402.3001684569996
 21
72.2737683105
 31
0.0
  0
LINE
  5
2E5
330
101
100
AcDbEntity
  8
3_ALL_SYMBOLS
  6
Continuous
 62
     2
100
AcDbLine
 10
401.3001818848001
 20
72.58626892089998
 30
0.0
 11
402.3626660156
 21
72.58626892089998
 31
0.0
  0
LINE
  5
2E6
330
101
100
AcDbEntity
  8
3_ALL_SYMBOLS
  6
Continuous
 62
     2
100
AcDbLine
 10
401.8001879883
 20
72.58626892089998
 30
0.0
 11
401.8001879883
 21
71.64876708979999
 31
0.0
  0
LINE
  5
2E7
330
101
100
AcDbEntity
  8
3_ALL_SYMBOLS
  6
Continuous
 62
     2
100
AcDbLine
 10
401.8001879883
 20
72.58626892089998
 30
0.0
 11
401.9251831055
 21
72.836265564
 31
0.0
  0
LINE
  5
2E8
330
101
100
AcDbEntity
  8
3_ALL_SYMBOLS
  6
Continuous
 62
     2
100
AcDbLine
 10
400.6126831055
 20
71.3987704468
 30
0.0
 11
402.4251635741999
 21
71.3987704468
 31
0.0
  0
LINE
  5
2E9
330
101
100
AcDbEntity
  8
3_ALL_SYMBOLS
  6
Continuous
 62
     2
100
AcDbLine
 10
401.4876745605
 20
71.64876708979999
 30
0.0
 11
401.4876745605
 21
71.02376586910001
 31
0.0
  0
LWPOLYLINE
  5
2EA
330
101
100
AcDbEntity
  8
3_ALL_SYMBOLS
  6
Continuous
 62
     2
100
AcDbPolyline
 90
        5
 70
     0
 43
0.0
 10
402.8626721191
 20
72.836265564
 10
402.8626721191
 20
71.0862698364
 10
402.8001745605
 20
71.02376586910001
 10
402.7376770019999
 20
71.02376586910001
 10
402.6126818848
 20
71.0862698364
  0
LINE
  5
2F1
330
101
100
AcDbEntity
  8
3_ALL_SYMBOLS
  6
Continuous
 62
     2
100
AcDbLine
 10
402.6126818848
 20
71.5862695312
 30
0.0
 11
403.0501647948999
 21
71.8987701416
 31
0.0
  0
LINE
  5
2F2
330
101
100
AcDbEntity
  8
3_ALL_SYMBOLS
  6
Continuous
 62
     2
100
AcDbLine
 10
402.6126818848
 20
72.39876983640001
 30
0.0
 11
403.0501647948999
 21
72.39876983640001
 31
0.0
  0
LWPOLYLINE
  5
2F3
330
101
100
AcDbEntity
  8
3_ALL_SYMBOLS
  6
Continuous
 62
     2
100
AcDbPolyline
 90
       10
 70
     0
 43
0.0
 10
403.0501647948999
 20
72.0237652588
 10
403.1751855469
 20
72.2737683105
 10
403.2376831055
 20
72.5237649536
 10
403.2376831055
 20
72.7737680054
 10
403.5501708983998
 20
72.7737680054
 10
403.5501708983998
 20
72.3362658691
 10
403.4876733398
 20
71.96126770020001
 10
403.3626782226999
 20
71.5862695312
 10
403.1751855469
 20
71.21126495359999
 10
403.0501647948999
 20
71.02376586910001
  0
LWPOLYLINE
  5
2FF
330
101
100
AcDbEntity
  8
3_ALL_SYMBOLS
  6
Continuous
 62
     2
100
AcDbPolyline
 90
        7
 70
     0
 43
0.0
 10
403.2376831055
 20
72.5237649536
 10
403.2376831055
 20
72.0862692261
 10
403.3626782226999
 20
71.5862695312
 10
403.4876733398
 20
71.33626647949999
 10
403.6751660155998
 20
71.21126495359999
 10
403.9876794433999
 20
71.0862698364
 10
404.4251879883
 20
71.02376586910001
  0
LWPOLYLINE
  5
308
330
101
100
AcDbEntity
  8
3_ALL_SYMBOLS
  6
Continuous
 62
     2
100
AcDbPolyline
 90
       11
 70
     0
 43
0.0
 10
403.612668457
 20
71.4612680054
 10
403.7376635741999
 20
71.7112646484
 10
403.8001867675999
 20
72.0237652588
 10
403.8001867675999
 20
72.7737680054
 10
404.1126745605
 20
72.7737680054
 10
404.1126745605
 20
71.64876708979999
 10
404.1126745605
 20
71.523765564
 10
404.1751721190999
 20
71.4612680054
 10
404.3626647948999
 20
71.4612680054
 10
404.4251879883
 20
71.523765564
 10
404.4251879883
 20
71.8987701416
  0
LWPOLYLINE
  5
315
330
101
100
AcDbEntity
  8
3_ALL_SYMBOLS
  6
Continuous
 62
     2
100
AcDbPolyline
 90
       10
 70
     0
 43
0.0
 10
405.2376818848
 20
72.836265564
 10
405.4251745604998
 20
72.7112704468
 10
405.5501696776999
 20
72.58626892089998
 10
405.6751647948998
 20
72.39876983640001
 10
405.7376879882998
 20
72.0862692261
 10
405.7376879882998
 20
71.77376861569999
 10
405.6751647948998
 20
71.4612680054
 10
405.5501696776999
 20
71.2737689209
 10
405.4251745604998
 20
71.14876739499995
 10
405.2376818848
 20
71.02376586910001
  0
LWPOLYLINE
  5
321
330
101
100
AcDbEntity
  8
3_ALL_SYMBOLS
  6
Continuous
 62
     2
100
AcDbPolyline
 90
        5
 70
     0
 43
0.0
 10
380.6751672362999
 20
69.77376983640001
 10
380.6751672362999
 20
68.3987658691
 10
381.0501782226999
 20
68.3987658691
 10
381.0501782226999
 20
69.77376983640001
 10
380.6751672362999
 20
69.77376983640001
  0
LWPOLYLINE
  5
328
330
101
100
AcDbEntity
  8
3_ALL_SYMBOLS
  6
Continuous
 62
     2
100
AcDbPolyline
 90
        3
 70
     0
 43
0.0
 10
381.300168457
 20
69.77376983640001
 10
381.8626721191
 20
69.77376983640001
 10
382.3001806641
 20
69.836267395
  0
LWPOLYLINE
  5
32D
330
101
100
AcDbEntity
  8
3_ALL_SYMBOLS
  6
Continuous
 62
     2
100
AcDbPolyline
 90
        5
 70
     0
 43
0.0
 10
381.8626721191
 20
69.77376983640001
 10
381.8626721191
 20
68.0862652588
 10
381.8001745605
 20
68.02376770020001
 10
381.7376770019998
 20
68.02376770020001
 10
381.3626660155999
 20
68.2112667847
  0
LINE
  5
334
330
101
100
AcDbEntity
  8
3_ALL_SYMBOLS
  6
Continuous
 62
     2
100
AcDbLine
 10
381.300168457
 20
68.71126647949998
 30
0.0
 11
382.4251757812999
 21
68.71126647949998
 31
0.0
  0
LINE
  5
335
330
101
100
AcDbEntity
  8
3_ALL_SYMBOLS
  6
Continuous
 62
     2
100
AcDbLine
 10
381.3626660155999
 20
69.5237667847
 30
0.0
 11
381.5501843262
 21
68.898765564
 31
0.0
  0
LINE
  5
336
330
101
100
AcDbEntity
  8
3_ALL_SYMBOLS
  6
Continuous
 62
     2
100
AcDbLine
 10
382.1126879883
 20
68.898765564
 30
0.0
 11
382.3626782226999
 21
69.5237667847
 31
0.0
  0
LWPOLYLINE
  5
337
330
101
100
AcDbEntity
  8
3_ALL_SYMBOLS
  6
Continuous
 62
     2
100
AcDbPolyline
 90
       21
 70
     0
 43
0.0
 10
382.6126684569998
 20
69.6487683105
 10
383.4251879883
 20
69.77376983640001
 10
383.0501770019998
 20
69.39876525879999
 10
382.9876794433999
 20
69.33626770020001
 10
382.8626843262
 20
69.14876861569999
 10
382.8001867675999
 20
69.02376708979999
 10
382.7376635742
 20
68.7737704468
 10
382.7376635742
 20
68.52376739499999
 10
382.8001867675999
 20
68.33626831050001
 10
382.8626843262
 20
68.2112667847
 10
382.9876794433999
 20
68.0862652588
 10
383.1751721191
 20
68.02376770020001
 10
383.4251879883
 20
68.02376770020001
 10
383.5501831055
 20
68.0862652588
 10
383.6751782226999
 20
68.2112667847
 10
383.8001733398
 20
68.3987658691
 10
383.8626708984
 20
68.58626495359999
 10
383.9251684569995
 20
68.8362680054
 10
383.9251684569995
 20
69.08626464840001
 10
383.8626708984
 20
69.586270752
 10
384.4251745605
 20
68.898765564
  0
LINE
  5
34E
330
101
100
AcDbEntity
  8
3_ALL_SYMBOLS
  6
Continuous
 62
     2
100
AcDbLine
 10
384.2376818848
 20
69.836267395
 30
0.0
 11
384.4251745605
 21
69.6487683105
 31
0.0
  0
LINE
  5
34F
330
101
100
AcDbEntity
  8
3_ALL_SYMBOLS
  6
Continuous
 62
     2
100
AcDbLine
 10
384.1126867675999
 20
69.77376983640001
 30
0.0
 11
384.3001794433999
 21
69.586270752
 31
0.0
  0
LINE
  5
350
330
101
100
AcDbEntity
  8
3_ALL_SYMBOLS
  6
Continuous
 62
     2
100
AcDbLine
 10
384.6126672362998
 20
69.39876525879999
 30
0.0
 11
386.3626757812999
 21
69.39876525879999
 31
0.0
  0
LWPOLYLINE
  5
351
330
101
100
AcDbEntity
  8
3_ALL_SYMBOLS
  6
Continuous
 62
     2
100
AcDbPolyline
 90
        4
 70
     0
 43
0.0
 10
385.9251672362999
 20
69.77376983640001
 10
385.9251672362999
 20
68.1487692261
 10
385.8001721191
 20
68.02376770020001
 10
385.2376684569998
 20
68.1487692261
  0
LINE
  5
357
330
101
100
AcDbEntity
  8
3_ALL_SYMBOLS
  6
Continuous
 62
     2
100
AcDbLine
 10
385.0501757812999
 20
69.08626464840001
 30
0.0
 11
385.4251867676
 21
68.58626495359999
 31
0.0
  0
LINE
  5
358
330
101
100
AcDbEntity
  8
3_ALL_SYMBOLS
  6
Continuous
 62
     2
100
AcDbLine
 10
386.7376867676
 20
69.77376983640001
 30
0.0
 11
387.0501745605
 21
69.4612692261
 31
0.0
  0
LINE
  5
359
330
101
100
AcDbEntity
  8
3_ALL_SYMBOLS
  6
Continuous
 62
     2
100
AcDbLine
 10
386.6126660156
 20
69.33626770020001
 30
0.0
 11
386.9251794433998
 21
69.02376708979999
 31
0.0
  0
LWPOLYLINE
  5
35A
330
101
100
AcDbEntity
  8
3_ALL_SYMBOLS
  6
Continuous
 62
     2
100
AcDbPolyline
 90
        3
 70
     0
 43
0.0
 10
386.6126660156
 20
68.0862652588
 10
386.8626818848
 20
68.3987658691
 10
387.0501745605
 20
68.7737704468
  0
LWPOLYLINE
  5
35F
330
101
100
AcDbEntity
  8
3_ALL_SYMBOLS
  6
Continuous
 62
     2
100
AcDbPolyline
 90
        3
 70
     0
 43
0.0
 10
387.2376672362999
 20
69.5237667847
 10
388.3001770019999
 20
69.5237667847
 10
388.3626745604999
 20
69.5237667847
  0
LINE
  5
364
330
101
100
AcDbEntity
  8
3_ALL_SYMBOLS
  6
Continuous
 62
     2
100
AcDbLine
 10
387.8001708983998
 20
69.836267395
 30
0.0
 11
387.8001708983998
 21
68.9612695312
 31
0.0
  0
LINE
  5
365
330
101
100
AcDbEntity
  8
3_ALL_SYMBOLS
  6
Continuous
 62
     2
100
AcDbLine
 10
387.1751696776998
 20
68.9612695312
 30
0.0
 11
388.4251721191
 21
68.9612695312
 31
0.0
  0
LINE
  5
366
330
101
100
AcDbEntity
  8
3_ALL_SYMBOLS
  6
Continuous
 62
     2
100
AcDbLine
 10
387.8001708983998
 20
68.9612695312
 30
0.0
 11
387.3626879883
 21
68.0862652588
 31
0.0
  0
LINE
  5
367
330
101
100
AcDbEntity
  8
3_ALL_SYMBOLS
  6
Continuous
 62
     2
100
AcDbLine
 10
387.1751696776998
 20
68.02376770020001
 30
0.0
 11
388.3001770019999
 21
68.27377075200001
 31
0.0
  0
LINE
  5
368
330
101
100
AcDbEntity
  8
3_ALL_SYMBOLS
  6
Continuous
 62
     2
100
AcDbLine
 10
388.0501867676
 20
68.64876892089999
 30
0.0
 11
388.4251721191
 21
68.02376770020001
 31
0.0
  0
LINE
  5
369
330
101
100
AcDbEntity
  8
3_ALL_SYMBOLS
  6
Continuous
 62
     2
100
AcDbLine
 10
401.8626855468999
 20
69.2737701416
 30
0.0
 11
401.6126696776998
 21
69.02376708979999
 31
0.0
  0
LINE
  5
36A
330
101
100
AcDbEntity
  8
3_ALL_SYMBOLS
  6
Continuous
 62
     2
100
AcDbLine
 10
401.8626855468999
 20
69.2737701416
 30
0.0
 11
402.0501782226999
 21
69.6487683105
 31
0.0
  0
LWPOLYLINE
  5
36B
330
101
100
AcDbEntity
  8
3_ALL_SYMBOLS
  6
Continuous
 62
     2
100
AcDbPolyline
 90
        5
 70
     0
 43
0.0
 10
402.1126757812996
 20
69.836267395
 10
402.8626721191
 20
69.836267395
 10
402.9251696777
 20
69.77376983640001
 10
403.1751855469
 20
69.33626770020001
 10
403.4251757813
 20
68.9612695312
  0
LINE
  5
372
330
101
100
AcDbEntity
  8
3_ALL_SYMBOLS
  6
Continuous
 62
     2
100
AcDbLine
 10
402.4251635741999
 20
69.21126617430001
 30
0.0
 11
401.8626855468999
 21
68.1487692261
 31
0.0
  0
LINE
  5
373
330
101
100
AcDbEntity
  8
3_ALL_SYMBOLS
  6
Continuous
 62
     2
100
AcDbLine
 10
401.6126696776998
 20
68.1487692261
 30
0.0
 11
403.1751855469
 21
68.27377075200001
 31
0.0
  0
LINE
  5
374
330
101
100
AcDbEntity
  8
3_ALL_SYMBOLS
  6
Continuous
 62
     2
100
AcDbLine
 10
402.8001745605
 20
68.898765564
 30
0.0
 11
403.4251757813
 21
68.02376770020001
 31
0.0
  0
LINE
  5
375
330
101
100
AcDbEntity
  8
3_ALL_SYMBOLS
  6
Continuous
 62
     2
100
AcDbLine
 10
403.8001867675999
 20
69.21126617430001
 30
0.0
 11
405.2376818848
 21
69.21126617430001
 31
0.0
  0
LINE
  5
376
330
101
100
AcDbEntity
  8
3_ALL_SYMBOLS
  6
Continuous
 62
     2
100
AcDbLine
 10
403.6751660155998
 20
68.898765564
 30
0.0
 11
405.3626770019999
 21
68.898765564
 31
0.0
  0
LINE
  5
377
330
101
100
AcDbEntity
  8
3_ALL_SYMBOLS
  6
Continuous
 62
     2
100
AcDbLine
 10
404.5501831055
 20
69.5237667847
 30
0.0
 11
404.5501831055
 21
68.898765564
 31
0.0
  0
LINE
  5
378
330
101
100
AcDbEntity
  8
3_ALL_SYMBOLS
  6
Continuous
 62
     2
100
AcDbLine
 10
405.0501635742
 20
69.836267395
 30
0.0
 11
404.8626708984
 21
69.5237667847
 31
0.0
  0
LINE
  5
379
330
101
100
AcDbEntity
  8
3_ALL_SYMBOLS
  6
Continuous
 62
     2
100
AcDbLine
 10
404.2376696776998
 20
69.5237667847
 30
0.0
 11
404.0501770019998
 21
69.836267395
 31
0.0
  0
LINE
  5
37A
330
101
100
AcDbEntity
  8
3_ALL_SYMBOLS
  6
Continuous
 62
     2
100
AcDbLine
 10
403.7376635741999
 20
69.5237667847
 30
0.0
 11
405.3001794433998
 21
69.5237667847
 31
0.0
  0
LINE
  5
37B
330
101
100
AcDbEntity
  8
3_ALL_SYMBOLS
  6
Continuous
 62
     2
100
AcDbLine
 10
404.2376696776998
 20
68.898765564
 30
0.0
 11
403.612668457
 21
68.02376770020001
 31
0.0
  0
LINE
  5
37C
330
101
100
AcDbEntity
  8
3_ALL_SYMBOLS
  6
Continuous
 62
     2
100
AcDbLine
 10
404.3001672362999
 20
68.64876892089999
 30
0.0
 11
405.3001794433998
 21
68.64876892089999
 31
0.0
  0
LINE
  5
37D
330
101
100
AcDbEntity
  8
3_ALL_SYMBOLS
  6
Continuous
 62
     2
100
AcDbLine
 10
404.8001733398
 20
68.64876892089999
 30
0.0
 11
404.8001733398
 21
68.0862652588
 31
0.0
  0
LINE
  5
37E
330
101
100
AcDbEntity
  8
3_ALL_SYMBOLS
  6
Continuous
 62
     2
100
AcDbLine
 10
404.0501770019998
 20
68.0862652588
 30
0.0
 11
405.4251745604998
 21
68.0862652588
 31
0.0
  0
LWPOLYLINE
  5
37F
330
101
100
AcDbEntity
  8
3_ALL_SYMBOLS
  6
Continuous
 62
     2
100
AcDbPolyline
 90
       30
 70
     0
 43
0.0
 10
392.2376770019998
 20
66.4612646484
 10
392.1126818848
 20
66.6487701416
 10
391.9251635742
 20
66.77376525879999
 10
391.6751733398
 20
66.8362692261
 10
391.4876806641
 20
66.8362692261
 10
391.2376647948999
 20
66.77376525879999
 10
391.0501721191
 20
66.6487701416
 10
390.9251770019999
 20
66.4612646484
 10
390.8001818848
 20
66.0862664795
 10
390.8001818848
 20
65.7112683105
 10
390.8626794433999
 20
65.4612652588
 10
390.9251770019999
 20
65.3362701416
 10
391.0501721191
 20
65.21126861569999
 10
391.2376647948999
 20
65.08626708979999
 10
391.4251831055
 20
65.0237695312
 10
391.6751733398
 20
65.0237695312
 10
391.9251635742
 20
65.08626708979999
 10
392.0501843262
 20
65.1487646484
 10
392.1751794433999
 20
65.3362701416
 10
392.2376770019998
 20
65.5237692261
 10
392.2376770019998
 20
65.7112683105
 10
392.1751794433999
 20
65.89876739499999
 10
392.0501843262
 20
66.02376892089999
 10
391.8626660155999
 20
66.1487704468
 10
391.6751733398
 20
66.2112680054
 10
391.4251831055
 20
66.2112680054
 10
391.2376647948999
 20
66.1487704468
 10
391.0501721191
 20
66.02376892089999
 10
390.9251770019999
 20
65.89876739499999
 10
390.8001818848
 20
65.7112683105
  0
LINE
  5
39F
330
101
100
AcDbEntity
  8
3_ALL_SYMBOLS
  6
Continuous
 62
     2
100
AcDbLine
 10
392.8001806641
 20
66.8362692261
 30
0.0
 11
392.8001806641
 21
65.3362701416
 31
0.0
  0
LINE
  5
3A0
330
101
100
AcDbEntity
  8
3_ALL_SYMBOLS
  6
Continuous
 62
     2
100
AcDbLine
 10
392.6126879883
 20
65.1487646484
 30
0.0
 11
393.6751721191
 21
65.7737658691
 31
0.0
  0
LINE
  5
3A1
330
101
100
AcDbEntity
  8
3_ALL_SYMBOLS
  6
Continuous
 62
     2
100
AcDbLine
 10
392.8001806641
 20
65.3362701416
 30
0.0
 11
392.8001806641
 21
65.2737661743
 31
0.0
  0
LINE
  5
3A2
330
101
100
AcDbEntity
  8
3_ALL_SYMBOLS
  6
Continuous
 62
     2
100
AcDbLine
 10
393.112668457
 20
66.77376525879999
 30
0.0
 11
393.6751721191
 21
66.0862664795
 31
0.0
  0
LWPOLYLINE
  5
3A3
330
101
100
AcDbEntity
  8
3_ALL_SYMBOLS
  6
Continuous
 62
     2
100
AcDbPolyline
 90
        7
 70
     0
 43
0.0
 10
392.9876733398
 20
65.0237695312
 10
393.4251818848
 20
65.1487646484
 10
393.7376696776999
 20
65.2737661743
 10
393.9251879883
 20
65.4612652588
 10
394.0501831055
 20
65.7112683105
 10
394.1751782226999
 20
66.1487704468
 10
394.1751782226999
 20
66.8362692261
  0
LINE
  5
3AC
330
101
100
AcDbEntity
  8
3_ALL_SYMBOLS
  6
Continuous
 62
     2
100
AcDbLine
 10
394.0501831055
 20
65.7112683105
 30
0.0
 11
394.4251684569998
 21
65.0237695312
 31
0.0
  0
LINE
  5
3AD
330
101
100
AcDbEntity
  8
3_ALL_SYMBOLS
  6
Continuous
 62
     2
100
AcDbLine
 10
394.6126867675999
 20
66.6487701416
 30
0.0
 11
396.3626696776998
 21
66.6487701416
 31
0.0
  0
LINE
  5
3AE
330
101
100
AcDbEntity
  8
3_ALL_SYMBOLS
  6
Continuous
 62
     2
100
AcDbLine
 10
395.4251806641
 20
66.6487701416
 30
0.0
 11
395.4251806641
 21
65.0237695312
 31
0.0
  0
LINE
  5
3AF
330
101
100
AcDbEntity
  8
3_ALL_SYMBOLS
  6
Continuous
 62
     2
100
AcDbLine
 10
395.4251806641
 20
66.3362695312
 30
0.0
 11
396.2376745605
 21
65.7112683105
 31
0.0
  0
LINE
  5
3B0
330
101
100
AcDbEntity
  8
3_ALL_SYMBOLS
  6
Continuous
 62
     2
100
AcDbLine
 10
398.8626745605
 20
65.9612649536
 30
0.0
 11
400.1126770019999
 21
65.9612649536
 31
0.0
  0
LINE
  5
3B1
330
101
100
AcDbEntity
  8
3_ALL_SYMBOLS
  6
Continuous
 62
     2
100
AcDbLine
 10
399.4876757812999
 20
66.52376861569999
 30
0.0
 11
399.4876757812999
 21
65.39876770020001
 31
0.0
  0
LINE
  5
3B2
330
101
100
AcDbEntity
  8
3_ALL_SYMBOLS
  6
Continuous
 62
     2
100
AcDbLine
 10
398.8626745605
 20
65.2737661743
 30
0.0
 11
400.1126770019999
 21
65.2737661743
 31
0.0
  0
LWPOLYLINE
  5
3B3
330
101
100
AcDbEntity
  8
3_ALL_SYMBOLS
  6
Continuous
 62
     2
100
AcDbPolyline
 90
       25
 70
     0
 43
0.0
 10
401.6126696776998
 20
66.8362692261
 10
401.4251770019998
 20
66.8362692261
 10
401.2376843262
 20
66.77376525879999
 10
401.1126635742
 20
66.71126770020001
 10
400.987668457
 20
66.58626617430001
 10
400.8626733398
 20
66.39876708979999
 10
400.8001757813
 20
66.0862664795
 10
400.8001757813
 20
65.7737658691
 10
400.8626733398
 20
65.4612652588
 10
400.987668457
 20
65.2737661743
 10
401.1126635742
 20
65.1487646484
 10
401.2376843262
 20
65.08626708979999
 10
401.4251770019998
 20
65.0237695312
 10
401.6126696776998
 20
65.0237695312
 10
401.8001879883
 20
65.08626708979999
 10
401.9251831055
 20
65.1487646484
 10
402.0501782226999
 20
65.2737661743
 10
402.1751733398
 20
65.4612652588
 10
402.2376708983999
 20
65.7737658691
 10
402.2376708983999
 20
66.0862664795
 10
402.1751733398
 20
66.39876708979999
 10
402.0501782226999
 20
66.58626617430001
 10
401.9251831055
 20
66.71126770020001
 10
401.8001879883
 20
66.77376525879999
 10
401.6126696776998
 20
66.8362692261
  0
LINE
  5
3CE
330
101
100
AcDbEntity
  8
3_ALL_SYMBOLS
  6
Continuous
 62
     2
100
AcDbLine
 10
402.7376770019999
 20
65.21126861569999
 30
0.0
 11
402.8626721191
 21
65.21126861569999
 31
0.0
  0
LWPOLYLINE
  5
3CF
330
101
100
AcDbEntity
  8
3_ALL_SYMBOLS
  6
Continuous
 62
     2
100
AcDbPolyline
 90
        6
 70
     0
 43
0.0
 10
402.8001745605
 20
65.2737661743
 10
402.8001745605
 20
65.1487646484
 10
402.7376770019999
 20
65.21126861569999
 10
402.8001745605
 20
65.2737661743
 10
402.8626721191
 20
65.21126861569999
 10
402.8001745605
 20
65.1487646484
  0
LINE
  5
3D7
330
101
100
AcDbEntity
  8
3_ALL_SYMBOLS
  6
Continuous
 62
     2
100
AcDbLine
 10
404.8001733398
 20
66.8362692261
 30
0.0
 11
406.237668457
 21
66.8362692261
 31
0.0
  0
LWPOLYLINE
  5
3D8
330
101
100
AcDbEntity
  8
3_ALL_SYMBOLS
  6
Continuous
 62
     2
100
AcDbPolyline
 90
       19
 70
     0
 43
0.0
 10
404.8001733398
 20
66.8362692261
 10
404.8001733398
 20
65.9612649536
 10
404.9876660156
 20
66.0862664795
 10
405.1126867676
 20
66.1487704468
 10
405.3626770019999
 20
66.2112680054
 10
405.6126672362998
 20
66.2112680054
 10
405.8626831055
 20
66.1487704468
 10
406.0501757812999
 20
66.02376892089999
 10
406.1751708983996
 20
65.89876739499999
 10
406.237668457
 20
65.7737658691
 10
406.237668457
 20
65.5237692261
 10
406.1751708983996
 20
65.3362701416
 10
406.0501757812999
 20
65.21126861569999
 10
405.8626831055
 20
65.08626708979999
 10
405.6126672362998
 20
65.0237695312
 10
405.3626770019999
 20
65.0237695312
 10
405.1751843262
 20
65.08626708979999
 10
404.9251684569996
 20
65.21126861569999
 10
404.8001733398
 20
65.3362701416
  0
LWPOLYLINE
  5
3ED
330
101
100
AcDbEntity
  8
3_ALL_SYMBOLS
  6
Continuous
 62
     2
100
AcDbPolyline
 90
       30
 70
     0
 43
0.0
 10
378.2376855469
 20
63.4612664795
 10
378.1126647948998
 20
63.64876556399999
 10
377.9251721191
 20
63.77376708979999
 10
377.6751818848
 20
63.8362646484
 10
377.4876635741999
 20
63.8362646484
 10
377.2376733398
 20
63.77376708979999
 10
377.0501806641
 20
63.64876556399999
 10
376.9251855469
 20
63.4612664795
 10
376.8001647948999
 20
63.0862683105
 10
376.8001647948999
 20
62.7112701416
 10
376.8626879883
 20
62.4612670898
 10
376.9251855469
 20
62.33626556399999
 10
377.0501806641
 20
62.2112704468
 10
377.2376733398
 20
62.0862689209
 10
377.4251660156
 20
62.02376495359999
 10
377.6751818848
 20
62.02376495359999
 10
377.9251721191
 20
62.0862689209
 10
378.0501672362999
 20
62.14876647949999
 10
378.1751879883
 20
62.33626556399999
 10
378.2376855469
 20
62.52376464840001
 10
378.2376855469
 20
62.7112701416
 10
378.1751879883
 20
62.89876922609999
 10
378.0501672362999
 20
63.02377075199999
 10
377.8626745605
 20
63.14876586909999
 10
377.6751818848
 20
63.21126983640001
 10
377.4251660156
 20
63.21126983640001
 10
377.2376733398
 20
63.14876586909999
 10
377.0501806641
 20
63.02377075199999
 10
376.9251855469
 20
62.89876922609999
 10
376.8001647948999
 20
62.7112701416
  0
LINE
  5
40D
330
101
100
AcDbEntity
  8
3_ALL_SYMBOLS
  6
Continuous
 62
     2
100
AcDbLine
 10
378.7376660155999
 20
63.5237704468
 30
0.0
 11
380.3626794433998
 21
63.5237704468
 31
0.0
  0
LINE
  5
40E
330
101
100
AcDbEntity
  8
3_ALL_SYMBOLS
  6
Continuous
 62
     2
100
AcDbLine
 10
379.4876879883
 20
63.8362646484
 30
0.0
 11
378.8001635741999
 21
62.6487661743
 31
0.0
  0
LWPOLYLINE
  5
40F
330
101
100
AcDbEntity
  8
3_ALL_SYMBOLS
  6
Continuous
 62
     2
100
AcDbPolyline
 90
        7
 70
     0
 43
0.0
 10
378.9876818848
 20
62.9612667847
 10
379.3626672362999
 20
63.14876586909999
 10
379.5501855469
 20
63.21126983640001
 10
379.7376782226999
 20
63.21126983640001
 10
379.8626733398
 20
63.14876586909999
 10
379.9251708983998
 20
62.9612667847
 10
379.9251708983998
 20
62.39876953119999
  0
LWPOLYLINE
  5
418
330
101
100
AcDbEntity
  8
3_ALL_SYMBOLS
  6
Continuous
 62
     2
100
AcDbPolyline
 90
        9
 70
     0
 43
0.0
 10
380.4251770019998
 20
62.9612667847
 10
379.9251708983998
 20
62.8362652588
 10
379.4876879883
 20
62.6487661743
 10
379.3001696776999
 20
62.4612670898
 10
379.2376721191
 20
62.33626556399999
 10
379.2376721191
 20
62.2112704468
 10
379.4251647948998
 20
62.0862689209
 10
379.8001757812999
 20
62.02376495359999
 10
380.3001818848
 20
62.02376495359999
  0
LWPOLYLINE
  5
423
330
101
100
AcDbEntity
  8
3_ALL_SYMBOLS
  6
Continuous
 62
     2
100
AcDbPolyline
 90
        5
 70
     0
 43
0.0
 10
380.8626855469
 20
63.64876556399999
 10
381.4251635741999
 20
63.64876556399999
 10
381.8001745605
 20
63.5862680054
 10
382.0501647948999
 20
63.4612664795
 10
381.6751794433999
 20
63.21126983640001
  0
LWPOLYLINE
  5
42A
330
101
100
AcDbEntity
  8
3_ALL_SYMBOLS
  6
Continuous
 62
     2
100
AcDbPolyline
 90
        9
 70
     0
 43
0.0
 10
380.9876806641
 20
62.8362652588
 10
380.7376647948998
 20
62.5862686157
 10
380.6751672362999
 20
62.4612670898
 10
380.6751672362999
 20
62.2737680054
 10
380.8001879883
 20
62.14876647949999
 10
381.1126757812999
 20
62.0862689209
 10
381.5501843262
 20
62.02376495359999
 10
381.9251696776999
 20
62.02376495359999
 10
382.3626782226999
 20
62.0862689209
  0
LINE
  5
435
330
101
100
AcDbEntity
  8
3_ALL_SYMBOLS
  6
Continuous
 62
     2
100
AcDbLine
 10
383.2376696776999
 20
63.77376708979999
 30
0.0
 11
384.1751843262
 21
63.64876556399999
 31
0.0
  0
LWPOLYLINE
  5
436
330
101
100
AcDbEntity
  8
3_ALL_SYMBOLS
  6
Continuous
 62
     2
100
AcDbPolyline
 90
       12
 70
     0
 43
0.0
 10
382.9251818848
 20
63.33626495359999
 10
384.1126867675999
 20
63.33626495359999
 10
382.6751660155999
 20
62.0862689209
 10
383.3626647948999
 20
62.5862686157
 10
383.5501831055
 20
62.6487661743
 10
383.6751782226999
 20
62.6487661743
 10
383.7376757812999
 20
62.5862686157
 10
383.7376757812999
 20
62.4612670898
 10
383.7376757812999
 20
62.2112704468
 10
383.8001733398
 20
62.0862689209
 10
383.9876660155999
 20
62.02376495359999
 10
384.4251745605
 20
62.02376495359999
  0
LWPOLYLINE
  5
444
330
101
100
AcDbEntity
  8
3_ALL_SYMBOLS
  6
Continuous
 62
     2
100
AcDbPolyline
 90
       15
 70
     0
 43
0.0
 10
388.8001831055
 20
63.4612664795
 10
388.8626806641
 20
63.5862680054
 10
388.9876757812999
 20
63.7112695312
 10
389.1126708983998
 20
63.77376708979999
 10
389.3626867676
 20
63.8362646484
 10
389.6751745605
 20
63.8362646484
 10
389.9251647948998
 20
63.77376708979999
 10
390.0501855469
 20
63.7112695312
 10
390.1751806641
 20
63.5862680054
 10
390.2376782226999
 20
63.4612664795
 10
390.2376782226999
 20
63.273767395
 10
390.1751806641
 20
63.14876586909999
 10
390.0501855469
 20
63.02377075199999
 10
389.8001696776999
 20
62.9612667847
 10
389.1751684569998
 20
62.9612667847
  0
LWPOLYLINE
  5
455
330
101
100
AcDbEntity
  8
3_ALL_SYMBOLS
  6
Continuous
 62
     2
100
AcDbPolyline
 90
       13
 70
     0
 43
0.0
 10
389.8001696776999
 20
62.9612667847
 10
390.0501855469
 20
62.8362652588
 10
390.1751806641
 20
62.7112701416
 10
390.2376782226999
 20
62.5862686157
 10
390.2376782226999
 20
62.39876953119999
 10
390.1751806641
 20
62.2737680054
 10
390.0501855469
 20
62.14876647949999
 10
389.9251647948998
 20
62.0862689209
 10
389.6751745605
 20
62.02376495359999
 10
389.3626867676
 20
62.02376495359999
 10
389.1126708983998
 20
62.0862689209
 10
388.9251782226999
 20
62.2112704468
 10
388.8001831055
 20
62.33626556399999
  0
LWPOLYLINE
  5
464
330
101
100
AcDbEntity
  8
3_ALL_SYMBOLS
  6
Continuous
 62
     2
100
AcDbPolyline
 90
       25
 70
     0
 43
0.0
 10
391.6126757812999
 20
63.8362646484
 10
391.4251831055
 20
63.8362646484
 10
391.2376647948999
 20
63.77376708979999
 10
391.1126696776999
 20
63.7112695312
 10
390.9876745605
 20
63.5862680054
 10
390.8626794433999
 20
63.3987689209
 10
390.8001818848
 20
63.0862683105
 10
390.8001818848
 20
62.7737677002
 10
390.8626794433999
 20
62.4612670898
 10
390.9876745605
 20
62.2737680054
 10
391.1126696776999
 20
62.14876647949999
 10
391.2376647948999
 20
62.0862689209
 10
391.4251831055
 20
62.02376495359999
 10
391.6126757812999
 20
62.02376495359999
 10
391.800168457
 20
62.0862689209
 10
391.9251635742
 20
62.14876647949999
 10
392.0501843262
 20
62.2737680054
 10
392.1751794433999
 20
62.4612670898
 10
392.2376770019998
 20
62.7737677002
 10
392.2376770019998
 20
63.0862683105
 10
392.1751794433999
 20
63.3987689209
 10
392.0501843262
 20
63.5862680054
 10
391.9251635742
 20
63.7112695312
 10
391.800168457
 20
63.77376708979999
 10
391.6126757812999
 20
63.8362646484
  0
LINE
  5
47F
330
101
100
AcDbEntity
  8
3_ALL_SYMBOLS
  6
Continuous
 62
     2
100
AcDbLine
 10
392.8001806641
 20
63.8362646484
 30
0.0
 11
392.8001806641
 21
62.33626556399999
 31
0.0
  0
LINE
  5
480
330
101
100
AcDbEntity
  8
3_ALL_SYMBOLS
  6
Continuous
 62
     2
100
AcDbLine
 10
392.6126879883
 20
62.14876647949999
 30
0.0
 11
393.6751721191
 21
62.7737677002
 31
0.0
  0
LINE
  5
481
330
101
100
AcDbEntity
  8
3_ALL_SYMBOLS
  6
Continuous
 62
     2
100
AcDbLine
 10
392.8001806641
 20
62.33626556399999
 30
0.0
 11
392.8001806641
 21
62.2737680054
 31
0.0
  0
LINE
  5
482
330
101
100
AcDbEntity
  8
3_ALL_SYMBOLS
  6
Continuous
 62
     2
100
AcDbLine
 10
393.112668457
 20
63.77376708979999
 30
0.0
 11
393.6751721191
 21
63.0862683105
 31
0.0
  0
LWPOLYLINE
  5
483
330
101
100
AcDbEntity
  8
3_ALL_SYMBOLS
  6
Continuous
 62
     2
100
AcDbPolyline
 90
        7
 70
     0
 43
0.0
 10
392.9876733398
 20
62.02376495359999
 10
393.4251818848
 20
62.14876647949999
 10
393.7376696776999
 20
62.2737680054
 10
393.9251879883
 20
62.4612670898
 10
394.0501831055
 20
62.7112701416
 10
394.1751782226999
 20
63.14876586909999
 10
394.1751782226999
 20
63.8362646484
  0
LINE
  5
48C
330
101
100
AcDbEntity
  8
3_ALL_SYMBOLS
  6
Continuous
 62
     2
100
AcDbLine
 10
394.0501831055
 20
62.7112701416
 30
0.0
 11
394.4251684569998
 21
62.02376495359999
 31
0.0
  0
LINE
  5
48D
330
101
100
AcDbEntity
  8
3_ALL_SYMBOLS
  6
Continuous
 62
     2
100
AcDbLine
 10
394.6126867675999
 20
63.64876556399999
 30
0.0
 11
396.3626696776998
 21
63.64876556399999
 31
0.0
  0
LINE
  5
48E
330
101
100
AcDbEntity
  8
3_ALL_SYMBOLS
  6
Continuous
 62
     2
100
AcDbLine
 10
395.4251806641
 20
63.64876556399999
 30
0.0
 11
395.4251806641
 21
62.02376495359999
 31
0.0
  0
LINE
  5
48F
330
101
100
AcDbEntity
  8
3_ALL_SYMBOLS
  6
Continuous
 62
     2
100
AcDbLine
 10
395.4251806641
 20
63.33626495359999
 30
0.0
 11
396.2376745605
 21
62.7112701416
 31
0.0
  0
LINE
  5
490
330
101
100
AcDbEntity
  8
3_ALL_SYMBOLS
  6
Continuous
 62
     2
100
AcDbLine
 10
398.8626745605
 20
62.9612667847
 30
0.0
 11
400.1126770019999
 21
62.9612667847
 31
0.0
  0
LINE
  5
491
330
101
100
AcDbEntity
  8
3_ALL_SYMBOLS
  6
Continuous
 62
     2
100
AcDbLine
 10
399.4876757812999
 20
63.5237704468
 30
0.0
 11
399.4876757812999
 21
62.39876953119999
 31
0.0
  0
LINE
  5
492
330
101
100
AcDbEntity
  8
3_ALL_SYMBOLS
  6
Continuous
 62
     2
100
AcDbLine
 10
398.8626745605
 20
62.2737680054
 30
0.0
 11
400.1126770019999
 21
62.2737680054
 31
0.0
  0
LWPOLYLINE
  5
493
330
101
100
AcDbEntity
  8
3_ALL_SYMBOLS
  6
Continuous
 62
     2
100
AcDbPolyline
 90
        3
 70
     0
 43
0.0
 10
401.6751672362999
 20
62.02376495359999
 10
401.6751672362999
 20
63.8362646484
 10
401.1751867675998
 20
63.33626495359999
  0
LWPOLYLINE
  5
498
330
101
100
AcDbEntity
  8
3_ALL_SYMBOLS
  6
Continuous
 62
     2
100
AcDbPolyline
 90
       15
 70
     0
 43
0.0
 10
374.8001660156
 20
60.4612683105
 10
374.8626635741999
 20
60.5862698364
 10
374.9876843262
 20
60.71126495359999
 10
375.1126794433998
 20
60.77376892090001
 10
375.3626696776998
 20
60.8362664795
 10
375.6751831055
 20
60.8362664795
 10
375.9251733398
 20
60.77376892090001
 10
376.0501684569998
 20
60.71126495359999
 10
376.1751635741999
 20
60.5862698364
 10
376.2376867676
 20
60.4612683105
 10
376.2376867676
 20
60.27376922609999
 10
376.1751635741999
 20
60.1487677002
 10
376.0501684569998
 20
60.0237661743
 10
375.8001782226999
 20
59.9612686157
 10
375.1751770019998
 20
59.9612686157
  0
LWPOLYLINE
  5
4A9
330
101
100
AcDbEntity
  8
3_ALL_SYMBOLS
  6
Continuous
 62
     2
100
AcDbPolyline
 90
       13
 70
     0
 43
0.0
 10
375.8001782226999
 20
59.9612686157
 10
376.0501684569998
 20
59.8362670898
 10
376.1751635741999
 20
59.71126556399999
 10
376.2376867676
 20
59.5862704468
 10
376.2376867676
 20
59.3987649536
 10
376.1751635741999
 20
59.27376983640001
 10
376.0501684569998
 20
59.1487683105
 10
375.9251733398
 20
59.086270752
 10
375.6751831055
 20
59.0237667847
 10
375.3626696776998
 20
59.0237667847
 10
375.1126794433998
 20
59.086270752
 10
374.9251867676
 20
59.21126586909998
 10
374.8001660156
 20
59.336267395
  0
LWPOLYLINE
  5
4B8
330
101
100
AcDbEntity
  8
3_ALL_SYMBOLS
  6
Continuous
 62
     2
100
AcDbPolyline
 90
       25
 70
     0
 43
0.0
 10
377.6126843262
 20
60.8362664795
 10
377.4251660156
 20
60.8362664795
 10
377.2376733398
 20
60.77376892090001
 10
377.1126782226999
 20
60.71126495359999
 10
376.9876831055
 20
60.5862698364
 10
376.8626879883
 20
60.39877075199999
 10
376.8001647948999
 20
60.0862701416
 10
376.8001647948999
 20
59.7737695312
 10
376.8626879883
 20
59.4612689209
 10
376.9876831055
 20
59.27376983640001
 10
377.1126782226999
 20
59.1487683105
 10
377.2376733398
 20
59.086270752
 10
377.4251660156
 20
59.0237667847
 10
377.6126843262
 20
59.0237667847
 10
377.8001770019999
 20
59.086270752
 10
377.9251721191
 20
59.1487683105
 10
378.0501672362999
 20
59.27376983640001
 10
378.1751879883
 20
59.4612689209
 10
378.2376855469
 20
59.7737695312
 10
378.2376855469
 20
60.0862701416
 10
378.1751879883
 20
60.39877075199999
 10
378.0501672362999
 20
60.5862698364
 10
377.9251721191
 20
60.71126495359999
 10
377.8001770019999
 20
60.77376892090001
 10
377.6126843262
 20
60.8362664795
  0
LINE
  5
4D3
330
101
100
AcDbEntity
  8
3_ALL_SYMBOLS
  6
Continuous
 62
     2
100
AcDbLine
 10
378.7376660155999
 20
60.5237658691
 30
0.0
 11
380.3626794433998
 21
60.5237658691
 31
0.0
  0
LINE
  5
4D4
330
101
100
AcDbEntity
  8
3_ALL_SYMBOLS
  6
Continuous
 62
     2
100
AcDbLine
 10
379.4876879883
 20
60.8362664795
 30
0.0
 11
378.8001635741999
 21
59.6487680054
 31
0.0
  0
LWPOLYLINE
  5
4D5
330
101
100
AcDbEntity
  8
3_ALL_SYMBOLS
  6
Continuous
 62
     2
100
AcDbPolyline
 90
        7
 70
     0
 43
0.0
 10
378.9876818848
 20
59.9612686157
 10
379.3626672362999
 20
60.1487677002
 10
379.5501855469
 20
60.2112652588
 10
379.7376782226999
 20
60.2112652588
 10
379.8626733398
 20
60.1487677002
 10
379.9251708983998
 20
59.9612686157
 10
379.9251708983998
 20
59.3987649536
  0
LWPOLYLINE
  5
4DE
330
101
100
AcDbEntity
  8
3_ALL_SYMBOLS
  6
Continuous
 62
     2
100
AcDbPolyline
 90
        9
 70
     0
 43
0.0
 10
380.4251770019998
 20
59.9612686157
 10
379.9251708983998
 20
59.8362670898
 10
379.4876879883
 20
59.6487680054
 10
379.3001696776999
 20
59.4612689209
 10
379.2376721191
 20
59.336267395
 10
379.2376721191
 20
59.21126586909998
 10
379.4251647948998
 20
59.086270752
 10
379.8001757812999
 20
59.0237667847
 10
380.3001818848
 20
59.0237667847
  0
LWPOLYLINE
  5
4E9
330
101
100
AcDbEntity
  8
3_ALL_SYMBOLS
  6
Continuous
 62
     2
100
AcDbPolyline
 90
        5
 70
     0
 43
0.0
 10
380.8626855469
 20
60.648767395
 10
381.4251635741999
 20
60.648767395
 10
381.8001745605
 20
60.5862698364
 10
382.0501647948999
 20
60.4612683105
 10
381.6751794433999
 20
60.2112652588
  0
LWPOLYLINE
  5
4F0
330
101
100
AcDbEntity
  8
3_ALL_SYMBOLS
  6
Continuous
 62
     2
100
AcDbPolyline
 90
        9
 70
     0
 43
0.0
 10
380.9876806641
 20
59.8362670898
 10
380.7376647948998
 20
59.5862704468
 10
380.6751672362999
 20
59.4612689209
 10
380.6751672362999
 20
59.27376983640001
 10
380.8001879883
 20
59.1487683105
 10
381.1126757812999
 20
59.086270752
 10
381.5501843262
 20
59.0237667847
 10
381.9251696776999
 20
59.0237667847
 10
382.3626782226999
 20
59.086270752
  0
LINE
  5
4FB
330
101
100
AcDbEntity
  8
3_ALL_SYMBOLS
  6
Continuous
 62
     2
100
AcDbLine
 10
383.2376696776999
 20
60.77376892090001
 30
0.0
 11
384.1751843262
 21
60.648767395
 31
0.0
  0
LWPOLYLINE
  5
4FC
330
101
100
AcDbEntity
  8
3_ALL_SYMBOLS
  6
Continuous
 62
     2
100
AcDbPolyline
 90
       12
 70
     0
 43
0.0
 10
382.9251818848
 20
60.3362667847
 10
384.1126867675999
 20
60.3362667847
 10
382.6751660155999
 20
59.086270752
 10
383.3626647948999
 20
59.5862704468
 10
383.5501831055
 20
59.6487680054
 10
383.6751782226999
 20
59.6487680054
 10
383.7376757812999
 20
59.5862704468
 10
383.7376757812999
 20
59.4612689209
 10
383.7376757812999
 20
59.21126586909998
 10
383.8001733398
 20
59.086270752
 10
383.9876660155999
 20
59.0237667847
 10
384.4251745605
 20
59.0237667847
  0
LWPOLYLINE
  5
50A
330
101
100
AcDbEntity
  8
3_ALL_SYMBOLS
  6
Continuous
 62
     2
100
AcDbPolyline
 90
        3
 70
     0
 43
0.0
 10
387.6751757813
 20
59.0237667847
 10
387.6751757813
 20
60.8362664795
 10
387.1751696776998
 20
60.3362667847
  0
LWPOLYLINE
  5
50F
330
101
100
AcDbEntity
  8
3_ALL_SYMBOLS
  6
Continuous
 62
     2
100
AcDbPolyline
 90
       19
 70
     0
 43
0.0
 10
388.8001831055
 20
60.39877075199999
 10
388.8626806641
 20
60.5237658691
 10
388.9876757812999
 20
60.648767395
 10
389.1751684569998
 20
60.77376892090001
 10
389.4251843262
 20
60.8362664795
 10
389.6751745605
 20
60.8362664795
 10
389.9251647948998
 20
60.77376892090001
 10
390.1126831055
 20
60.648767395
 10
390.2376782226999
 20
60.4612683105
 10
390.2376782226999
 20
60.27376922609999
 10
390.1751806641
 20
60.1487677002
 10
390.0501855469
 20
60.0237661743
 10
389.7376721191
 20
59.8987646484
 10
389.4251843262
 20
59.7737695312
 10
389.1751684569998
 20
59.5862704468
 10
388.9876757812999
 20
59.3987649536
 10
388.8626806641
 20
59.21126586909998
 10
388.8001831055
 20
59.0237667847
 10
390.2376782226999
 20
59.0237667847
  0
LWPOLYLINE
  5
524
330
101
100
AcDbEntity
  8
3_ALL_SYMBOLS
  6
Continuous
 62
     2
100
AcDbPolyline
 90
       25
 70
     0
 43
0.0
 10
391.6126757812999
 20
60.8362664795
 10
391.4251831055
 20
60.8362664795
 10
391.2376647948999
 20
60.77376892090001
 10
391.1126696776999
 20
60.71126495359999
 10
390.9876745605
 20
60.5862698364
 10
390.8626794433999
 20
60.39877075199999
 10
390.8001818848
 20
60.0862701416
 10
390.8001818848
 20
59.7737695312
 10
390.8626794433999
 20
59.4612689209
 10
390.9876745605
 20
59.27376983640001
 10
391.1126696776999
 20
59.1487683105
 10
391.2376647948999
 20
59.086270752
 10
391.4251831055
 20
59.0237667847
 10
391.6126757812999
 20
59.0237667847
 10
391.800168457
 20
59.086270752
 10
391.9251635742
 20
59.1487683105
 10
392.0501843262
 20
59.27376983640001
 10
392.1751794433999
 20
59.4612689209
 10
392.2376770019998
 20
59.7737695312
 10
392.2376770019998
 20
60.0862701416
 10
392.1751794433999
 20
60.39877075199999
 10
392.0501843262
 20
60.5862698364
 10
391.9251635742
 20
60.71126495359999
 10
391.800168457
 20
60.77376892090001
 10
391.6126757812999
 20
60.8362664795
  0
LINE
  5
53F
330
101
100
AcDbEntity
  8
3_ALL_SYMBOLS
  6
Continuous
 62
     2
100
AcDbLine
 10
392.8001806641
 20
60.8362664795
 30
0.0
 11
392.8001806641
 21
59.336267395
 31
0.0
  0
LINE
  5
540
330
101
100
AcDbEntity
  8
3_ALL_SYMBOLS
  6
Continuous
 62
     2
100
AcDbLine
 10
392.6126879883
 20
59.1487683105
 30
0.0
 11
393.6751721191
 21
59.7737695312
 31
0.0
  0
LINE
  5
541
330
101
100
AcDbEntity
  8
3_ALL_SYMBOLS
  6
Continuous
 62
     2
100
AcDbLine
 10
392.8001806641
 20
59.336267395
 30
0.0
 11
392.8001806641
 21
59.27376983640001
 31
0.0
  0
LINE
  5
542
330
101
100
AcDbEntity
  8
3_ALL_SYMBOLS
  6
Continuous
 62
     2
100
AcDbLine
 10
393.112668457
 20
60.77376892090001
 30
0.0
 11
393.6751721191
 21
60.0862701416
 31
0.0
  0
LWPOLYLINE
  5
543
330
101
100
AcDbEntity
  8
3_ALL_SYMBOLS
  6
Continuous
 62
     2
100
AcDbPolyline
 90
        7
 70
     0
 43
0.0
 10
392.9876733398
 20
59.0237667847
 10
393.4251818848
 20
59.1487683105
 10
393.7376696776999
 20
59.27376983640001
 10
393.9251879883
 20
59.4612689209
 10
394.0501831055
 20
59.71126556399999
 10
394.1751782226999
 20
60.1487677002
 10
394.1751782226999
 20
60.8362664795
  0
LINE
  5
54C
330
101
100
AcDbEntity
  8
3_ALL_SYMBOLS
  6
Continuous
 62
     2
100
AcDbLine
 10
394.0501831055
 20
59.71126556399999
 30
0.0
 11
394.4251684569998
 21
59.0237667847
 31
0.0
  0
LINE
  5
54D
330
101
100
AcDbEntity
  8
3_ALL_SYMBOLS
  6
Continuous
 62
     2
100
AcDbLine
 10
394.6126867675999
 20
60.648767395
 30
0.0
 11
396.3626696776998
 21
60.648767395
 31
0.0
  0
LINE
  5
54E
330
101
100
AcDbEntity
  8
3_ALL_SYMBOLS
  6
Continuous
 62
     2
100
AcDbLine
 10
395.4251806641
 20
60.648767395
 30
0.0
 11
395.4251806641
 21
59.0237667847
 31
0.0
  0
LINE
  5
54F
330
101
100
AcDbEntity
  8
3_ALL_SYMBOLS
  6
Continuous
 62
     2
100
AcDbLine
 10
395.4251806641
 20
60.3362667847
 30
0.0
 11
396.2376745605
 21
59.71126556399999
 31
0.0
  0
LINE
  5
550
330
101
100
AcDbEntity
  8
3_ALL_SYMBOLS
  6
Continuous
 62
     2
100
AcDbLine
 10
398.8626745605
 20
59.9612686157
 30
0.0
 11
400.1126770019999
 21
59.9612686157
 31
0.0
  0
LINE
  5
551
330
101
100
AcDbEntity
  8
3_ALL_SYMBOLS
  6
Continuous
 62
     2
100
AcDbLine
 10
399.4876757812999
 20
60.5237658691
 30
0.0
 11
399.4876757812999
 21
59.3987649536
 31
0.0
  0
LINE
  5
552
330
101
100
AcDbEntity
  8
3_ALL_SYMBOLS
  6
Continuous
 62
     2
100
AcDbLine
 10
398.8626745605
 20
59.27376983640001
 30
0.0
 11
400.1126770019999
 21
59.27376983640001
 31
0.0
  0
LWPOLYLINE
  5
553
330
101
100
AcDbEntity
  8
3_ALL_SYMBOLS
  6
Continuous
 62
     2
100
AcDbPolyline
 90
        3
 70
     0
 43
0.0
 10
401.6751672362999
 20
59.0237667847
 10
401.6751672362999
 20
60.8362664795
 10
401.1751867675998
 20
60.3362667847
  0
LINE
  5
558
330
101
100
AcDbEntity
  8
3_ALL_SYMBOLS
  6
Continuous
 62
     2
100
AcDbLine
 10
402.7376770019999
 20
59.21126586909998
 30
0.0
 11
402.8626721191
 21
59.21126586909998
 31
0.0
  0
LWPOLYLINE
  5
559
330
101
100
AcDbEntity
  8
3_ALL_SYMBOLS
  6
Continuous
 62
     2
100
AcDbPolyline
 90
        6
 70
     0
 43
0.0
 10
402.8001745605
 20
59.27376983640001
 10
402.8001745605
 20
59.1487683105
 10
402.7376770019999
 20
59.21126586909998
 10
402.8001745605
 20
59.27376983640001
 10
402.8626721191
 20
59.21126586909998
 10
402.8001745605
 20
59.1487683105
  0
LINE
  5
561
330
101
100
AcDbEntity
  8
3_ALL_SYMBOLS
  6
Continuous
 62
     2
100
AcDbLine
 10
404.8001733398
 20
60.8362664795
 30
0.0
 11
406.237668457
 21
60.8362664795
 31
0.0
  0
LWPOLYLINE
  5
562
330
101
100
AcDbEntity
  8
3_ALL_SYMBOLS
  6
Continuous
 62
     2
100
AcDbPolyline
 90
       19
 70
     0
 43
0.0
 10
404.8001733398
 20
60.8362664795
 10
404.8001733398
 20
59.9612686157
 10
404.9876660156
 20
60.0862701416
 10
405.1126867676
 20
60.1487677002
 10
405.3626770019999
 20
60.2112652588
 10
405.6126672362998
 20
60.2112652588
 10
405.8626831055
 20
60.1487677002
 10
406.0501757812999
 20
60.0237661743
 10
406.1751708983996
 20
59.8987646484
 10
406.237668457
 20
59.7737695312
 10
406.237668457
 20
59.5237664795
 10
406.1751708983996
 20
59.336267395
 10
406.0501757812999
 20
59.21126586909998
 10
405.8626831055
 20
59.086270752
 10
405.6126672362998
 20
59.0237667847
 10
405.3626770019999
 20
59.0237667847
 10
405.1751843262
 20
59.086270752
 10
404.9251684569996
 20
59.21126586909998
 10
404.8001733398
 20
59.336267395
  0
LWPOLYLINE
  5
577
330
101
100
AcDbEntity
  8
3_ALL_SYMBOLS
  6
Continuous
 62
     2
100
AcDbPolyline
 90
        3
 70
     0
 43
0.0
 10
373.6751843262
 20
56.0237686157
 10
373.6751843262
 20
57.8362683105
 10
373.1751782226999
 20
57.3362686157
  0
LWPOLYLINE
  5
57C
330
101
100
AcDbEntity
  8
3_ALL_SYMBOLS
  6
Continuous
 62
     2
100
AcDbPolyline
 90
       19
 70
     0
 43
0.0
 10
374.8001660156
 20
57.3987661743
 10
374.8626635741999
 20
57.5237677002
 10
374.9876843262
 20
57.6487692261
 10
375.1751770019998
 20
57.773770752
 10
375.4251672362999
 20
57.8362683105
 10
375.6751831055
 20
57.8362683105
 10
375.9251733398
 20
57.773770752
 10
376.1126660156
 20
57.6487692261
 10
376.2376867676
 20
57.46127014159998
 10
376.2376867676
 20
57.2737646484
 10
376.1751635741999
 20
57.1487695312
 10
376.0501684569998
 20
57.0237680054
 10
375.7376806641
 20
56.8987664795
 10
375.4251672362999
 20
56.77376495359999
 10
375.1751770019998
 20
56.58626586909999
 10
374.9876843262
 20
56.3987667847
 10
374.8626635741999
 20
56.2112677002
 10
374.8001660156
 20
56.0237686157
 10
376.2376867676
 20
56.0237686157
  0
LWPOLYLINE
  5
591
330
101
100
AcDbEntity
  8
3_ALL_SYMBOLS
  6
Continuous
 62
     2
100
AcDbPolyline
 90
       25
 70
     0
 43
0.0
 10
377.6126843262
 20
57.8362683105
 10
377.4251660156
 20
57.8362683105
 10
377.2376733398
 20
57.773770752
 10
377.1126782226999
 20
57.7112667847
 10
376.9876831055
 20
57.5862652588
 10
376.8626879883
 20
57.3987661743
 10
376.8001647948999
 20
57.08626556399999
 10
376.8001647948999
 20
56.77376495359999
 10
376.8626879883
 20
56.46127075199999
 10
376.9876831055
 20
56.2737652588
 10
377.1126782226999
 20
56.1487701416
 10
377.2376733398
 20
56.0862661743
 10
377.4251660156
 20
56.0237686157
 10
377.6126843262
 20
56.0237686157
 10
377.8001770019999
 20
56.0862661743
 10
377.9251721191
 20
56.1487701416
 10
378.0501672362999
 20
56.2737652588
 10
378.1751879883
 20
56.46127075199999
 10
378.2376855469
 20
56.77376495359999
 10
378.2376855469
 20
57.08626556399999
 10
378.1751879883
 20
57.3987661743
 10
378.0501672362999
 20
57.5862652588
 10
377.9251721191
 20
57.7112667847
 10
377.8001770019999
 20
57.773770752
 10
377.6126843262
 20
57.8362683105
  0
LINE
  5
5AC
330
101
100
AcDbEntity
  8
3_ALL_SYMBOLS
  6
Continuous
 62
     2
100
AcDbLine
 10
378.7376660155999
 20
57.5237677002
 30
0.0
 11
380.3626794433998
 21
57.5237677002
 31
0.0
  0
LINE
  5
5AD
330
101
100
AcDbEntity
  8
3_ALL_SYMBOLS
  6
Continuous
 62
     2
100
AcDbLine
 10
379.4876879883
 20
57.8362683105
 30
0.0
 11
378.8001635741999
 21
56.64876983640001
 31
0.0
  0
LWPOLYLINE
  5
5AE
330
101
100
AcDbEntity
  8
3_ALL_SYMBOLS
  6
Continuous
 62
     2
100
AcDbPolyline
 90
        7
 70
     0
 43
0.0
 10
378.9876818848
 20
56.9612704468
 10
379.3626672362999
 20
57.1487695312
 10
379.5501855469
 20
57.21126708979999
 10
379.7376782226999
 20
57.21126708979999
 10
379.8626733398
 20
57.1487695312
 10
379.9251708983998
 20
56.9612704468
 10
379.9251708983998
 20
56.3987667847
  0
LWPOLYLINE
  5
5B7
330
101
100
AcDbEntity
  8
3_ALL_SYMBOLS
  6
Continuous
 62
     2
100
AcDbPolyline
 90
        9
 70
     0
 43
0.0
 10
380.4251770019998
 20
56.9612704468
 10
379.9251708983998
 20
56.8362689209
 10
379.4876879883
 20
56.64876983640001
 10
379.3001696776999
 20
56.46127075199999
 10
379.2376721191
 20
56.33626922609999
 10
379.2376721191
 20
56.2112677002
 10
379.4251647948998
 20
56.0862661743
 10
379.8001757812999
 20
56.0237686157
 10
380.3001818848
 20
56.0237686157
  0
LWPOLYLINE
  5
5C2
330
101
100
AcDbEntity
  8
3_ALL_SYMBOLS
  6
Continuous
 62
     2
100
AcDbPolyline
 90
        5
 70
     0
 43
0.0
 10
380.8626855469
 20
57.6487692261
 10
381.4251635741999
 20
57.6487692261
 10
381.8001745605
 20
57.5862652588
 10
382.0501647948999
 20
57.46127014159998
 10
381.6751794433999
 20
57.21126708979999
  0
LWPOLYLINE
  5
5C9
330
101
100
AcDbEntity
  8
3_ALL_SYMBOLS
  6
Continuous
 62
     2
100
AcDbPolyline
 90
        9
 70
     0
 43
0.0
 10
380.9876806641
 20
56.8362689209
 10
380.7376647948998
 20
56.58626586909999
 10
380.6751672362999
 20
56.46127075199999
 10
380.6751672362999
 20
56.2737652588
 10
380.8001879883
 20
56.1487701416
 10
381.1126757812999
 20
56.0862661743
 10
381.5501843262
 20
56.0237686157
 10
381.9251696776999
 20
56.0237686157
 10
382.3626782226999
 20
56.0862661743
  0
LINE
  5
5D4
330
101
100
AcDbEntity
  8
3_ALL_SYMBOLS
  6
Continuous
 62
     2
100
AcDbLine
 10
383.2376696776999
 20
57.773770752
 30
0.0
 11
384.1751843262
 21
57.6487692261
 31
0.0
  0
LWPOLYLINE
  5
5D5
330
101
100
AcDbEntity
  8
3_ALL_SYMBOLS
  6
Continuous
 62
     2
100
AcDbPolyline
 90
       12
 70
     0
 43
0.0
 10
382.9251818848
 20
57.3362686157
 10
384.1126867675999
 20
57.3362686157
 10
382.6751660155999
 20
56.0862661743
 10
383.3626647948999
 20
56.58626586909999
 10
383.5501831055
 20
56.64876983640001
 10
383.6751782226999
 20
56.64876983640001
 10
383.7376757812999
 20
56.58626586909999
 10
383.7376757812999
 20
56.46127075199999
 10
383.7376757812999
 20
56.2112677002
 10
383.8001733398
 20
56.0862661743
 10
383.9876660155999
 20
56.0237686157
 10
384.4251745605
 20
56.0237686157
  0
LWPOLYLINE
  5
5E3
330
101
100
AcDbEntity
  8
3_ALL_SYMBOLS
  6
Continuous
 62
     2
100
AcDbPolyline
 90
        4
 70
     0
 43
0.0
 10
387.9251660156
 20
56.0237686157
 10
387.9251660156
 20
57.8362683105
 10
386.7376867676
 20
56.46127075199999
 10
388.2376794433998
 20
56.46127075199999
  0
LWPOLYLINE
  5
5E9
330
101
100
AcDbEntity
  8
3_ALL_SYMBOLS
  6
Continuous
 62
     2
100
AcDbPolyline
 90
       25
 70
     0
 43
0.0
 10
389.6126770019998
 20
57.8362683105
 10
389.4251843262
 20
57.8362683105
 10
389.2376660156
 20
57.773770752
 10
389.1126708983998
 20
57.7112667847
 10
388.9876757812999
 20
57.5862652588
 10
388.8626806641
 20
57.3987661743
 10
388.8001831055
 20
57.08626556399999
 10
388.8001831055
 20
56.77376495359999
 10
388.8626806641
 20
56.46127075199999
 10
388.9876757812999
 20
56.2737652588
 10
389.1126708983998
 20
56.1487701416
 10
389.2376660156
 20
56.0862661743
 10
389.4251843262
 20
56.0237686157
 10
389.6126770019998
 20
56.0237686157
 10
389.8001696776999
 20
56.0862661743
 10
389.9251647948998
 20
56.1487701416
 10
390.0501855469
 20
56.2737652588
 10
390.1751806641
 20
56.46127075199999
 10
390.2376782226999
 20
56.77376495359999
 10
390.2376782226999
 20
57.08626556399999
 10
390.1751806641
 20
57.3987661743
 10
390.0501855469
 20
57.5862652588
 10
389.9251647948998
 20
57.7112667847
 10
389.8001696776999
 20
57.773770752
 10
389.6126770019998
 20
57.8362683105
  0
LWPOLYLINE
  5
604
330
101
100
AcDbEntity
  8
3_ALL_SYMBOLS
  6
Continuous
 62
     2
100
AcDbPolyline
 90
       25
 70
     0
 43
0.0
 10
391.6126757812999
 20
57.8362683105
 10
391.4251831055
 20
57.8362683105
 10
391.2376647948999
 20
57.773770752
 10
391.1126696776999
 20
57.7112667847
 10
390.9876745605
 20
57.5862652588
 10
390.8626794433999
 20
57.3987661743
 10
390.8001818848
 20
57.08626556399999
 10
390.8001818848
 20
56.77376495359999
 10
390.8626794433999
 20
56.46127075199999
 10
390.9876745605
 20
56.2737652588
 10
391.1126696776999
 20
56.1487701416
 10
391.2376647948999
 20
56.0862661743
 10
391.4251831055
 20
56.0237686157
 10
391.6126757812999
 20
56.0237686157
 10
391.800168457
 20
56.0862661743
 10
391.9251635742
 20
56.1487701416
 10
392.0501843262
 20
56.2737652588
 10
392.1751794433999
 20
56.46127075199999
 10
392.2376770019998
 20
56.77376495359999
 10
392.2376770019998
 20
57.08626556399999
 10
392.1751794433999
 20
57.3987661743
 10
392.0501843262
 20
57.5862652588
 10
391.9251635742
 20
57.7112667847
 10
391.800168457
 20
57.773770752
 10
391.6126757812999
 20
57.8362683105
  0
LINE
  5
61F
330
101
100
AcDbEntity
  8
3_ALL_SYMBOLS
  6
Continuous
 62
     2
100
AcDbLine
 10
392.8001806641
 20
57.8362683105
 30
0.0
 11
392.8001806641
 21
56.33626922609999
 31
0.0
  0
LINE
  5
620
330
101
100
AcDbEntity
  8
3_ALL_SYMBOLS
  6
Continuous
 62
     2
100
AcDbLine
 10
392.6126879883
 20
56.1487701416
 30
0.0
 11
393.6751721191
 21
56.77376495359999
 31
0.0
  0
LINE
  5
621
330
101
100
AcDbEntity
  8
3_ALL_SYMBOLS
  6
Continuous
 62
     2
100
AcDbLine
 10
392.8001806641
 20
56.33626922609999
 30
0.0
 11
392.8001806641
 21
56.2737652588
 31
0.0
  0
LINE
  5
622
330
101
100
AcDbEntity
  8
3_ALL_SYMBOLS
  6
Continuous
 62
     2
100
AcDbLine
 10
393.112668457
 20
57.773770752
 30
0.0
 11
393.6751721191
 21
57.08626556399999
 31
0.0
  0
LWPOLYLINE
  5
623
330
101
100
AcDbEntity
  8
3_ALL_SYMBOLS
  6
Continuous
 62
     2
100
AcDbPolyline
 90
        7
 70
     0
 43
0.0
 10
392.9876733398
 20
56.0237686157
 10
393.4251818848
 20
56.1487701416
 10
393.7376696776999
 20
56.2737652588
 10
393.9251879883
 20
56.46127075199999
 10
394.0501831055
 20
56.711267395
 10
394.1751782226999
 20
57.1487695312
 10
394.1751782226999
 20
57.8362683105
  0
LINE
  5
62C
330
101
100
AcDbEntity
  8
3_ALL_SYMBOLS
  6
Continuous
 62
     2
100
AcDbLine
 10
394.0501831055
 20
56.711267395
 30
0.0
 11
394.4251684569998
 21
56.0237686157
 31
0.0
  0
LINE
  5
62D
330
101
100
AcDbEntity
  8
3_ALL_SYMBOLS
  6
Continuous
 62
     2
100
AcDbLine
 10
394.6126867675999
 20
57.6487692261
 30
0.0
 11
396.3626696776998
 21
57.6487692261
 31
0.0
  0
LINE
  5
62E
330
101
100
AcDbEntity
  8
3_ALL_SYMBOLS
  6
Continuous
 62
     2
100
AcDbLine
 10
395.4251806641
 20
57.6487692261
 30
0.0
 11
395.4251806641
 21
56.0237686157
 31
0.0
  0
LINE
  5
62F
330
101
100
AcDbEntity
  8
3_ALL_SYMBOLS
  6
Continuous
 62
     2
100
AcDbLine
 10
395.4251806641
 20
57.3362686157
 30
0.0
 11
396.2376745605
 21
56.711267395
 31
0.0
  0
LINE
  5
630
330
101
100
AcDbEntity
  8
3_ALL_SYMBOLS
  6
Continuous
 62
     2
100
AcDbLine
 10
398.8626745605
 20
56.9612704468
 30
0.0
 11
400.1126770019999
 21
56.9612704468
 31
0.0
  0
LINE
  5
631
330
101
100
AcDbEntity
  8
3_ALL_SYMBOLS
  6
Continuous
 62
     2
100
AcDbLine
 10
399.4876757812999
 20
57.5237677002
 30
0.0
 11
399.4876757812999
 21
56.3987667847
 31
0.0
  0
LINE
  5
632
330
101
100
AcDbEntity
  8
3_ALL_SYMBOLS
  6
Continuous
 62
     2
100
AcDbLine
 10
398.8626745605
 20
56.2737652588
 30
0.0
 11
400.1126770019999
 21
56.2737652588
 31
0.0
  0
LWPOLYLINE
  5
633
330
101
100
AcDbEntity
  8
3_ALL_SYMBOLS
  6
Continuous
 62
     2
100
AcDbPolyline
 90
       19
 70
     0
 43
0.0
 10
400.8001757813
 20
57.3987661743
 10
400.8626733398
 20
57.5237677002
 10
400.987668457
 20
57.6487692261
 10
401.1751867675998
 20
57.773770752
 10
401.4251770019998
 20
57.8362683105
 10
401.6751672362999
 20
57.8362683105
 10
401.9251831055
 20
57.773770752
 10
402.1126757812996
 20
57.6487692261
 10
402.2376708983999
 20
57.46127014159998
 10
402.2376708983999
 20
57.2737646484
 10
402.1751733398
 20
57.1487695312
 10
402.0501782226999
 20
57.0237680054
 10
401.7376647948998
 20
56.8987664795
 10
401.4251770019998
 20
56.77376495359999
 10
401.1751867675998
 20
56.58626586909999
 10
400.987668457
 20
56.3987667847
 10
400.8626733398
 20
56.2112677002
 10
400.8001757813
 20
56.0237686157
 10
402.2376708983999
 20
56.0237686157
  0
LINE
  5
648
330
101
100
AcDbEntity
  8
3_ALL_SYMBOLS
  6
Continuous
 62
     2
100
AcDbLine
 10
402.7376770019999
 20
56.2112677002
 30
0.0
 11
402.8626721191
 21
56.2112677002
 31
0.0
  0
LWPOLYLINE
  5
649
330
101
100
AcDbEntity
  8
3_ALL_SYMBOLS
  6
Continuous
 62
     2
100
AcDbPolyline
 90
        6
 70
     0
 43
0.0
 10
402.8001745605
 20
56.2737652588
 10
402.8001745605
 20
56.1487701416
 10
402.7376770019999
 20
56.2112677002
 10
402.8001745605
 20
56.2737652588
 10
402.8626721191
 20
56.2112677002
 10
402.8001745605
 20
56.1487701416
  0
LINE
  5
651
330
101
100
AcDbEntity
  8
3_ALL_SYMBOLS
  6
Continuous
 62
     2
100
AcDbLine
 10
404.8001733398
 20
57.8362683105
 30
0.0
 11
406.237668457
 21
57.8362683105
 31
0.0
  0
LWPOLYLINE
  5
652
330
101
100
AcDbEntity
  8
3_ALL_SYMBOLS
  6
Continuous
 62
     2
100
AcDbPolyline
 90
       19
 70
     0
 43
0.0
 10
404.8001733398
 20
57.8362683105
 10
404.8001733398
 20
56.9612704468
 10
404.9876660156
 20
57.08626556399999
 10
405.1126867676
 20
57.1487695312
 10
405.3626770019999
 20
57.21126708979999
 10
405.6126672362998
 20
57.21126708979999
 10
405.8626831055
 20
57.1487695312
 10
406.0501757812999
 20
57.0237680054
 10
406.1751708983996
 20
56.8987664795
 10
406.237668457
 20
56.77376495359999
 10
406.237668457
 20
56.5237683105
 10
406.1751708983996
 20
56.33626922609999
 10
406.0501757812999
 20
56.2112677002
 10
405.8626831055
 20
56.0862661743
 10
405.6126672362998
 20
56.0237686157
 10
405.3626770019999
 20
56.0237686157
 10
405.1751843262
 20
56.0862661743
 10
404.9251684569996
 20
56.2112677002
 10
404.8001733398
 20
56.33626922609999
  0
LWPOLYLINE
  5
667
330
101
100
AcDbEntity
  8
3_ALL_SYMBOLS
  6
Continuous
 62
     2
100
AcDbPolyline
 90
        4
 70
     0
 43
0.0
 10
373.9251745605
 20
53.0237704468
 10
373.9251745605
 20
54.83627014159999
 10
372.7376696776999
 20
53.4612661743
 10
374.2376879883
 20
53.4612661743
  0
LWPOLYLINE
  5
66D
330
101
100
AcDbEntity
  8
3_ALL_SYMBOLS
  6
Continuous
 62
     2
100
AcDbPolyline
 90
       25
 70
     0
 43
0.0
 10
375.6126855469
 20
54.83627014159999
 10
375.4251672362999
 20
54.83627014159999
 10
375.2376745605
 20
54.7737661743
 10
375.1126794433998
 20
54.7112686157
 10
374.9876843262
 20
54.58626708979999
 10
374.8626635741999
 20
54.3987680054
 10
374.8001660156
 20
54.086267395
 10
374.8001660156
 20
53.7737667847
 10
374.8626635741999
 20
53.4612661743
 10
374.9876843262
 20
53.2737670898
 10
375.1126794433998
 20
53.14876556399999
 10
375.2376745605
 20
53.0862680054
 10
375.4251672362999
 20
53.0237704468
 10
375.6126855469
 20
53.0237704468
 10
375.8001782226999
 20
53.0862680054
 10
375.9251733398
 20
53.14876556399999
 10
376.0501684569998
 20
53.2737670898
 10
376.1751635741999
 20
53.4612661743
 10
376.2376867676
 20
53.7737667847
 10
376.2376867676
 20
54.086267395
 10
376.1751635741999
 20
54.3987680054
 10
376.0501684569998
 20
54.58626708979999
 10
375.9251733398
 20
54.7112686157
 10
375.8001782226999
 20
54.7737661743
 10
375.6126855469
 20
54.83627014159999
  0
LWPOLYLINE
  5
688
330
101
100
AcDbEntity
  8
3_ALL_SYMBOLS
  6
Continuous
 62
     2
100
AcDbPolyline
 90
       25
 70
     0
 43
0.0
 10
377.6126843262
 20
54.83627014159999
 10
377.4251660156
 20
54.83627014159999
 10
377.2376733398
 20
54.7737661743
 10
377.1126782226999
 20
54.7112686157
 10
376.9876831055
 20
54.58626708979999
 10
376.8626879883
 20
54.3987680054
 10
376.8001647948999
 20
54.086267395
 10
376.8001647948999
 20
53.7737667847
 10
376.8626879883
 20
53.4612661743
 10
376.9876831055
 20
53.2737670898
 10
377.1126782226999
 20
53.14876556399999
 10
377.2376733398
 20
53.0862680054
 10
377.4251660156
 20
53.0237704468
 10
377.6126843262
 20
53.0237704468
 10
377.8001770019999
 20
53.0862680054
 10
377.9251721191
 20
53.14876556399999
 10
378.0501672362999
 20
53.2737670898
 10
378.1751879883
 20
53.4612661743
 10
378.2376855469
 20
53.7737667847
 10
378.2376855469
 20
54.086267395
 10
378.1751879883
 20
54.3987680054
 10
378.0501672362999
 20
54.58626708979999
 10
377.9251721191
 20
54.7112686157
 10
377.8001770019999
 20
54.7737661743
 10
377.6126843262
 20
54.83627014159999
  0
LINE
  5
6A3
330
101
100
AcDbEntity
  8
3_ALL_SYMBOLS
  6
Continuous
 62
     2
100
AcDbLine
 10
378.7376660155999
 20
54.52376953119999
 30
0.0
 11
380.3626794433998
 21
54.52376953119999
 31
0.0
  0
LINE
  5
6A4
330
101
100
AcDbEntity
  8
3_ALL_SYMBOLS
  6
Continuous
 62
     2
100
AcDbLine
 10
379.4876879883
 20
54.83627014159999
 30
0.0
 11
378.8001635741999
 21
53.6487652588
 31
0.0
  0
LWPOLYLINE
  5
6A5
330
101
100
AcDbEntity
  8
3_ALL_SYMBOLS
  6
Continuous
 62
     2
100
AcDbPolyline
 90
        7
 70
     0
 43
0.0
 10
378.9876818848
 20
53.9612658691
 10
379.3626672362999
 20
54.14876495359999
 10
379.5501855469
 20
54.21126892090001
 10
379.7376782226999
 20
54.21126892090001
 10
379.8626733398
 20
54.14876495359999
 10
379.9251708983998
 20
53.9612658691
 10
379.9251708983998
 20
53.3987686157
  0
LWPOLYLINE
  5
6AE
330
101
100
AcDbEntity
  8
3_ALL_SYMBOLS
  6
Continuous
 62
     2
100
AcDbPolyline
 90
        9
 70
     0
 43
0.0
 10
380.4251770019998
 20
53.9612658691
 10
379.9251708983998
 20
53.83627075199999
 10
379.4876879883
 20
53.6487652588
 10
379.3001696776999
 20
53.4612661743
 10
379.2376721191
 20
53.3362646484
 10
379.2376721191
 20
53.2112695312
 10
379.4251647948998
 20
53.0862680054
 10
379.8001757812999
 20
53.0237704468
 10
380.3001818848
 20
53.0237704468
  0
LWPOLYLINE
  5
6B9
330
101
100
AcDbEntity
  8
3_ALL_SYMBOLS
  6
Continuous
 62
     2
100
AcDbPolyline
 90
        5
 70
     0
 43
0.0
 10
380.8626855469
 20
54.6487646484
 10
381.4251635741999
 20
54.6487646484
 10
381.8001745605
 20
54.58626708979999
 10
382.0501647948999
 20
54.46126556399999
 10
381.6751794433999
 20
54.21126892090001
  0
LWPOLYLINE
  5
6C0
330
101
100
AcDbEntity
  8
3_ALL_SYMBOLS
  6
Continuous
 62
     2
100
AcDbPolyline
 90
        9
 70
     0
 43
0.0
 10
380.9876806641
 20
53.83627075199999
 10
380.7376647948998
 20
53.5862677002
 10
380.6751672362999
 20
53.4612661743
 10
380.6751672362999
 20
53.2737670898
 10
380.8001879883
 20
53.14876556399999
 10
381.1126757812999
 20
53.0862680054
 10
381.5501843262
 20
53.0237704468
 10
381.9251696776999
 20
53.0237704468
 10
382.3626782226999
 20
53.0862680054
  0
LINE
  5
6CB
330
101
100
AcDbEntity
  8
3_ALL_SYMBOLS
  6
Continuous
 62
     2
100
AcDbLine
 10
383.2376696776999
 20
54.7737661743
 30
0.0
 11
384.1751843262
 21
54.6487646484
 31
0.0
  0
LWPOLYLINE
  5
6CC
330
101
100
AcDbEntity
  8
3_ALL_SYMBOLS
  6
Continuous
 62
     2
100
AcDbPolyline
 90
       12
 70
     0
 43
0.0
 10
382.9251818848
 20
54.3362704468
 10
384.1126867675999
 20
54.3362704468
 10
382.6751660155999
 20
53.0862680054
 10
383.3626647948999
 20
53.5862677002
 10
383.5501831055
 20
53.6487652588
 10
383.6751782226999
 20
53.6487652588
 10
383.7376757812999
 20
53.5862677002
 10
383.7376757812999
 20
53.4612661743
 10
383.7376757812999
 20
53.2112695312
 10
383.8001733398
 20
53.0862680054
 10
383.9876660155999
 20
53.0237704468
 10
384.4251745605
 20
53.0237704468
  0
LWPOLYLINE
  5
6DA
330
101
100
AcDbEntity
  8
3_ALL_SYMBOLS
  6
Continuous
 62
     2
100
AcDbPolyline
 90
        3
 70
     0
 43
0.0
 10
385.6751770019998
 20
53.0237704468
 10
385.6751770019998
 20
54.83627014159999
 10
385.1751708984
 20
54.3362704468
  0
LWPOLYLINE
  5
6DF
330
101
100
AcDbEntity
  8
3_ALL_SYMBOLS
  6
Continuous
 62
     2
100
AcDbPolyline
 90
       25
 70
     0
 43
0.0
 10
387.6126782226999
 20
54.83627014159999
 10
387.4251855469
 20
54.83627014159999
 10
387.2376672362999
 20
54.7737661743
 10
387.1126721191
 20
54.7112686157
 10
386.9876770019999
 20
54.58626708979999
 10
386.8626818848
 20
54.3987680054
 10
386.8001843262
 20
54.086267395
 10
386.8001843262
 20
53.7737667847
 10
386.8626818848
 20
53.4612661743
 10
386.9876770019999
 20
53.2737670898
 10
387.1126721191
 20
53.14876556399999
 10
387.2376672362999
 20
53.0862680054
 10
387.4251855469
 20
53.0237704468
 10
387.6126782226999
 20
53.0237704468
 10
387.8001708983998
 20
53.0862680054
 10
387.9251660156
 20
53.14876556399999
 10
388.0501867676
 20
53.2737670898
 10
388.1751818848
 20
53.4612661743
 10
388.2376794433998
 20
53.7737667847
 10
388.2376794433998
 20
54.086267395
 10
388.1751818848
 20
54.3987680054
 10
388.0501867676
 20
54.58626708979999
 10
387.9251660156
 20
54.7112686157
 10
387.8001708983998
 20
54.7737661743
 10
387.6126782226999
 20
54.83627014159999
  0
LWPOLYLINE
  5
6FA
330
101
100
AcDbEntity
  8
3_ALL_SYMBOLS
  6
Continuous
 62
     2
100
AcDbPolyline
 90
       25
 70
     0
 43
0.0
 10
389.6126770019998
 20
54.83627014159999
 10
389.4251843262
 20
54.83627014159999
 10
389.2376660156
 20
54.7737661743
 10
389.1126708983998
 20
54.7112686157
 10
388.9876757812999
 20
54.58626708979999
 10
388.8626806641
 20
54.3987680054
 10
388.8001831055
 20
54.086267395
 10
388.8001831055
 20
53.7737667847
 10
388.8626806641
 20
53.4612661743
 10
388.9876757812999
 20
53.2737670898
 10
389.1126708983998
 20
53.14876556399999
 10
389.2376660156
 20
53.0862680054
 10
389.4251843262
 20
53.0237704468
 10
389.6126770019998
 20
53.0237704468
 10
389.8001696776999
 20
53.0862680054
 10
389.9251647948998
 20
53.14876556399999
 10
390.0501855469
 20
53.2737670898
 10
390.1751806641
 20
53.4612661743
 10
390.2376782226999
 20
53.7737667847
 10
390.2376782226999
 20
54.086267395
 10
390.1751806641
 20
54.3987680054
 10
390.0501855469
 20
54.58626708979999
 10
389.9251647948998
 20
54.7112686157
 10
389.8001696776999
 20
54.7737661743
 10
389.6126770019998
 20
54.83627014159999
  0
LWPOLYLINE
  5
715
330
101
100
AcDbEntity
  8
3_ALL_SYMBOLS
  6
Continuous
 62
     2
100
AcDbPolyline
 90
       25
 70
     0
 43
0.0
 10
391.6126757812999
 20
54.83627014159999
 10
391.4251831055
 20
54.83627014159999
 10
391.2376647948999
 20
54.7737661743
 10
391.1126696776999
 20
54.7112686157
 10
390.9876745605
 20
54.58626708979999
 10
390.8626794433999
 20
54.3987680054
 10
390.8001818848
 20
54.086267395
 10
390.8001818848
 20
53.7737667847
 10
390.8626794433999
 20
53.4612661743
 10
390.9876745605
 20
53.2737670898
 10
391.1126696776999
 20
53.14876556399999
 10
391.2376647948999
 20
53.0862680054
 10
391.4251831055
 20
53.0237704468
 10
391.6126757812999
 20
53.0237704468
 10
391.800168457
 20
53.0862680054
 10
391.9251635742
 20
53.14876556399999
 10
392.0501843262
 20
53.2737670898
 10
392.1751794433999
 20
53.4612661743
 10
392.2376770019998
 20
53.7737667847
 10
392.2376770019998
 20
54.086267395
 10
392.1751794433999
 20
54.3987680054
 10
392.0501843262
 20
54.58626708979999
 10
391.9251635742
 20
54.7112686157
 10
391.800168457
 20
54.7737661743
 10
391.6126757812999
 20
54.83627014159999
  0
LINE
  5
730
330
101
100
AcDbEntity
  8
3_ALL_SYMBOLS
  6
Continuous
 62
     2
100
AcDbLine
 10
392.8001806641
 20
54.83627014159999
 30
0.0
 11
392.8001806641
 21
53.3362646484
 31
0.0
  0
LINE
  5
731
330
101
100
AcDbEntity
  8
3_ALL_SYMBOLS
  6
Continuous
 62
     2
100
AcDbLine
 10
392.6126879883
 20
53.14876556399999
 30
0.0
 11
393.6751721191
 21
53.7737667847
 31
0.0
  0
LINE
  5
732
330
101
100
AcDbEntity
  8
3_ALL_SYMBOLS
  6
Continuous
 62
     2
100
AcDbLine
 10
392.8001806641
 20
53.3362646484
 30
0.0
 11
392.8001806641
 21
53.2737670898
 31
0.0
  0
LINE
  5
733
330
101
100
AcDbEntity
  8
3_ALL_SYMBOLS
  6
Continuous
 62
     2
100
AcDbLine
 10
393.112668457
 20
54.7737661743
 30
0.0
 11
393.6751721191
 21
54.086267395
 31
0.0
  0
LWPOLYLINE
  5
734
330
101
100
AcDbEntity
  8
3_ALL_SYMBOLS
  6
Continuous
 62
     2
100
AcDbPolyline
 90
        7
 70
     0
 43
0.0
 10
392.9876733398
 20
53.0237704468
 10
393.4251818848
 20
53.14876556399999
 10
393.7376696776999
 20
53.2737670898
 10
393.9251879883
 20
53.4612661743
 10
394.0501831055
 20
53.71126922609999
 10
394.1751782226999
 20
54.14876495359999
 10
394.1751782226999
 20
54.83627014159999
  0
LINE
  5
73D
330
101
100
AcDbEntity
  8
3_ALL_SYMBOLS
  6
Continuous
 62
     2
100
AcDbLine
 10
394.0501831055
 20
53.71126922609999
 30
0.0
 11
394.4251684569998
 21
53.0237704468
 31
0.0
  0
LINE
  5
73E
330
101
100
AcDbEntity
  8
3_ALL_SYMBOLS
  6
Continuous
 62
     2
100
AcDbLine
 10
394.6126867675999
 20
54.6487646484
 30
0.0
 11
396.3626696776998
 21
54.6487646484
 31
0.0
  0
LINE
  5
73F
330
101
100
AcDbEntity
  8
3_ALL_SYMBOLS
  6
Continuous
 62
     2
100
AcDbLine
 10
395.4251806641
 20
54.6487646484
 30
0.0
 11
395.4251806641
 21
53.0237704468
 31
0.0
  0
LINE
  5
740
330
101
100
AcDbEntity
  8
3_ALL_SYMBOLS
  6
Continuous
 62
     2
100
AcDbLine
 10
395.4251806641
 20
54.3362704468
 30
0.0
 11
396.2376745605
 21
53.71126922609999
 31
0.0
  0
LINE
  5
741
330
101
100
AcDbEntity
  8
3_ALL_SYMBOLS
  6
Continuous
 62
     2
100
AcDbLine
 10
398.8626745605
 20
53.9612658691
 30
0.0
 11
400.1126770019999
 21
53.9612658691
 31
0.0
  0
LINE
  5
742
330
101
100
AcDbEntity
  8
3_ALL_SYMBOLS
  6
Continuous
 62
     2
100
AcDbLine
 10
399.4876757812999
 20
54.52376953119999
 30
0.0
 11
399.4876757812999
 21
53.3987686157
 31
0.0
  0
LINE
  5
743
330
101
100
AcDbEntity
  8
3_ALL_SYMBOLS
  6
Continuous
 62
     2
100
AcDbLine
 10
398.8626745605
 20
53.2737670898
 30
0.0
 11
400.1126770019999
 21
53.2737670898
 31
0.0
  0
LWPOLYLINE
  5
744
330
101
100
AcDbEntity
  8
3_ALL_SYMBOLS
  6
Continuous
 62
     2
100
AcDbPolyline
 90
        4
 70
     0
 43
0.0
 10
401.9251831055
 20
53.0237704468
 10
401.9251831055
 20
54.83627014159999
 10
400.7376782226999
 20
53.4612661743
 10
402.2376708983999
 20
53.4612661743
  0
LWPOLYLINE
  5
74A
330
101
100
AcDbEntity
  8
3_ALL_SYMBOLS
  6
Continuous
 62
     2
100
AcDbPolyline
 90
        3
 70
     0
 43
0.0
 10
371.6751855469
 20
50.02376586909999
 10
371.6751855469
 20
51.836265564
 10
371.1751794433999
 20
51.3362658691
  0
LWPOLYLINE
  5
74F
330
101
100
AcDbEntity
  8
3_ALL_SYMBOLS
  6
Continuous
 62
     2
100
AcDbPolyline
 90
       25
 70
     0
 43
0.0
 10
373.6126867675999
 20
51.836265564
 10
373.4251684569998
 20
51.836265564
 10
373.2376757812999
 20
51.7737680054
 10
373.1126806641
 20
51.7112704468
 10
372.9876855469
 20
51.5862689209
 10
372.8626647948999
 20
51.3987698364
 10
372.8001672362998
 20
51.0862692261
 10
372.8001672362998
 20
50.7737686157
 10
372.8626647948999
 20
50.4612680054
 10
372.9876855469
 20
50.2737689209
 10
373.1126806641
 20
50.148767395
 10
373.2376757812999
 20
50.08626983640001
 10
373.4251684569998
 20
50.02376586909999
 10
373.6126867675999
 20
50.02376586909999
 10
373.8001794433998
 20
50.08626983640001
 10
373.9251745605
 20
50.148767395
 10
374.0501696776998
 20
50.2737689209
 10
374.1751647948999
 20
50.4612680054
 10
374.2376879883
 20
50.7737686157
 10
374.2376879883
 20
51.0862692261
 10
374.1751647948999
 20
51.3987698364
 10
374.0501696776998
 20
51.5862689209
 10
373.9251745605
 20
51.7112704468
 10
373.8001794433998
 20
51.7737680054
 10
373.6126867675999
 20
51.836265564
  0
LWPOLYLINE
  5
76A
330
101
100
AcDbEntity
  8
3_ALL_SYMBOLS
  6
Continuous
 62
     2
100
AcDbPolyline
 90
       25
 70
     0
 43
0.0
 10
375.6126855469
 20
51.836265564
 10
375.4251672362999
 20
51.836265564
 10
375.2376745605
 20
51.7737680054
 10
375.1126794433998
 20
51.7112704468
 10
374.9876843262
 20
51.5862689209
 10
374.8626635741999
 20
51.3987698364
 10
374.8001660156
 20
51.0862692261
 10
374.8001660156
 20
50.7737686157
 10
374.8626635741999
 20
50.4612680054
 10
374.9876843262
 20
50.2737689209
 10
375.1126794433998
 20
50.148767395
 10
375.2376745605
 20
50.08626983640001
 10
375.4251672362999
 20
50.02376586909999
 10
375.6126855469
 20
50.02376586909999
 10
375.8001782226999
 20
50.08626983640001
 10
375.9251733398
 20
50.148767395
 10
376.0501684569998
 20
50.2737689209
 10
376.1751635741999
 20
50.4612680054
 10
376.2376867676
 20
50.7737686157
 10
376.2376867676
 20
51.0862692261
 10
376.1751635741999
 20
51.3987698364
 10
376.0501684569998
 20
51.5862689209
 10
375.9251733398
 20
51.7112704468
 10
375.8001782226999
 20
51.7737680054
 10
375.6126855469
 20
51.836265564
  0
LWPOLYLINE
  5
785
330
101
100
AcDbEntity
  8
3_ALL_SYMBOLS
  6
Continuous
 62
     2
100
AcDbPolyline
 90
       25
 70
     0
 43
0.0
 10
377.6126843262
 20
51.836265564
 10
377.4251660156
 20
51.836265564
 10
377.2376733398
 20
51.7737680054
 10
377.1126782226999
 20
51.7112704468
 10
376.9876831055
 20
51.5862689209
 10
376.8626879883
 20
51.3987698364
 10
376.8001647948999
 20
51.0862692261
 10
376.8001647948999
 20
50.7737686157
 10
376.8626879883
 20
50.4612680054
 10
376.9876831055
 20
50.2737689209
 10
377.1126782226999
 20
50.148767395
 10
377.2376733398
 20
50.08626983640001
 10
377.4251660156
 20
50.02376586909999
 10
377.6126843262
 20
50.02376586909999
 10
377.8001770019999
 20
50.08626983640001
 10
377.9251721191
 20
50.148767395
 10
378.0501672362999
 20
50.2737689209
 10
378.1751879883
 20
50.4612680054
 10
378.2376855469
 20
50.7737686157
 10
378.2376855469
 20
51.0862692261
 10
378.1751879883
 20
51.3987698364
 10
378.0501672362999
 20
51.5862689209
 10
377.9251721191
 20
51.7112704468
 10
377.8001770019999
 20
51.7737680054
 10
377.6126843262
 20
51.836265564
  0
LINE
  5
7A0
330
101
100
AcDbEntity
  8
3_ALL_SYMBOLS
  6
Continuous
 62
     2
100
AcDbLine
 10
378.7376660155999
 20
51.52376495359999
 30
0.0
 11
380.3626794433998
 21
51.52376495359999
 31
0.0
  0
LINE
  5
7A1
330
101
100
AcDbEntity
  8
3_ALL_SYMBOLS
  6
Continuous
 62
     2
100
AcDbLine
 10
379.4876879883
 20
51.836265564
 30
0.0
 11
378.8001635741999
 21
50.64876708979999
 31
0.0
  0
LWPOLYLINE
  5
7A2
330
101
100
AcDbEntity
  8
3_ALL_SYMBOLS
  6
Continuous
 62
     2
100
AcDbPolyline
 90
        7
 70
     0
 43
0.0
 10
378.9876818848
 20
50.9612677002
 10
379.3626672362999
 20
51.1487667847
 10
379.5501855469
 20
51.211270752
 10
379.7376782226999
 20
51.211270752
 10
379.8626733398
 20
51.1487667847
 10
379.9251708983998
 20
50.9612677002
 10
379.9251708983998
 20
50.3987704468
  0
LWPOLYLINE
  5
7AB
330
101
100
AcDbEntity
  8
3_ALL_SYMBOLS
  6
Continuous
 62
     2
100
AcDbPolyline
 90
        9
 70
     0
 43
0.0
 10
380.4251770019998
 20
50.9612677002
 10
379.9251708983998
 20
50.8362661743
 10
379.4876879883
 20
50.64876708979999
 10
379.3001696776999
 20
50.4612680054
 10
379.2376721191
 20
50.3362664795
 10
379.2376721191
 20
50.21126495359999
 10
379.4251647948998
 20
50.08626983640001
 10
379.8001757812999
 20
50.02376586909999
 10
380.3001818848
 20
50.02376586909999
  0
LWPOLYLINE
  5
7B6
330
101
100
AcDbEntity
  8
3_ALL_SYMBOLS
  6
Continuous
 62
     2
100
AcDbPolyline
 90
        5
 70
     0
 43
0.0
 10
380.8626855469
 20
51.64876647949999
 10
381.4251635741999
 20
51.64876647949999
 10
381.8001745605
 20
51.5862689209
 10
382.0501647948999
 20
51.461267395
 10
381.6751794433999
 20
51.211270752
  0
LWPOLYLINE
  5
7BD
330
101
100
AcDbEntity
  8
3_ALL_SYMBOLS
  6
Continuous
 62
     2
100
AcDbPolyline
 90
        9
 70
     0
 43
0.0
 10
380.9876806641
 20
50.8362661743
 10
380.7376647948998
 20
50.5862695312
 10
380.6751672362999
 20
50.4612680054
 10
380.6751672362999
 20
50.2737689209
 10
380.8001879883
 20
50.148767395
 10
381.1126757812999
 20
50.08626983640001
 10
381.5501843262
 20
50.02376586909999
 10
381.9251696776999
 20
50.02376586909999
 10
382.3626782226999
 20
50.08626983640001
  0
LINE
  5
7C8
330
101
100
AcDbEntity
  8
3_ALL_SYMBOLS
  6
Continuous
 62
     2
100
AcDbLine
 10
383.2376696776999
 20
51.7737680054
 30
0.0
 11
384.1751843262
 21
51.64876647949999
 31
0.0
  0
LWPOLYLINE
  5
7C9
330
101
100
AcDbEntity
  8
3_ALL_SYMBOLS
  6
Continuous
 62
     2
100
AcDbPolyline
 90
       12
 70
     0
 43
0.0
 10
382.9251818848
 20
51.3362658691
 10
384.1126867675999
 20
51.3362658691
 10
382.6751660155999
 20
50.08626983640001
 10
383.3626647948999
 20
50.5862695312
 10
383.5501831055
 20
50.64876708979999
 10
383.6751782226999
 20
50.64876708979999
 10
383.7376757812999
 20
50.5862695312
 10
383.7376757812999
 20
50.4612680054
 10
383.7376757812999
 20
50.21126495359999
 10
383.8001733398
 20
50.08626983640001
 10
383.9876660155999
 20
50.02376586909999
 10
384.4251745605
 20
50.02376586909999
  0
LWPOLYLINE
  5
7D7
330
101
100
AcDbEntity
  8
3_ALL_SYMBOLS
  6
Continuous
 62
     2
100
AcDbPolyline
 90
       25
 70
     0
 43
0.0
 10
384.9251806641
 20
51.64876647949999
 10
386.0501879883
 20
51.64876647949999
 10
384.7376879883
 20
50.7112646484
 10
385.4251867676
 20
51.0862692261
 10
385.8001721191
 20
51.1487667847
 10
386.1126855469
 20
51.1487667847
 10
386.3001782226999
 20
51.0862692261
 10
386.4251733398
 20
50.89877014159998
 10
386.4251733398
 20
50.7112646484
 10
386.4251733398
 20
50.64876708979999
 10
386.3626757812999
 20
50.52376556399999
 10
386.2376806641
 20
50.3362664795
 10
386.0501879883
 20
50.21126495359999
 10
385.8001721191
 20
50.148767395
 10
385.4876843262
 20
50.148767395
 10
385.2376684569998
 20
50.21126495359999
 10
385.0501757812999
 20
50.3362664795
 10
384.9876782226999
 20
50.3987704468
 10
384.9876782226999
 20
50.4612680054
 10
385.0501757812999
 20
50.52376556399999
 10
385.1751708984
 20
50.5862695312
 10
385.3626635742
 20
50.5862695312
 10
385.5501818848
 20
50.52376556399999
 10
385.6751770019998
 20
50.3987704468
 10
385.8001721191
 20
50.148767395
  0
LINE
  5
7F2
330
101
100
AcDbEntity
  8
3_ALL_SYMBOLS
  6
Continuous
 62
     2
100
AcDbLine
 10
386.7376867676
 20
51.461267395
 30
0.0
 11
388.0501867676
 21
51.461267395
 31
0.0
  0
LWPOLYLINE
  5
7F3
330
101
100
AcDbEntity
  8
3_ALL_SYMBOLS
  6
Continuous
 62
     2
100
AcDbPolyline
 90
        7
 70
     0
 43
0.0
 10
386.8001843262
 20
51.1487667847
 10
386.6751635741999
 20
51.0237652588
 10
386.6126660156
 20
50.9612677002
 10
386.6126660156
 20
50.89877014159998
 10
386.6751635741999
 20
50.8362661743
 10
387.2376672362999
 20
50.7737686157
 10
387.8626684569998
 20
50.89877014159998
  0
LWPOLYLINE
  5
7FC
330
101
100
AcDbEntity
  8
3_ALL_SYMBOLS
  6
Continuous
 62
     2
100
AcDbPolyline
 90
       11
 70
     0
 43
0.0
 10
387.3001647948999
 20
51.836265564
 10
387.1751696776998
 20
50.21126495359999
 10
387.1751696776998
 20
50.148767395
 10
387.2376672362999
 20
50.08626983640001
 10
387.3626879883
 20
50.02376586909999
 10
388.1126843262
 20
50.02376586909999
 10
388.2376794433998
 20
50.148767395
 10
388.3001770019999
 20
50.2737689209
 10
388.3001770019999
 20
50.3987704468
 10
388.2376794433998
 20
50.5862695312
 10
388.1126843262
 20
50.89877014159998
  0
LWPOLYLINE
  5
809
330
101
100
AcDbEntity
  8
3_ALL_SYMBOLS
  6
Continuous
 62
     2
100
AcDbPolyline
 90
       23
 70
     0
 43
0.0
 10
389.6126770019998
 20
51.64876647949999
 10
389.5501794433998
 20
51.0862692261
 10
389.4251843262
 20
50.52376556399999
 10
389.3001635741999
 20
50.21126495359999
 10
389.1751684569998
 20
50.08626983640001
 10
389.0501733398
 20
50.08626983640001
 10
388.8626806641
 20
50.21126495359999
 10
388.8001831055
 20
50.4612680054
 10
388.7376855469
 20
50.7112646484
 10
388.7376855469
 20
51.0237652588
 10
388.8626806641
 20
51.3987698364
 10
389.1751684569998
 20
51.64876647949999
 10
389.6126770019998
 20
51.64876647949999
 10
389.9251647948998
 20
51.5862689209
 10
390.1751806641
 20
51.461267395
 10
390.3626733398
 20
51.211270752
 10
390.4251708983998
 20
50.9612677002
 10
390.4251708983998
 20
50.64876708979999
 10
390.3626733398
 20
50.4612680054
 10
390.2376782226999
 20
50.2737689209
 10
390.0501855469
 20
50.148767395
 10
389.8626672362999
 20
50.08626983640001
 10
389.6126770019998
 20
50.02376586909999
  0
LINE
  5
822
330
101
100
AcDbEntity
  8
3_ALL_SYMBOLS
  6
Continuous
 62
     2
100
AcDbLine
 10
398.8626745605
 20
50.9612677002
 30
0.0
 11
400.1126770019999
 21
50.9612677002
 31
0.0
  0
LINE
  5
823
330
101
100
AcDbEntity
  8
3_ALL_SYMBOLS
  6
Continuous
 62
     2
100
AcDbLine
 10
399.4876757812999
 20
51.52376495359999
 30
0.0
 11
399.4876757812999
 21
50.3987704468
 31
0.0
  0
LINE
  5
824
330
101
100
AcDbEntity
  8
3_ALL_SYMBOLS
  6
Continuous
 62
     2
100
AcDbLine
 10
398.8626745605
 20
50.2737689209
 30
0.0
 11
400.1126770019999
 21
50.2737689209
 31
0.0
  0
LWPOLYLINE
  5
825
330
101
100
AcDbEntity
  8
3_ALL_SYMBOLS
  6
Continuous
 62
     2
100
AcDbPolyline
 90
       30
 70
     0
 43
0.0
 10
402.2376708983999
 20
51.461267395
 10
402.1126757812996
 20
51.64876647949999
 10
401.9251831055
 20
51.7737680054
 10
401.6751672362999
 20
51.836265564
 10
401.4876745605
 20
51.836265564
 10
401.2376843262
 20
51.7737680054
 10
401.0501660155999
 20
51.64876647949999
 10
400.9251708984
 20
51.461267395
 10
400.8001757813
 20
51.0862692261
 10
400.8001757813
 20
50.7112646484
 10
400.8626733398
 20
50.4612680054
 10
400.9251708984
 20
50.3362664795
 10
401.0501660155999
 20
50.21126495359999
 10
401.2376843262
 20
50.08626983640001
 10
401.4251770019998
 20
50.02376586909999
 10
401.6751672362999
 20
50.02376586909999
 10
401.9251831055
 20
50.08626983640001
 10
402.0501782226999
 20
50.148767395
 10
402.1751733398
 20
50.3362664795
 10
402.2376708983999
 20
50.52376556399999
 10
402.2376708983999
 20
50.7112646484
 10
402.1751733398
 20
50.89877014159998
 10
402.0501782226999
 20
51.0237652588
 10
401.8626855468999
 20
51.1487667847
 10
401.6751672362999
 20
51.211270752
 10
401.4251770019998
 20
51.211270752
 10
401.2376843262
 20
51.1487667847
 10
401.0501660155999
 20
51.0237652588
 10
400.9251708984
 20
50.89877014159998
 10
400.8001757813
 20
50.7112646484
  0
LINE
  5
845
330
101
100
AcDbEntity
  8
3_ALL_SYMBOLS
  6
Continuous
 62
     7
100
AcDbLine
 10
370.219538161
 20
49.22832318810001
 30
0.0
 11
370.219538161
 21
76.22832318810002
 31
0.0
  0
LINE
  5
846
330
101
100
AcDbEntity
  8
3_ALL_SYMBOLS
  6
Continuous
 62
     7
100
AcDbLine
 10
408.219538161
 20
49.22832318810001
 30
0.0
 11
370.219538161
 21
49.22832318810001
 31
0.0
  0
LINE
  5
847
330
101
100
AcDbEntity
  8
3_ALL_SYMBOLS
  6
Continuous
 62
     7
100
AcDbLine
 10
370.219538161
 20
52.2283231881
 30
0.0
 11
408.219538161
 21
52.2283231881
 31
0.0
  0
LINE
  5
848
330
101
100
AcDbEntity
  8
3_ALL_SYMBOLS
  6
Continuous
 62
     7
100
AcDbLine
 10
370.219538161
 20
55.2283231881
 30
0.0
 11
408.219538161
 21
55.2283231881
 31
0.0
  0
LINE
  5
849
330
101
100
AcDbEntity
  8
3_ALL_SYMBOLS
  6
Continuous
 62
     7
100
AcDbLine
 10
370.219538161
 20
58.2283231881
 30
0.0
 11
408.219538161
 21
58.2283231881
 31
0.0
  0
LINE
  5
84A
330
101
100
AcDbEntity
  8
3_ALL_SYMBOLS
  6
Continuous
 62
     7
100
AcDbLine
 10
370.219538161
 20
61.22832318810001
 30
0.0
 11
408.219538161
 21
61.22832318810001
 31
0.0
  0
LINE
  5
84B
330
101
100
AcDbEntity
  8
3_ALL_SYMBOLS
  6
Continuous
 62
     7
100
AcDbLine
 10
370.219538161
 20
64.22832318810001
 30
0.0
 11
408.219538161
 21
64.22832318810001
 31
0.0
  0
LINE
  5
84C
330
101
100
AcDbEntity
  8
3_ALL_SYMBOLS
  6
Continuous
 62
     7
100
AcDbLine
 10
370.219538161
 20
67.2283231881
 30
0.0
 11
408.219538161
 21
67.2283231881
 31
0.0
  0
LINE
  5
84D
330
101
100
AcDbEntity
  8
3_ALL_SYMBOLS
  6
Continuous
 62
     7
100
AcDbLine
 10
398.2195381609999
 20
70.2283231881
 30
0.0
 11
398.2195381609999
 21
49.22832318810001
 31
0.0
  0
LINE
  5
84E
330
101
100
AcDbEntity
  8
3_ALL_SYMBOLS
  6
Continuous
 62
     7
100
AcDbLine
 10
370.219538161
 20
70.2283231881
 30
0.0
 11
408.219538161
 21
70.2283231881
 31
0.0
  0
LINE
  5
84F
330
101
100
AcDbEntity
  8
3_ALL_SYMBOLS
  6
Continuous
 62
     7
100
AcDbLine
 10
370.219538161
 20
76.22832318810002
 30
0.0
 11
408.219538161
 21
76.22832318810002
 31
0.0
  0
LINE
  5
850
330
101
100
AcDbEntity
  8
3_ALL_SYMBOLS
  6
Continuous
 62
     7
100
AcDbLine
 10
408.219538161
 20
76.22832318810002
 30
0.0
 11
408.219538161
 21
49.22832318810001
 31
0.0
  0
ENDBLK
  5
851
330
101
100
AcDbEntity
  8
0
  6
ByBlock
 62
     0
100
AcDbBlockEnd
  0
BLOCK
  5
12B9
330
12AE
100
AcDbEntity
  8
0
100
AcDbBlockBegin
  2
*D15
 70
     1
 10
0.0
 20
0.0
 30
0.0
  3
*D15
  1

  0
LINE
  5
13AB
330
12AE
100
AcDbEntity
  8
___SHELL
 62
     0
370
    -2
100
AcDbLine
 10
93.8895327168
 20
151.3943575377
 30
0.0
 11
59.28672074580003
 21
151.3943575377
 31
0.0
  0
LINE
  5
13AC
330
12AE
100
AcDbEntity
  8
___SHELL
 62
     0
370
    -2
100
AcDbLine
 10
140.2169359643997
 20
43.3943575377
 30
0.0
 11
59.28672074579999
 21
43.39435753770002
 31
0.0
  0
LINE
  5
13AD
330
12AE
100
AcDbEntity
  8
___SHELL
 62
     0
370
    -2
100
AcDbLine
 10
60.28672074580002
 20
149.3943575377
 30
0.0
 11
60.28672074580001
 21
92.72053695319998
 31
0.0
  0
LINE
  5
13AE
330
12AE
100
AcDbEntity
  8
___SHELL
 62
     0
370
    -2
100
AcDbLine
 10
60.2867207458
 20
45.39435753770002
 30
0.0
 11
60.28672074580001
 21
88.22053695319999
 31
0.0
  0
INSERT
  5
13AF
330
12AE
100
AcDbEntity
  8
___SHELL
 62
     0
370
    -2
100
AcDbBlockReference
  2
_OPEN
 10
60.28672074580002
 20
151.3943575377
 30
0.0
 41
2.0
 42
2.0
 43
2.0
 50
90.0
  0
INSERT
  5
13B0
330
12AE
100
AcDbEntity
  8
___SHELL
 62
     0
370
    -2
100
AcDbBlockReference
  2
_OPEN
 10
60.2867207458
 20
43.39435753770002
 30
0.0
 41
2.0
 42
2.0
 43
2.0
 50
270.0
  0
MTEXT
  5
13B1
330
12AE
100
AcDbEntity
  8
___SHELL
 62
     0
100
AcDbMText
 10
60.2867207458
 20
90.4705369532
 30
0.0
 40
2.5
 41
0.0
 71
     5
 72
     1
  1
\A1;108
 73
     1
 44
1.0
  0
POINT
  5
13B2
330
12AE
100
AcDbEntity
  8
Defpoints
 62
     0
100
AcDbPoint
 10
94.88953271680001
 20
151.3943575377
 30
0.0
  0
POINT
  5
13B3
330
12AE
100
AcDbEntity
  8
Defpoints
 62
     0
100
AcDbPoint
 10
141.2169359643999
 20
43.3943575377
 30
0.0
  0
POINT
  5
13B4
330
12AE
100
AcDbEntity
  8
Defpoints
 62
     0
100
AcDbPoint
 10
60.2867207458
 20
43.39435753770002
 30
0.0
  0
ENDBLK
  5
12BA
330
12AE
100
AcDbEntity
  8
0
100
AcDbBlockEnd
  0
BLOCK
  5
12C6
330
12BB
100
AcDbEntity
  8
0
100
AcDbBlockBegin
  2
*D16
 70
     1
 10
0.0
 20
0.0
 30
0.0
  3
*D16
  1

  0
LINE
  5
13B5
330
12BB
100
AcDbEntity
  8
___SHELL
 62
     0
370
    -2
100
AcDbLine
 10
93.8895327168
 20
151.3943575377
 30
0.0
 11
69.64960934050002
 21
151.3943575377
 31
0.0
  0
LINE
  5
13B6
330
12BB
100
AcDbEntity
  8
___SHELL
 62
     0
370
    -2
100
AcDbLine
 10
85.06228024870003
 20
90.89435753770001
 30
0.0
 11
69.64960934050001
 21
90.89435753770001
 31
0.0
  0
LINE
  5
13B7
330
12BB
100
AcDbEntity
  8
___SHELL
 62
     0
370
    -2
100
AcDbLine
 10
70.64960934050001
 20
149.3943575377
 30
0.0
 11
70.64960934050001
 21
120.1358299367
 31
0.0
  0
LINE
  5
13B8
330
12BB
100
AcDbEntity
  8
___SHELL
 62
     0
370
    -2
100
AcDbLine
 10
70.64960934050001
 20
92.8943575377
 30
0.0
 11
70.64960934050001
 21
115.6358299366999
 31
0.0
  0
INSERT
  5
13B9
330
12BB
100
AcDbEntity
  8
___SHELL
 62
     0
370
    -2
100
AcDbBlockReference
  2
_OPEN
 10
70.64960934050001
 20
151.3943575377
 30
0.0
 41
2.0
 42
2.0
 43
2.0
 50
90.0
  0
INSERT
  5
13BA
330
12BB
100
AcDbEntity
  8
___SHELL
 62
     0
370
    -2
100
AcDbBlockReference
  2
_OPEN
 10
70.64960934050001
 20
90.89435753770001
 30
0.0
 41
2.0
 42
2.0
 43
2.0
 50
270.0
  0
MTEXT
  5
13BB
330
12BB
100
AcDbEntity
  8
___SHELL
 62
     0
100
AcDbMText
 10
70.64960934050001
 20
117.8858299367
 30
0.0
 40
2.5
 41
0.0
 71
     5
 72
     1
  1
\A1;61
 73
     1
 44
1.0
  0
POINT
  5
13BC
330
12BB
100
AcDbEntity
  8
Defpoints
 62
     0
100
AcDbPoint
 10
94.88953271680001
 20
151.3943575377
 30
0.0
  0
POINT
  5
13BD
330
12BB
100
AcDbEntity
  8
Defpoints
 62
     0
100
AcDbPoint
 10
86.0622802487
 20
90.89435753770001
 30
0.0
  0
POINT
  5
13BE
330
12BB
100
AcDbEntity
  8
Defpoints
 62
     0
100
AcDbPoint
 10
70.64960934050001
 20
90.89435753770001
 30
0.0
  0
ENDBLK
  5
12C7
330
12BB
100
AcDbEntity
  8
0
100
AcDbBlockEnd
  0
BLOCK
  5
12D3
330
12C8
100
AcDbEntity
  8
0
100
AcDbBlockBegin
  2
*D17
 70
     1
 10
0.0
 20
0.0
 30
0.0
  3
*D17
  1

  0
LINE
  5
1420
330
12C8
100
AcDbEntity
  8
___SHELL
 62
     0
370
    -2
100
AcDbLine
 10
145.7170359643999
 20
258.4515801975999
 30
0.0
 11
235.949912149
 21
258.4515801975999
 31
0.0
  0
LINE
  5
1421
330
12C8
100
AcDbEntity
  8
___SHELL
 62
     0
370
    -2
100
AcDbLine
 10
145.7170359643999
 20
174.9515801975999
 30
0.0
 11
235.949912149
 21
174.9515801975998
 31
0.0
  0
LINE
  5
1422
330
12C8
100
AcDbEntity
  8
___SHELL
 62
     0
370
    -2
100
AcDbLine
 10
234.949912149
 20
256.4515801975999
 30
0.0
 11
234.949912149
 21
176.9515801975998
 31
0.0
  0
INSERT
  5
1423
330
12C8
100
AcDbEntity
  8
___SHELL
 62
     0
370
    -2
100
AcDbBlockReference
  2
_OPEN
 10
234.949912149
 20
258.4515801975999
 30
0.0
 41
2.0
 42
2.0
 43
2.0
 50
90.0
  0
INSERT
  5
1424
330
12C8
100
AcDbEntity
  8
___SHELL
 62
     0
370
    -2
100
AcDbBlockReference
  2
_OPEN
 10
234.949912149
 20
174.9515801975998
 30
0.0
 41
2.0
 42
2.0
 43
2.0
 50
270.0
  0
MTEXT
  5
1425
330
12C8
100
AcDbEntity
  8
___SHELL
 62
     0
100
AcDbMText
 10
230.949912149
 20
210.4777381202999
 30
0.0
 40
2.5
 41
0.0
 71
     5
 72
     1
  1
\A1;83.5
 73
     1
 44
1.0
  0
POINT
  5
1426
330
12C8
100
AcDbEntity
  8
Defpoints
 62
     0
100
AcDbPoint
 10
144.7170359643999
 20
258.4515801975999
 30
0.0
  0
POINT
  5
1427
330
12C8
100
AcDbEntity
  8
Defpoints
 62
     0
100
AcDbPoint
 10
144.7170359643999
 20
174.9515801975999
 30
0.0
  0
POINT
  5
1428
330
12C8
100
AcDbEntity
  8
Defpoints
 62
     0
100
AcDbPoint
 10
234.949912149
 20
174.9515801975998
 30
0.0
  0
ENDBLK
  5
12D4
330
12C8
100
AcDbEntity
  8
0
100
AcDbBlockEnd
  0
BLOCK
  5
12E0
330
12D5
100
AcDbEntity
  8
0
100
AcDbBlockBegin
  2
*D18
 70
     1
 10
0.0
 20
0.0
 30
0.0
  3
*D18
  1

  0
LINE
  5
13C9
330
12D5
100
AcDbEntity
  8
___SHELL
 62
     0
370
    -2
100
AcDbLine
 10
150.7169359643999
 20
246.7015801975998
 30
0.0
 11
228.1278397208999
 21
246.7015801975998
 31
0.0
  0
LINE
  5
13CA
330
12D5
100
AcDbEntity
  8
___SHELL
 62
     0
370
    -2
100
AcDbLine
 10
150.7169359643999
 20
186.7015801975998
 30
0.0
 11
228.1278397208999
 21
186.7015801975998
 31
0.0
  0
LINE
  5
13CB
330
12D5
100
AcDbEntity
  8
___SHELL
 62
     0
370
    -2
100
AcDbLine
 10
227.1278397209
 20
244.7015801975996
 30
0.0
 11
227.1278397209
 21
214.9898643496999
 31
0.0
  0
LINE
  5
13CC
330
12D5
100
AcDbEntity
  8
___SHELL
 62
     0
370
    -2
100
AcDbLine
 10
227.1278397209
 20
188.7015801975998
 30
0.0
 11
227.1278397209
 21
210.4898643496999
 31
0.0
  0
INSERT
  5
13CD
330
12D5
100
AcDbEntity
  8
___SHELL
 62
     0
370
    -2
100
AcDbBlockReference
  2
_OPEN
 10
227.1278397209
 20
246.7015801975998
 30
0.0
 41
2.0
 42
2.0
 43
2.0
 50
90.0
  0
INSERT
  5
13CE
330
12D5
100
AcDbEntity
  8
___SHELL
 62
     0
370
    -2
100
AcDbBlockReference
  2
_OPEN
 10
227.1278397209
 20
186.7015801975998
 30
0.0
 41
2.0
 42
2.0
 43
2.0
 50
270.0
  0
MTEXT
  5
13CF
330
12D5
100
AcDbEntity
  8
___SHELL
 62
     0
100
AcDbMText
 10
227.1278397209
 20
212.7398643497
 30
0.0
 40
2.5
 41
0.0
 71
     5
 72
     1
  1
\A1;60
 73
     1
 44
1.0
  0
POINT
  5
13D0
330
12D5
100
AcDbEntity
  8
Defpoints
 62
     0
100
AcDbPoint
 10
149.7169359643999
 20
246.7015801975998
 30
0.0
  0
POINT
  5
13D1
330
12D5
100
AcDbEntity
  8
Defpoints
 62
     0
100
AcDbPoint
 10
149.7169359643999
 20
186.7015801975998
 30
0.0
  0
POINT
  5
13D2
330
12D5
100
AcDbEntity
  8
Defpoints
 62
     0
100
AcDbPoint
 10
227.1278397209
 20
186.7015801975998
 30
0.0
  0
ENDBLK
  5
12E1
330
12D5
100
AcDbEntity
  8
0
100
AcDbBlockEnd
  0
BLOCK
  5
12ED
330
12E2
100
AcDbEntity
  8
0
100
AcDbBlockBegin
  2
*D19
 70
     1
 10
0.0
 20
0.0
 30
0.0
  3
*D19
  1

  0
LINE
  5
13D3
330
12E2
100
AcDbEntity
  8
___SHELL
 62
     0
370
    -2
100
AcDbLine
 10
107.1957273647998
 20
241.1578042704999
 30
0.0
 11
66.22301984720005
 21
241.1578042704999
 31
0.0
  0
LINE
  5
13D4
330
12E2
100
AcDbEntity
  8
___SHELL
 62
     0
370
    -2
100
AcDbLine
 10
76.1069629568
 20
216.7015801975999
 30
0.0
 11
66.22301984720003
 21
216.7015801975999
 31
0.0
  0
LINE
  5
13D5
330
12E2
100
AcDbEntity
  8
___SHELL
 62
     0
370
    -2
100
AcDbLine
 10
67.22301984720004
 20
239.1578042704999
 30
0.0
 11
67.22301984720004
 21
227.0375655133999
 31
0.0
  0
LINE
  5
13D6
330
12E2
100
AcDbEntity
  8
___SHELL
 62
     0
370
    -2
100
AcDbLine
 10
67.22301984720004
 20
218.7015801975999
 30
0.0
 11
67.22301984720004
 21
222.5375655134
 31
0.0
  0
INSERT
  5
13D7
330
12E2
100
AcDbEntity
  8
___SHELL
 62
     0
370
    -2
100
AcDbBlockReference
  2
_OPEN
 10
67.22301984720004
 20
241.1578042704999
 30
0.0
 41
2.0
 42
2.0
 43
2.0
 50
90.0
  0
INSERT
  5
13D8
330
12E2
100
AcDbEntity
  8
___SHELL
 62
     0
370
    -2
100
AcDbBlockReference
  2
_OPEN
 10
67.22301984720004
 20
216.7015801975999
 30
0.0
 41
2.0
 42
2.0
 43
2.0
 50
270.0
  0
MTEXT
  5
13D9
330
12E2
100
AcDbEntity
  8
___SHELL
 62
     0
100
AcDbMText
 10
67.22301984720001
 20
224.7875655134
 30
0.0
 40
2.5
 41
0.0
 71
     5
 72
     1
  1
\A1;24
 73
     1
 44
1.0
  0
POINT
  5
13DA
330
12E2
100
AcDbEntity
  8
Defpoints
 62
     0
100
AcDbPoint
 10
108.1957273647998
 20
241.1578042704999
 30
0.0
  0
POINT
  5
13DB
330
12E2
100
AcDbEntity
  8
Defpoints
 62
     0
100
AcDbPoint
 10
77.1069629568
 20
216.7015801975999
 30
0.0
  0
POINT
  5
13DC
330
12E2
100
AcDbEntity
  8
Defpoints
 62
     0
100
AcDbPoint
 10
67.22301984720004
 20
216.7015801975999
 30
0.0
  0
ENDBLK
  5
12EE
330
12E2
100
AcDbEntity
  8
0
100
AcDbBlockEnd
  0
BLOCK
  5
12FA
330
12EF
100
AcDbEntity
  8
0
100
AcDbBlockBegin
  2
*D20
 70
     1
 10
0.0
 20
0.0
 30
0.0
  3
*D20
  1

  0
LINE
  5
13DD
330
12EF
100
AcDbEntity
  8
___SHELL
 62
     0
370
    -2
100
AcDbLine
 10
141.7169359644
 20
266.8910537566999
 30
0.0
 11
141.7169359644
 21
268.6244655668999
 31
0.0
  0
LINE
  5
13DE
330
12EF
100
AcDbEntity
  8
___SHELL
 62
     0
370
    -2
100
AcDbLine
 10
121.1957273647998
 20
255.1578042704999
 30
0.0
 11
121.1957273647998
 21
268.6244655668999
 31
0.0
  0
LINE
  5
13DF
330
12EF
100
AcDbEntity
  8
___SHELL
 62
     0
370
    -2
100
AcDbLine
 10
139.7169359644
 20
267.6244655668999
 30
0.0
 11
129.0023666591332
 21
267.6244655668999
 31
0.0
  0
LINE
  5
13E0
330
12EF
100
AcDbEntity
  8
___SHELL
 62
     0
370
    -2
100
AcDbLine
 10
123.1957273647998
 20
267.6244655668999
 30
0.0
 11
124.3356999924664
 21
267.6244655668999
 31
0.0
  0
INSERT
  5
13E1
330
12EF
100
AcDbEntity
  8
___SHELL
 62
     0
370
    -2
100
AcDbBlockReference
  2
_OPEN
 10
141.7169359644
 20
267.6244655668999
 30
0.0
 41
2.0
 42
2.0
 43
2.0
  0
INSERT
  5
13E2
330
12EF
100
AcDbEntity
  8
___SHELL
 62
     0
370
    -2
100
AcDbBlockReference
  2
_OPEN
 10
121.1957273647998
 20
267.6244655668999
 30
0.0
 41
2.0
 42
2.0
 43
2.0
 50
180.0
  0
MTEXT
  5
13E3
330
12EF
100
AcDbEntity
  8
___SHELL
 62
     0
100
AcDbMText
 10
126.6690333257999
 20
267.6244655668999
 30
0.0
 40
2.5
 41
0.0
 71
     5
 72
     1
  1
\A1;21
 73
     1
 44
1.0
  0
POINT
  5
13E4
330
12EF
100
AcDbEntity
  8
Defpoints
 62
     0
100
AcDbPoint
 10
141.7169359644
 20
265.8910537566999
 30
0.0
  0
POINT
  5
13E5
330
12EF
100
AcDbEntity
  8
Defpoints
 62
     0
100
AcDbPoint
 10
121.1957273647998
 20
254.1578042704999
 30
0.0
  0
POINT
  5
13E6
330
12EF
100
AcDbEntity
  8
Defpoints
 62
     0
100
AcDbPoint
 10
121.1957273647998
 20
267.6244655668999
 30
0.0
  0
ENDBLK
  5
12FB
330
12EF
100
AcDbEntity
  8
0
100
AcDbBlockEnd
  0
BLOCK
  5
1307
330
12FC
100
AcDbEntity
  8
0
100
AcDbBlockBegin
  2
*D21
 70
     1
 10
0.0
 20
0.0
 30
0.0
  3
*D21
  1

  0
LINE
  5
13E7
330
12FC
100
AcDbEntity
  8
___SHELL
 62
     0
370
    -2
100
AcDbLine
 10
99.96693596440001
 20
212.7014801975999
 30
0.0
 11
99.96693596440001
 21
208.1584095171999
 31
0.0
  0
LINE
  5
13E8
330
12FC
100
AcDbEntity
  8
___SHELL
 62
     0
370
    -2
100
AcDbLine
 10
183.4669359643999
 20
212.7014801975999
 30
0.0
 11
183.4669359643999
 21
208.1584095171999
 31
0.0
  0
LINE
  5
13E9
330
12FC
100
AcDbEntity
  8
___SHELL
 62
     0
370
    -2
100
AcDbLine
 10
101.9669359644
 20
209.1584095172
 30
0.0
 11
144.4513942973333
 21
209.1584095172
 31
0.0
  0
LINE
  5
13EA
330
12FC
100
AcDbEntity
  8
___SHELL
 62
     0
370
    -2
100
AcDbLine
 10
181.4669359643999
 20
209.1584095172
 30
0.0
 11
149.7847276306663
 21
209.1584095172
 31
0.0
  0
INSERT
  5
13EB
330
12FC
100
AcDbEntity
  8
___SHELL
 62
     0
370
    -2
100
AcDbBlockReference
  2
_OPEN
 10
99.96693596440001
 20
209.1584095172
 30
0.0
 41
2.0
 42
2.0
 43
2.0
 50
180.0
  0
INSERT
  5
13EC
330
12FC
100
AcDbEntity
  8
___SHELL
 62
     0
370
    -2
100
AcDbBlockReference
  2
_OPEN
 10
183.4669359643999
 20
209.1584095172
 30
0.0
 41
2.0
 42
2.0
 43
2.0
  0
MTEXT
  5
13ED
330
12FC
100
AcDbEntity
  8
___SHELL
 62
     0
100
AcDbMText
 10
147.118060964
 20
209.1584095172
 30
0.0
 40
2.5
 41
0.0
 71
     5
 72
     1
  1
\A1;83
 73
     1
 44
1.0
  0
POINT
  5
13EE
330
12FC
100
AcDbEntity
  8
Defpoints
 62
     0
100
AcDbPoint
 10
99.96693596440001
 20
213.7014801976
 30
0.0
  0
POINT
  5
13EF
330
12FC
100
AcDbEntity
  8
Defpoints
 62
     0
100
AcDbPoint
 10
183.4669359643999
 20
213.7014801976
 30
0.0
  0
POINT
  5
13F0
330
12FC
100
AcDbEntity
  8
Defpoints
 62
     0
100
AcDbPoint
 10
183.4669359643999
 20
209.1584095172
 30
0.0
  0
ENDBLK
  5
1308
330
12FC
100
AcDbEntity
  8
0
100
AcDbBlockEnd
  0
BLOCK
  5
1310
330
1309
100
AcDbEntity
  8
0
100
AcDbBlockBegin
  2
*D22
 70
     1
 10
0.0
 20
0.0
 30
0.0
  3
*D22
  1

  0
LINE
  5
13F1
330
1309
100
AcDbEntity
  8
___SHELL
 62
     0
370
    -2
100
AcDbLine
 10
83.24578889929673
 20
162.3840635439998
 30
0.0
 11
85.24578889929678
 21
162.3840635439998
 31
0.0
  0
LINE
  5
13F2
330
1309
100
AcDbEntity
  8
___SHELL
 62
     0
370
    -2
100
AcDbLine
 10
85.24578889929678
 20
162.3840635439998
 30
0.0
 11
186.3010626292393
 21
259.5854097012165
 31
0.0
  0
MTEXT
  5
13F3
330
1309
100
AcDbEntity
  8
___SHELL
 62
     0
100
AcDbMText
 10
78.91245556596342
 20
162.3840635439998
 30
0.0
 40
2.5
 41
0.0
 71
     5
 72
     1
  1
\A1;\U+2205128
 73
     1
 44
1.0
  0
INSERT
  5
13F4
330
1309
100
AcDbEntity
  8
___SHELL
 62
     0
370
    -2
100
AcDbBlockReference
  2
_OPEN
 10
187.7424948941996
 20
260.9718703120999
 30
0.0
 41
2.0
 42
2.0
 43
2.0
 50
43.88636264789935
  0
POINT
  5
13F5
330
1309
100
AcDbEntity
  8
Defpoints
 62
     0
100
AcDbPoint
 10
187.7424948941996
 20
260.9718703120999
 30
0.0
  0
POINT
  5
13F6
330
1309
100
AcDbEntity
  8
Defpoints
 62
     0
100
AcDbPoint
 10
95.69137703450001
 20
172.4312900831995
 30
0.0
  0
ENDBLK
  5
1311
330
1309
100
AcDbEntity
  8
0
100
AcDbBlockEnd
  0
BLOCK
  5
1319
330
1312
100
AcDbEntity
  8
0
100
AcDbBlockBegin
  2
*D23
 70
     1
 10
0.0
 20
0.0
 30
0.0
  3
*D23
  1

  0
LINE
  5
13F7
330
1312
100
AcDbEntity
  8
___SHELL
 62
     0
370
    -2
100
AcDbLine
 10
121.7356159525735
 20
175.2933706778998
 30
0.0
 11
123.735615952574
 21
175.2933706778998
 31
0.0
  0
LINE
  5
13F8
330
1312
100
AcDbEntity
  8
___SHELL
 62
     0
370
    -2
100
AcDbLine
 10
123.735615952574
 20
175.2933706778998
 30
0.0
 11
141.7169359644159
 21
186.70158019766
 31
0.0
  0
MTEXT
  5
13F9
330
1312
100
AcDbEntity
  8
___SHELL
 62
     0
100
AcDbMText
 10
119.0689492859069
 20
175.2933706778998
 30
0.0
 40
2.5
 41
0.0
 71
     5
 72
     1
  1
\A1;\U+22054
 73
     1
 44
1.0
  0
INSERT
  5
13FA
330
1312
100
AcDbEntity
  8
___SHELL
 62
     0
370
    -2
100
AcDbBlockReference
  2
_OPEN
 10
143.4057228067
 20
187.7730273505
 30
0.0
 41
2.0
 42
2.0
 43
2.0
 50
32.39299589857461
  0
POINT
  5
13FB
330
1312
100
AcDbEntity
  8
Defpoints
 62
     0
100
AcDbPoint
 10
143.4057228067
 20
187.7730273505
 30
0.0
  0
POINT
  5
13FC
330
1312
100
AcDbEntity
  8
Defpoints
 62
     0
100
AcDbPoint
 10
140.0281491220999
 20
185.6301330448
 30
0.0
  0
ENDBLK
  5
131A
330
1312
100
AcDbEntity
  8
0
100
AcDbBlockEnd
  0
BLOCK
  5
1321
330
131B
100
AcDbEntity
  8
0
100
AcDbBlockBegin
  2
*D24
 70
     1
 10
0.0
 20
0.0
 30
0.0
  3
*D24
  1

  0
LINE
  5
13FD
330
131B
100
AcDbEntity
  8
___SHELL
 62
     0
370
    -2
100
AcDbLine
 10
205.3492546393901
 20
231.6851860365819
 30
0.0
 11
179.5835690259858
 21
227.0661289924237
 31
0.0
  0
MTEXT
  5
13FE
330
131B
100
AcDbEntity
  8
___SHELL
 62
     0
100
AcDbMText
 10
208.0159213060565
 20
231.6851860365819
 30
0.0
 40
2.5
 41
0.0
 71
     5
 72
     1
  1
\A1;\U+22059
 73
     1
 44
1.0
  0
INSERT
  5
13FF
330
131B
100
AcDbEntity
  8
___SHELL
 62
     0
370
    -2
100
AcDbBlockReference
  2
_OPEN
 10
177.6149528771999
 20
226.7132119218
 30
0.0
 41
2.0
 42
2.0
 43
2.0
 50
190.1635470299973
  0
POINT
  5
1400
330
131B
100
AcDbEntity
  8
Defpoints
 62
     0
100
AcDbPoint
 10
177.6149528771999
 20
226.7132119218
 30
0.0
  0
POINT
  5
1401
330
131B
100
AcDbEntity
  8
Defpoints
 62
     0
100
AcDbPoint
 10
186.4737255466999
 20
228.3013387396
 30
0.0
  0
ENDBLK
  5
1322
330
131B
100
AcDbEntity
  8
0
100
AcDbBlockEnd
  0
BLOCK
  5
132A
330
1323
100
AcDbEntity
  8
0
100
AcDbBlockBegin
  2
*D25
 70
     1
 10
0.0
 20
0.0
 30
0.0
  3
*D25
  1

  0
LINE
  5
1402
330
1323
100
AcDbEntity
  8
___SHELL
 62
     0
370
    -2
100
AcDbLine
 10
103.9624005558229
 20
257.2699831196998
 30
0.0
 11
101.9624005558231
 21
257.2699831196998
 31
0.0
  0
LINE
  5
1403
330
1323
100
AcDbEntity
  8
___SHELL
 62
     0
370
    -2
100
AcDbLine
 10
101.9624005558231
 20
257.2699831196998
 30
0.0
 11
127.3282412384854
 21
236.0204631693834
 31
0.0
  0
MTEXT
  5
1404
330
1323
100
AcDbEntity
  8
___SHELL
 62
     0
100
AcDbMText
 10
107.4624005558231
 20
257.2699831196998
 30
0.0
 40
2.5
 41
0.0
 71
     5
 72
     1
  1
\A1;\U+220520
 73
     1
 44
1.0
  0
INSERT
  5
1405
330
1323
100
AcDbEntity
  8
___SHELL
 62
     0
370
    -2
100
AcDbBlockReference
  2
_OPEN
 10
128.8613697068999
 20
234.7361278940998
 30
0.0
 41
2.0
 42
2.0
 43
2.0
 50
320.0463546633503
  0
POINT
  5
1406
330
1323
100
AcDbEntity
  8
Defpoints
 62
     0
100
AcDbPoint
 10
128.8613697068999
 20
234.7361278940998
 30
0.0
  0
POINT
  5
1407
330
1323
100
AcDbEntity
  8
Defpoints
 62
     0
100
AcDbPoint
 10
113.5300850227999
 20
247.5794806468999
 30
0.0
  0
ENDBLK
  5
132B
330
1323
100
AcDbEntity
  8
0
100
AcDbBlockEnd
  0
BLOCK
  5
1333
330
132C
100
AcDbEntity
  8
0
100
AcDbBlockBegin
  2
*D26
 70
     1
 10
0.0
 20
0.0
 30
0.0
  3
*D26
  1

  0
LINE
  5
1408
330
132C
100
AcDbEntity
  8
___SHELL
 62
     0
370
    -2
100
AcDbLine
 10
204.277103227288
 20
210.6266115851
 30
0.0
 11
202.277103227288
 21
210.6266115851
 31
0.0
  0
LINE
  5
1409
330
132C
100
AcDbEntity
  8
___SHELL
 62
     0
370
    -2
100
AcDbLine
 10
202.277103227288
 20
210.6266115851
 30
0.0
 11
182.9911346945813
 21
216.855245911493
 31
0.0
  0
MTEXT
  5
140A
330
132C
100
AcDbEntity
  8
___SHELL
 62
     0
100
AcDbMText
 10
206.9437698939548
 20
210.6266115851
 30
0.0
 40
2.5
 41
0.0
 71
     5
 72
     1
  1
\A1;\U+22055
 73
     1
 44
1.0
  0
INSERT
  5
140B
330
132C
100
AcDbEntity
  8
___SHELL
 62
     0
370
    -2
100
AcDbBlockReference
  2
_OPEN
 10
181.0879296152
 20
217.4699087668999
 30
0.0
 41
2.0
 42
2.0
 43
2.0
 50
162.101516696643
  0
POINT
  5
140C
330
132C
100
AcDbEntity
  8
Defpoints
 62
     0
100
AcDbPoint
 10
181.0879296152
 20
217.4699087668999
 30
0.0
  0
POINT
  5
140D
330
132C
100
AcDbEntity
  8
Defpoints
 62
     0
100
AcDbPoint
 10
185.8459423136
 20
215.9332516284
 30
0.0
  0
ENDBLK
  5
1334
330
132C
100
AcDbEntity
  8
0
100
AcDbBlockEnd
  0
BLOCK
  5
133E
330
1335
100
AcDbEntity
  8
0
100
AcDbBlockBegin
  2
*D27
 70
     1
 10
0.0
 20
0.0
 30
0.0
  3
*D27
  1

  0
LINE
  5
140E
330
1335
100
AcDbEntity
  8
___SHELL
 62
     0
370
    -2
100
AcDbLine
 10
188.784024712832
 20
56.67049917049999
 30
0.0
 11
186.7840247128321
 21
56.67049917049999
 31
0.0
  0
LINE
  5
140F
330
1335
100
AcDbEntity
  8
___SHELL
 62
     0
370
    -2
100
AcDbLine
 10
186.7840247128321
 20
56.67049917049999
 30
0.0
 11
181.1383937750704
 21
60.95778017695643
 31
0.0
  0
MTEXT
  5
1410
330
1335
100
AcDbEntity
  8
___SHELL
 62
     0
100
AcDbMText
 10
192.4506913794986
 20
56.67049917049999
 30
0.0
 40
2.5
 41
0.0
 71
     5
 72
     1
  1
\A1;R47
 73
     1
 44
1.0
  0
INSERT
  5
1411
330
1335
100
AcDbEntity
  8
___SHELL
 62
     0
370
    -2
100
AcDbBlockReference
  2
_OPEN
 10
179.5456076009
 20
62.1673388582
 30
0.0
 41
2.0
 42
2.0
 43
2.0
 50
142.7870349347744
  0
LINE
  5
1412
330
1335
100
AcDbEntity
  8
___SHELL
 62
     0
370
    -2
100
AcDbLine
 10
139.7169359644
 20
90.89435753770002
 30
0.0
 11
143.7169359644
 21
90.89435753770002
 31
0.0
  0
LINE
  5
1413
330
1335
100
AcDbEntity
  8
___SHELL
 62
     0
370
    -2
100
AcDbLine
 10
141.7169359644
 20
88.89435753770001
 30
0.0
 11
141.7169359644
 21
92.89435753770002
 31
0.0
  0
POINT
  5
1414
330
1335
100
AcDbEntity
  8
Defpoints
 62
     0
100
AcDbPoint
 10
179.5456076009
 20
62.1673388582
 30
0.0
  0
POINT
  5
1415
330
1335
100
AcDbEntity
  8
Defpoints
 62
     0
100
AcDbPoint
 10
141.7169359644
 20
90.89435753770002
 30
0.0
  0
ENDBLK
  5
133F
330
1335
100
AcDbEntity
  8
0
100
AcDbBlockEnd
  0
ENDSEC
  0
SECTION
  2
ENTITIES
  0
LINE
  5
864
330
1E
100
AcDbEntity
  8
0
100
AcDbLine
 10
86.1782450527
 20
181.0424861895
 30
0.0
 11
73.0623689272
 21
165.187753004
 31
0.0
  0
LINE
  5
865
330
1E
100
AcDbEntity
  8
0
100
AcDbLine
 10
73.0623689272
 20
165.187753004
 30
0.0
 11
71.0623689272
 21
165.187753004
 31
0.0
  0
LWPOLYLINE
  5
866
330
1E
100
AcDbEntity
  8
0
100
AcDbPolyline
 90
        3
 70
     0
 43
0.0
 10
85.38498962609999
 20
179.1030608034
 10
86.1782450527
 20
181.0424861895
 10
84.4218391263
 20
179.8998299761999
  0
LINE
  5
86B
330
1E
100
AcDbEntity
  8
0
100
AcDbLine
 10
85.789378035
 20
148.9943575377
 30
0.0
 11
73.0623689272
 21
165.187753004
 31
0.0
  0
LINE
  5
86C
330
1E
100
AcDbEntity
  8
0
100
AcDbLine
 10
73.0623689272
 20
165.187753004
 30
0.0
 11
71.0623689272
 21
165.187753004
 31
0.0
  0
LWPOLYLINE
  5
86D
330
1E
100
AcDbEntity
  8
0
100
AcDbPolyline
 90
        3
 70
     0
 43
0.0
 10
84.06212169220001
 20
150.1806165846
 10
85.789378035
 20
148.9943575377
 10
85.0449126696
 20
150.9530296183999
  0
LINE
  5
872
330
1E
100
AcDbEntity
  8
0
100
AcDbLine
 10
141.8169359644
 20
147.2102156380999
 30
0.0
 11
196.8273281833
 21
81.04838668159999
 31
0.0
  0
LINE
  5
873
330
1E
100
AcDbEntity
  8
0
100
AcDbLine
 10
196.8273281833
 20
81.04838668159999
 30
0.0
 11
198.8273281833
 21
81.04838668159999
 31
0.0
  0
LWPOLYLINE
  5
874
330
1E
100
AcDbEntity
  8
0
100
AcDbPolyline
 90
        3
 70
     0
 43
0.0
 10
143.5761792234
 20
146.0719326523
 10
141.8169359644
 20
147.2102156380999
 10
142.6150139540999
 20
145.2727697620999
  0
LINE
  5
879
330
1E
100
AcDbEntity
  8
0
100
AcDbLine
 10
112.0602727884
 20
245.2251707013
 30
0.0
 11
88.75336147799998
 21
258.4327105373
 31
0.0
  0
LINE
  5
87A
330
1E
100
AcDbEntity
  8
0
100
AcDbLine
 10
88.75336147799998
 20
258.4327105373
 30
0.0
 11
86.75336147799999
 21
258.4327105373
 31
0.0
  0
LWPOLYLINE
  5
87B
330
1E
100
AcDbEntity
  8
0
100
AcDbPolyline
 90
        3
 70
     0
 43
0.0
 10
110.012099726
 20
245.6674512755999
 10
112.0602727884
 20
245.2251707013
 10
110.6283756869
 20
246.7549732017999
  0
LINE
  5
881
330
1E
100
AcDbEntity
  8
非表示
  6
Continuous
100
AcDbLine
 10
0.0
 20
0.0
 30
0.0
 11
0.0
 21
297.0
 31
0.0
  0
LINE
  5
882
330
1E
100
AcDbEntity
  8
非表示
  6
Continuous
100
AcDbLine
 10
0.0
 20
0.0
 30
0.0
 11
420.0
 21
0.0
 31
0.0
  0
LINE
  5
883
330
1E
100
AcDbEntity
  8
非表示
  6
Continuous
100
AcDbLine
 10
0.0
 20
297.0
 30
0.0
 11
420.0
 21
297.0
 31
0.0
  0
LINE
  5
884
330
1E
100
AcDbEntity
  8
非表示
  6
Continuous
100
AcDbLine
 10
420.0
 20
0.0
 30
0.0
 11
420.0
 21
297.0
 31
0.0
  0
LWPOLYLINE
  5
89B
330
1E
100
AcDbEntity
  8
0
100
AcDbPolyline
 90
        4
 70
     0
 43
0.0
 10
84.66977459350001
 20
148.6332485508
 10
84.76577698040001
 20
148.8141987243
 10
84.9373021927
 20
148.9468158398
 10
85.1500966589
 20
148.9943575377
  0
LINE
  5
8B2
330
1E
100
AcDbEntity
  8
0
100
AcDbLine
 10
84.6500971354
 20
148.4943575377
 30
0.0
 11
84.66977459350001
 21
148.6332485508
 31
0.0
  0
LWPOLYLINE
  5
8E0
330
1E
100
AcDbEntity
  8
0
100
AcDbPolyline
 90
        8
 70
     0
 43
0.0
 10
83.93556184800001
 20
104.4639192005998
 10
84.14256852100001
 20
102.3052756850999
 10
84.3335951901
 20
100.298583814
 10
84.49720265919998
 20
98.5684824816
 10
84.6326516174
 20
97.1280139359
 10
84.73884183779999
 20
95.99347066540001
 10
84.81462042390001
 20
95.18099950979999
 10
84.85940611370002
 20
94.69969779299999
  0
LINE
  5
8EA
330
1E
100
AcDbEntity
  8
0
100
AcDbLine
 10
84.85940611370002
 20
94.69969779299999
 30
0.0
 11
84.87390768359999
 21
94.54367228870001
 31
0.0
  0
LWPOLYLINE
  5
8EB
330
1E
100
AcDbEntity
  8
0
100
AcDbPolyline
 90
        7
 70
     0
 43
0.0
 10
84.03995018260001
 20
104.2057123220999
 10
84.28176641790001
 20
101.5654812696999
 10
84.47772118679997
 20
99.4034330132
 10
84.6337946308
 20
97.66645957320001
 10
84.7510186034
 20
96.3528769156
 10
84.83525877560001
 20
95.4040402961
 10
84.8915707601
 20
94.7674602164
  0
LINE
  5
8F4
330
1E
100
AcDbEntity
  8
0
100
AcDbLine
 10
84.9238599211
 20
94.4016091315
 30
0.0
 11
84.9343837251
 21
94.28223137739999
 31
0.0
  0
LINE
  5
8F5
330
1E
100
AcDbEntity
  8
0
100
AcDbLine
 10
84.8915707601
 20
94.7674602164
 30
0.0
 11
84.9238599211
 21
94.4016091315
 31
0.0
  0
LWPOLYLINE
  5
8F6
330
1E
100
AcDbEntity
  8
0
100
AcDbPolyline
 90
        4
 70
     0
 43
0.0
 10
83.86044288669998
 20
105.4332464630999
 10
83.88492495310002
 20
105.0639933917999
 10
83.91363477129997
 20
104.7038556993
 10
83.9355593097
 20
104.4639372081999
  0
LWPOLYLINE
  5
8FC
330
1E
100
AcDbEntity
  8
0
100
AcDbPolyline
 90
        4
 70
     0
 43
0.0
 10
83.8993016849
 20
105.6289497222999
 10
83.9214405539
 20
105.2882861002
 10
83.95221237920003
 20
104.9310444046999
 10
83.9918033136
 20
104.5674026612
  0
LINE
  5
902
330
1E
100
AcDbEntity
  8
0
100
AcDbLine
 10
83.8485254717
 20
105.6461530682999
 30
0.0
 11
83.86044288669998
 21
105.4332464630999
 31
0.0
  0
LWPOLYLINE
  5
903
330
1E
100
AcDbEntity
  8
0
100
AcDbPolyline
 90
        4
 70
     0
 43
0.0
 10
81.47746664080001
 20
150.8943575377
 10
82.31833382780001
 20
134.8737551009999
 10
83.1142733256
 20
119.6827129546
 10
83.84852350720001
 20
105.6461498501
  0
LWPOLYLINE
  5
909
330
1E
100
AcDbEntity
  8
0
100
AcDbPolyline
 90
        3
 70
     0
 43
0.0
 10
81.53715785050001
 20
150.8943575377
 10
82.35314754319999
 20
135.2861951119
 10
83.13981845129999
 20
120.2104276615999
  0
LINE
  5
90E
330
1E
100
AcDbEntity
  8
0
100
AcDbLine
 10
83.13981845129999
 20
120.2104276615999
 30
0.0
 11
83.8993016855
 21
105.6289497222999
 31
0.0
  0
LINE
  5
90F
330
1E
100
AcDbEntity
  8
0
100
AcDbLine
 10
84.65009665889999
 20
147.3943575377
 30
0.0
 11
84.65009665889999
 21
148.4943575377
 31
0.0
  0
LINE
  5
910
330
1E
100
AcDbEntity
  8
0
100
AcDbLine
 10
84.7307613749
 20
147.3943575377
 30
0.0
 11
84.7307613749
 21
148.4943575377
 31
0.0
  0
LWPOLYLINE
  5
911
330
1E
100
AcDbEntity
  8
0
100
AcDbPolyline
 90
        8
 70
     0
 43
0.0
 10
88.69025038649999
 20
147.3943575377
 10
88.68649129629998
 20
147.3115665524
 10
88.67371983419998
 20
147.2228052598
 10
88.64955062680001
 20
147.1314056688999
 10
88.61166505419998
 20
147.0429751709
 10
88.55874788639999
 20
146.9663957022
 10
88.492599677
 20
146.9135205631999
 10
88.417930869
 20
146.8943575377
  0
LINE
  5
91B
330
1E
100
AcDbEntity
  8
0
100
AcDbLine
 10
84.9343837251
 20
94.28223137739999
 30
0.0
 11
86.0946668623
 21
91.2173325244
 31
0.0
  0
LINE
  5
91C
330
1E
100
AcDbEntity
  8
0
100
AcDbLine
 10
83.9918033136
 20
104.5674026612
 30
0.0
 11
84.0399475273
 21
104.2057123220999
 31
0.0
  0
LINE
  5
91D
330
1E
100
AcDbEntity
  8
0
100
AcDbLine
 10
86.11662869940003
 20
150.8943575377
 30
0.0
 11
86.2276652144
 21
148.9943575377
 31
0.0
  0
LINE
  5
91E
330
1E
100
AcDbEntity
  8
0
100
AcDbLine
 10
87.46405617290001
 20
150.8943575377
 30
0.0
 11
87.57510241790001
 21
148.9943575377
 31
0.0
  0
LINE
  5
91F
330
1E
100
AcDbEntity
  8
0
100
AcDbLine
 10
87.99859558500001
 20
148.4943575377
 30
0.0
 11
87.99859558500001
 21
147.3943575377
 31
0.0
  0
LINE
  5
920
330
1E
100
AcDbEntity
  8
0
100
AcDbLine
 10
88.69025038649999
 20
148.4943575377
 30
0.0
 11
88.69025038649999
 21
147.3943575377
 31
0.0
  0
LINE
  5
921
330
1E
100
AcDbEntity
  8
0
100
AcDbLine
 10
90.71897736149999
 20
148.8943575377
 30
0.0
 11
90.71897736149999
 21
150.8943575377
 31
0.0
  0
LINE
  5
922
330
1E
100
AcDbEntity
  8
0
100
AcDbLine
 10
84.6500971354
 20
147.3943575377
 30
0.0
 11
84.6697745936
 21
147.2554665245
 31
0.0
  0
LINE
  5
923
330
1E
100
AcDbEntity
  8
0
100
AcDbLine
 10
90.3807194452
 20
146.8943575377
 30
0.0
 11
90.26383807299998
 21
148.8943575377
 31
0.0
  0
LINE
  5
924
330
1E
100
AcDbEntity
  8
0
100
AcDbLine
 10
93.9669359644
 20
150.8943575377
 30
0.0
 11
93.9669359644
 21
151.3943575377
 31
0.0
  0
LINE
  5
925
330
1E
100
AcDbEntity
  8
0
100
AcDbLine
 10
94.05633473200001
 20
150.8943575377
 30
0.0
 11
94.05633473200001
 21
151.3943575377
 31
0.0
  0
LINE
  5
926
330
1E
100
AcDbEntity
  8
0
100
AcDbLine
 10
96.04682964690001
 20
150.8943575377
 30
0.0
 11
96.04682964690001
 21
151.3943575377
 31
0.0
  0
LINE
  5
927
330
1E
100
AcDbEntity
  8
0
100
AcDbLine
 10
96.71000674670001
 20
148.8943575377
 30
0.0
 11
96.71000674670001
 21
150.8943575377
 31
0.0
  0
LWPOLYLINE
  5
928
330
1E
100
AcDbEntity
  8
0
100
AcDbPolyline
 90
        4
 70
     0
 43
0.0
 10
84.03995119040002
 20
104.205686846
 10
83.98095292669998
 20
104.3019622071998
 10
83.94514630399999
 20
104.4045303528
 10
83.93556184800001
 20
104.4639192005998
  0
LINE
  5
92E
330
1E
100
AcDbEntity
  8
0
100
AcDbLine
 10
98.89257715740001
 20
150.8943575377
 30
0.0
 11
98.98567358960001
 21
148.8943575377
 31
0.0
  0
LINE
  5
93A
330
1E
100
AcDbEntity
  8
0
100
AcDbLine
 10
107.3895327168
 20
150.8943575377
 30
0.0
 11
107.3895327168
 21
151.3943575377
 31
0.0
  0
LINE
  5
93B
330
1E
100
AcDbEntity
  8
0
100
AcDbLine
 10
84.6697745936
 20
147.2554665245
 30
0.0
 11
84.76577698040001
 21
147.0745163509999
 31
0.0
  0
LWPOLYLINE
  5
93C
330
1E
100
AcDbEntity
  8
0
100
AcDbPolyline
 90
        3
 70
     0
 43
0.0
 10
84.85725728170001
 20
147.0364753423
 10
84.76320106139999
 20
147.201526634
 10
84.7307613749
 20
147.3943575377
  0
LWPOLYLINE
  5
941
330
1E
100
AcDbEntity
  8
0
100
AcDbPolyline
 90
        4
 70
     0
 43
0.0
 10
122.7438553258999
 20
105.628949722
 10
121.8157481036999
 20
120.2104765475999
 10
120.8809305945999
 20
135.2862237443
 10
119.9363412489
 20
150.8943575377
  0
LWPOLYLINE
  5
947
330
1E
100
AcDbEntity
  8
0
100
AcDbPolyline
 90
        4
 70
     0
 43
0.0
 10
123.1063969379998
 20
105.6494974792
 10
122.1911926957
 20
120.2246260874
 10
121.2689270275
 20
135.2935324845
 10
120.336587782
 20
150.8943575377
  0
LINE
  5
94D
330
1E
100
AcDbEntity
  8
0
100
AcDbLine
 10
124.9112408313999
 20
150.8943575377
 30
0.0
 11
124.9112408313999
 21
151.3943575377
 31
0.0
  0
LWPOLYLINE
  5
94E
330
1E
100
AcDbEntity
  8
0
100
AcDbPolyline
 90
        4
 70
     0
 43
0.0
 10
123.3220683257
 20
104.2056827848
 10
123.4300618642
 20
104.3019600268
 10
123.5423559395
 20
104.4045294653999
 10
123.6562094176
 20
104.5108873715999
  0
LWPOLYLINE
  5
96A
330
1E
100
AcDbEntity
  8
0
100
AcDbPolyline
 90
        5
 70
     0
 43
0.0
 10
123.3220514689999
 20
104.2057160388
 10
123.0749231193
 20
104.5674033632999
 10
122.8984803251
 20
104.9310438480999
 10
122.7901479687
 20
105.2882843571
 10
122.7438553275
 20
105.628949722
  0
LINE
  5
971
330
1E
100
AcDbEntity
  8
0
100
AcDbLine
 10
132.464155102
 20
150.8943575377
 30
0.0
 11
132.464155102
 21
151.3943575377
 31
0.0
  0
LINE
  5
972
330
1E
100
AcDbEntity
  8
0
100
AcDbLine
 10
135.7169359643999
 20
150.8943575377
 30
0.0
 11
135.7169359643999
 21
151.3943575377
 31
0.0
  0
LINE
  5
973
330
1E
100
AcDbEntity
  8
0
100
AcDbLine
 10
86.5622801049
 20
90.89435753770001
 30
0.0
 11
196.8715918238999
 21
90.89435753770001
 31
0.0
  0
LINE
  5
974
330
1E
100
AcDbEntity
  8
0
100
AcDbLine
 10
86.0946668623
 20
91.2173325244
 30
0.0
 11
197.3392050665
 21
91.2173325244
 31
0.0
  0
LWPOLYLINE
  5
976
330
1E
100
AcDbEntity
  8
0
100
AcDbPolyline
 90
        5
 70
     0
 43
0.0
 10
123.6562094091
 20
104.5108873797998
 10
123.4204470497999
 20
104.800235974
 10
123.2524799327
 20
105.0911752913998
 10
123.149782075
 20
105.3769757845999
 10
123.1063969379998
 20
105.6494974792
  0
LINE
  5
97D
330
1E
100
AcDbEntity
  8
0
100
AcDbLine
 10
141.4169359644
 20
149.5163137950999
 30
0.0
 11
141.4169359644
 21
150.8943575377
 31
0.0
  0
LINE
  5
97E
330
1E
100
AcDbEntity
  8
0
100
AcDbLine
 10
141.6169359643999
 20
146.6945525542999
 30
0.0
 11
141.6169359643999
 21
150.8943575377
 31
0.0
  0
LINE
  5
97F
330
1E
100
AcDbEntity
  8
0
100
AcDbLine
 10
141.7169359644
 20
150.8943575377
 30
0.0
 11
141.7169359644
 21
151.3943575377
 31
0.0
  0
LINE
  5
980
330
1E
100
AcDbEntity
  8
0
100
AcDbLine
 10
141.8169359644
 20
150.8943575377
 30
0.0
 11
141.8169359644
 21
146.6945525542999
 31
0.0
  0
LINE
  5
981
330
1E
100
AcDbEntity
  8
0
100
AcDbLine
 10
142.0169359644
 20
150.8943575377
 30
0.0
 11
142.0169359644
 21
149.5163137950999
 31
0.0
  0
LWPOLYLINE
  5
982
330
1E
100
AcDbEntity
  8
0
100
AcDbPolyline
 90
       45
 70
     0
 43
0.0
 10
142.0169359644
 20
149.5163137950999
 10
142.0163720803
 20
149.3046813661
 10
142.0148457895999
 20
149.1096272938999
 10
142.0125702929
 20
148.9302293659
 10
142.0097208585
 20
148.7655607645999
 10
142.0064424685
 20
148.6146893737999
 10
142.0028550736
 20
148.4766796775
 10
141.9990572774
 20
148.3505940197
 10
141.9951289642
 20
148.2354935295999
 10
141.9911331989998
 20
148.130438772
 10
141.9871176181
 20
148.0344901864999
 10
141.9831154595998
 20
147.9467083735
 10
141.9791463322999
 20
147.8661542758
 10
141.9752167812999
 20
147.7918892955
 10
141.9713206749999
 20
147.7229753774
 10
141.9674393983
 20
147.6584750808
 10
141.9635410896
 20
147.5974408721999
 10
141.9595846480999
 20
147.5389815423
 10
141.9555506926
 20
147.4826796243999
 10
141.9514420856
 20
147.4284867458998
 10
141.9472644704
 20
147.376396704
 10
141.943022543
 20
147.3263919118999
 10
141.9387206277999
 20
147.278452272
 10
141.9343626485999
 20
147.2325554203
 10
141.9299521072999
 20
147.1886771025
 10
141.9254920698998
 20
147.1467916251999
 10
141.9209851543999
 20
147.1068723365
 10
141.9164335181999
 20
147.0688920986
 10
141.91183884
 20
147.0328237251
 10
141.9072022890999
 20
146.9986403624
 10
141.9025244755999
 20
146.9663158031
 10
141.8978053683
 20
146.9358247248
 10
141.8930444275
 20
146.9071443701
 10
141.8882377886999
 20
146.8802399904
 10
141.8833725842999
 20
146.8550430706
 10
141.8784330909
 20
146.8314972061
 10
141.8734022038
 20
146.8095692095
 10
141.8682476456
 20
146.7891997308
 10
141.8629173645999
 20
146.7703189617
 10
141.8573305695
 20
146.7528632025999
 10
141.8513539938
 20
146.7367838904999
 10
141.8447594639999
 20
146.7221001364
 10
141.8372630424
 20
146.7092436926999
 10
141.8281840970999
 20
146.6990625899
 10
141.8169359644
 20
146.6945525542999
  0
LWPOLYLINE
  5
9B1
330
1E
100
AcDbEntity
  8
0
100
AcDbPolyline
 90
        4
 70
     0
 43
0.0
 10
199.5345702450999
 20
105.6289497472999
 10
199.5659562113999
 20
105.6348767246997
 10
199.5825794231
 20
105.6417605610999
 10
199.5853484154999
 20
105.6461497330999
  0
LWPOLYLINE
  5
9B7
330
1E
100
AcDbEntity
  8
0
100
AcDbPolyline
 90
        4
 70
     0
 43
0.0
 10
83.8993224088
 20
105.6289512675
 10
83.8679280234
 20
105.6348778322999
 10
83.85129789439998
 20
105.6417611607
 10
83.8485256352
 20
105.6461499582999
  0
LWPOLYLINE
  5
9E7
330
1E
100
AcDbEntity
  8
0
100
AcDbPolyline
 90
        3
 70
     0
 43
0.0
 10
84.76577698040001
 20
147.0745163509999
 10
84.93730219280001
 20
146.9418992356
 10
85.1500966589
 20
146.8943575377
  0
LWPOLYLINE
  5
9EC
330
1E
100
AcDbEntity
  8
0
100
AcDbPolyline
 90
       16
 70
     0
 43
0.0
 10
159.7776625195999
 20
104.5108873797998
 10
156.9333245122994
 20
101.7010978602
 10
154.2333118505995
 20
99.43927981240001
 10
151.6755826620999
 20
97.67831271209999
 10
149.2637250390995
 20
96.37082524729999
 10
147.0009424650999
 20
95.46457528709998
 10
144.8448269465995
 20
94.89542586869999
 10
142.7545547645999
 20
94.6213587511
 10
140.6851809893
 20
94.62097642020001
 10
138.5949527385
 20
94.8942648184
 10
136.4390988201
 20
95.4625347166
 10
134.1767220316
 20
96.36773883620001
 10
131.7661770448
 20
97.67347192309999
 10
129.2066765918999
 20
99.4346193748
 10
126.5040399065
 20
101.6979125951
 10
123.6562094091
 20
104.5108873797998
  0
LWPOLYLINE
  5
9FE
330
1E
100
AcDbEntity
  8
0
100
AcDbPolyline
 90
       16
 70
     0
 43
0.0
 10
160.111829865
 20
104.2057157352
 10
157.2192435437
 20
101.3959599919999
 10
154.4714706281999
 20
99.1341281234
 10
151.8669647339
 20
97.3731465638
 10
149.4098410787
 20
96.06564535270001
 10
147.1037783081999
 20
95.1593841034
 10
144.9058998729998
 20
94.5902285298
 10
142.7748464835
 20
94.3161588012
 10
140.6650039645
 20
94.3157764625
 10
138.5339948273999
 20
94.58906745410001
 10
136.3363819241999
 20
95.15734348329999
 10
134.0307308997997
 20
96.06255882319999
 10
131.5749409540994
 20
97.36830594190001
 10
128.9686278023
 20
99.12946778430001
 10
126.2181812223999
 20
101.3927749438998
 10
123.3220417452
 20
104.2057160387
  0
LWPOLYLINE
  5
A10
330
1E
100
AcDbEntity
  8
0
100
AcDbPolyline
 90
        4
 70
     0
 43
0.0
 10
122.7438553242
 20
105.6289497472999
 10
122.8624110001
 20
105.6348767246997
 10
122.9838685552
 20
105.6417605610999
 10
123.1063969379
 20
105.6494974792
  0
LINE
  5
A16
330
1E
100
AcDbEntity
  8
0
100
AcDbLine
 10
84.03995018260001
 20
104.2057123220999
 30
0.0
 11
123.3220417452
 21
104.2057160387
 31
0.0
  0
LINE
  5
A17
330
1E
100
AcDbEntity
  8
0
100
AcDbLine
 10
160.111829865
 20
104.2057157352
 30
0.0
 11
199.3939217631
 21
104.2057125702
 31
0.0
  0
LINE
  5
A18
330
1E
100
AcDbEntity
  8
0
100
AcDbLine
 10
83.8993016855
 20
105.6289497222999
 30
0.0
 11
122.7438553258999
 21
105.628949722
 31
0.0
  0
LINE
  5
A19
330
1E
100
AcDbEntity
  8
0
100
AcDbLine
 10
160.6900166029
 20
105.6289497222999
 30
0.0
 11
199.5345702433
 21
105.628949722
 31
0.0
  0
LWPOLYLINE
  5
A1A
330
1E
100
AcDbEntity
  8
0
100
AcDbPolyline
 90
        4
 70
     0
 43
0.0
 10
160.6900098019
 20
105.6289512675
 10
160.571457156
 20
105.6348778322999
 10
160.4500018129998
 20
105.6417611607
 10
160.3274749962
 20
105.6494974842999
  0
LINE
  5
A20
330
1E
100
AcDbEntity
  8
0
100
AcDbLine
 10
154.0755453679999
 20
150.8943575377
 30
0.0
 11
154.0755453679999
 21
151.3943575377
 31
0.0
  0
LINE
  5
A21
330
1E
100
AcDbEntity
  8
0
100
AcDbLine
 10
158.5226310973999
 20
150.8943575377
 30
0.0
 11
158.5226310973999
 21
151.3943575377
 31
0.0
  0
LWPOLYLINE
  5
A22
330
1E
100
AcDbEntity
  8
0
100
AcDbPolyline
 90
        5
 70
     0
 43
0.0
 10
160.3274749908
 20
105.6494974792
 10
160.2840902804
 20
105.3769771844
 10
160.1813921993
 20
105.0911757412
 10
160.0134244621999
 20
104.8002354279998
 10
159.7776625195999
 20
104.5108873797998
  0
LWPOLYLINE
  5
A2F
330
1E
100
AcDbEntity
  8
0
100
AcDbPolyline
 90
        4
 70
     0
 43
0.0
 10
163.0972841468
 20
150.8943575377
 10
162.1649449012999
 20
135.2935324847998
 10
161.2426792331999
 20
120.2246260879
 10
160.3274749908
 20
105.6494974792
  0
LWPOLYLINE
  5
A35
330
1E
100
AcDbEntity
  8
0
100
AcDbPolyline
 90
        4
 70
     0
 43
0.0
 10
163.4975306799
 20
150.8943575377
 10
162.5529413341999
 20
135.2862237445
 10
161.6181238251
 20
120.2104765480999
 10
160.6900166029
 20
105.6289497222999
  0
LWPOLYLINE
  5
A3B
330
1E
100
AcDbEntity
  8
0
100
AcDbPolyline
 90
        5
 70
     0
 43
0.0
 10
160.6900166013
 20
105.6289497222999
 10
160.6437244851
 20
105.2882861002
 10
160.5353918313998
 20
104.9310444047999
 10
160.3589483933
 20
104.5674026612
 10
160.1118202463998
 20
104.2057157352999
  0
LWPOLYLINE
  5
A42
330
1E
100
AcDbEntity
  8
0
100
AcDbPolyline
 90
        4
 70
     0
 43
0.0
 10
160.1118003728
 20
104.2056868112
 10
160.0038081193
 20
104.3019621875
 10
159.8915150688
 20
104.4045303449
 10
159.7776625248999
 20
104.510887385
  0
LWPOLYLINE
  5
A48
330
1E
100
AcDbEntity
  8
0
100
AcDbPolyline
 90
        5
 70
     0
 43
0.0
 10
89.6759367209
 20
148.9943575377
 10
89.7801488886
 20
148.9562973039998
 10
89.8684956984
 20
148.8479109283
 10
89.9275271495
 20
148.6856992539
 10
89.9482562384
 20
148.4943575377
  0
LINE
  5
A4F
330
1E
100
AcDbEntity
  8
0
100
AcDbLine
 10
176.044339212
 20
150.8943575377
 30
0.0
 11
176.044339212
 21
151.3943575377
 31
0.0
  0
LINE
  5
A50
330
1E
100
AcDbEntity
  8
0
100
AcDbLine
 10
176.2487842541998
 20
150.8943575377
 30
0.0
 11
176.2487842541998
 21
151.3943575377
 31
0.0
  0
LINE
  5
A51
330
1E
100
AcDbEntity
  8
0
100
AcDbLine
 10
177.4669359644
 20
150.8943575377
 30
0.0
 11
177.4669359644
 21
151.3943575377
 31
0.0
  0
LWPOLYLINE
  5
A52
330
1E
100
AcDbEntity
  8
0
100
AcDbPolyline
 90
        3
 70
     0
 43
0.0
 10
85.1500966589
 20
146.8943575377
 10
84.9936844816
 20
146.9304419223
 10
84.85725728170001
 20
147.0364753423
  0
LWPOLYLINE
  5
A57
330
1E
100
AcDbEntity
  8
0
100
AcDbPolyline
 90
        5
 70
     0
 43
0.0
 10
88.417930869
 20
146.8943575377
 10
88.2615186507
 20
146.9304419418999
 10
88.1250914816
 20
147.0364753542
 10
88.03103527999999
 20
147.20152661
 10
87.99859558500001
 20
147.3943575377
  0
LWPOLYLINE
  5
A67
330
1E
100
AcDbEntity
  8
0
100
AcDbPolyline
 90
        8
 70
     0
 43
0.0
 10
88.417930869
 20
148.9943575377
 10
88.46259125370002
 20
148.987587712
 10
88.51056031090001
 20
148.9645431611999
 10
88.56010589879998
 20
148.9208030371
 10
88.60827252799998
 20
148.8519357501
 10
88.65025877329998
 20
148.7551948559
 10
88.67954850489999
 20
148.6331501586
 10
88.69025038649999
 20
148.4943575377
  0
LINE
  5
A7C
330
1E
100
AcDbEntity
  8
0
100
AcDbLine
 10
189.4669359644
 20
150.8943575377
 30
0.0
 11
189.4669359644
 21
151.3943575377
 31
0.0
  0
LWPOLYLINE
  5
A7D
330
1E
100
AcDbEntity
  8
0
100
AcDbPolyline
 90
        4
 70
     0
 43
0.0
 10
199.3939309577999
 20
104.2056827848
 10
199.4529242368999
 20
104.3019600268
 10
199.4887274913
 20
104.4045294653999
 10
199.4983108511
 20
104.4639191204
  0
LWPOLYLINE
  5
A83
330
1E
100
AcDbEntity
  8
0
100
AcDbPolyline
 90
        3
 70
     0
 43
0.0
 10
141.8169359644
 20
146.6945525542999
 10
141.7169359634999
 20
146.6943575376999
 10
141.6169359643999
 20
146.6945525542999
  0
LINE
  5
A88
330
1E
100
AcDbEntity
  8
0
100
AcDbLine
 10
85.1500966589
 20
146.8943575377
 30
0.0
 11
90.3807194452
 21
146.8943575377
 31
0.0
  0
LINE
  5
A89
330
1E
100
AcDbEntity
  8
0
100
AcDbLine
 10
84.6500966696
 20
147.3943575377
 30
0.0
 11
90.35149904829999
 21
147.3943575377
 31
0.0
  0
LWPOLYLINE
  5
A8A
330
1E
100
AcDbEntity
  8
0
100
AcDbPolyline
 90
       49
 70
     0
 43
0.0
 10
141.6169359643999
 20
146.6945525542999
 10
141.6055440076
 20
146.6991781876
 10
141.5966674228999
 20
146.7091592117
 10
141.58932949
 20
146.7216708466
 10
141.5827296523
 20
146.7362628909999
 10
141.5766468987999
 20
146.7525561390999
 10
141.5711452545
 20
146.7696840484
 10
141.5662652253
 20
146.7868129256999
 10
141.5617520378
 20
146.8043053648
 10
141.5574799404
 20
146.8223537958
 10
141.5533887075999
 20
146.8410244257998
 10
141.5494319274
 20
146.8603989011
 10
141.5455741919
 20
146.8805631092
 10
141.5417878955
 20
146.9016060392
 10
141.5380511966
 20
146.9236191058999
 10
141.5343466609
 20
146.9466957308
 10
141.5306603306999
 20
146.9709310647999
 10
141.5269810679998
 20
146.9964217731998
 10
141.5233000827
 20
147.0232658285
 10
141.519610592
 20
147.0515622673
 10
141.5159075711
 20
147.0814108746998
 10
141.5121875748
 20
147.1129117643
 10
141.5084486088999
 20
147.14616483
 10
141.5046900403
 20
147.1812690512999
 10
141.5009125335
 20
147.2183216466
 10
141.4971180043
 20
147.2574170865998
 10
141.4933095801998
 20
147.2986460029
 10
141.4894915577999
 20
147.3420940635999
 10
141.4856693465999
 20
147.3878409376998
 10
141.4818493857
 20
147.4359595372999
 10
141.4780390259999
 20
147.4865157796998
 10
141.4742464322999
 20
147.5395682319
 10
141.4704782499
 20
147.5952018189
 10
141.4667176418999
 20
147.653888449
 10
141.4629284654998
 20
147.7165323655998
 10
141.4590864972
 20
147.7840389426
 10
141.4551794077
 20
147.8573133959999
 10
141.4512068461
 20
147.9372615045
 10
141.4471807418
 20
148.0247895496
 10
141.4431257427
 20
148.1208042405999
 10
141.4390797980999
 20
148.2262126018
 10
141.4350949237999
 20
148.3419217922
 10
141.4312382203
 20
148.4688388171
 10
141.4275932518
 20
148.607870082
 10
141.42426194
 20
148.7599207287999
 10
141.4213671951999
 20
148.9258936930999
 10
141.4190566178
 20
149.1066884220999
 10
141.4175077859
 20
149.3031991473
 10
141.4169359644
 20
149.5163137950999
  0
LINE
  5
AC8
330
1E
100
AcDbEntity
  8
0
100
AcDbLine
 10
198.4994882037
 20
94.28223137739999
 30
0.0
 11
197.3392050665
 21
91.2173325244
 31
0.0
  0
LINE
  5
AD1
330
1E
100
AcDbEntity
  8
0
100
AcDbLine
 10
84.6500966696
 20
148.4943575377
 30
0.0
 11
90.2872143044
 21
148.4943575377
 31
0.0
  0
LINE
  5
AD2
330
1E
100
AcDbEntity
  8
0
100
AcDbLine
 10
98.98567358960001
 20
148.8943575377
 30
0.0
 11
90.26383807299998
 21
148.8943575377
 31
0.0
  0
LINE
  5
AD3
330
1E
100
AcDbEntity
  8
0
100
AcDbLine
 10
85.1500966589
 20
148.9943575377
 30
0.0
 11
89.6759367209
 21
148.9943575377
 31
0.0
  0
LINE
  5
AD4
330
1E
100
AcDbEntity
  8
0
100
AcDbLine
 10
81.47751805850001
 20
150.8943575377
 30
0.0
 11
201.9563524363
 21
150.8943575377
 31
0.0
  0
LINE
  5
AD5
330
1E
100
AcDbEntity
  8
0
100
AcDbLine
 10
93.9669359644
 20
151.3943575377
 30
0.0
 11
107.3895048438999
 21
151.3943575377
 31
0.0
  0
LINE
  5
AD6
330
1E
100
AcDbEntity
  8
0
100
AcDbLine
 10
124.9112408313999
 20
151.3943575377
 30
0.0
 11
158.5226310973999
 21
151.3943575377
 31
0.0
  0
LINE
  5
AD7
330
1E
100
AcDbEntity
  8
0
100
AcDbLine
 10
176.044339212
 20
151.3943575377
 30
0.0
 11
189.4669359644
 21
151.3943575377
 31
0.0
  0
LWPOLYLINE
  5
ADF
330
1E
100
AcDbEntity
  8
0
100
AcDbPolyline
 90
        4
 70
     0
 43
0.0
 10
199.5345702433
 20
105.628949722
 10
200.2940560259
 20
120.2104765475999
 10
201.0807258806
 20
135.2862237443
 10
201.8967140783
 20
150.8943575377
  0
LWPOLYLINE
  5
AE5
330
1E
100
AcDbEntity
  8
0
100
AcDbPolyline
 90
        4
 70
     0
 43
0.0
 10
199.5853484154999
 20
105.6461497330999
 10
200.3189064307
 20
119.6694911522
 10
201.1148446909999
 20
134.8605321080998
 10
201.9564052879
 20
150.8943575377
  0
LINE
  5
AEB
330
1E
100
AcDbEntity
  8
0
100
AcDbLine
 10
199.5727169034996
 20
105.4213620467999
 30
0.0
 11
199.585346439
 21
105.6461528462
 31
0.0
  0
LWPOLYLINE
  5
AEC
330
1E
100
AcDbEntity
  8
0
100
AcDbPolyline
 90
        8
 70
     0
 43
0.0
 10
198.4994882037
 20
94.28223137739999
 10
198.5423046050998
 20
94.7674988974
 10
198.5986196057
 20
95.40411385749999
 10
198.6828637801998
 20
96.35299512389998
 10
198.8000974945999
 20
97.6666856599
 10
198.9561813152
 20
99.40377190440001
 10
199.1521221044998
 20
101.5656632763999
 10
199.3939217631
 20
104.2057125702
  0
LWPOLYLINE
  5
AF6
330
1E
100
AcDbEntity
  8
0
100
AcDbPolyline
 90
        4
 70
     0
 43
0.0
 10
199.4983127959
 20
104.463939332
 10
199.5193727356
 20
104.6938959463999
 10
199.5481346936
 20
105.0528923196998
 10
199.5727169034996
 20
105.4213620467999
  0
LWPOLYLINE
  5
AFC
330
1E
100
AcDbEntity
  8
0
100
AcDbPolyline
 90
        7
 70
     0
 43
0.0
 10
198.5599642449
 20
94.543672286
 10
198.6191753699
 20
95.18018202959998
 10
198.6948694890999
 20
95.99175126950001
 10
198.8009519538
 20
97.1251526098
 10
198.9362723390999
 20
98.56427204010001
 10
199.0997294078
 20
100.2928136934
 10
199.2905805647
 20
102.2977091963997
  0
LINE
  5
B05
330
1E
100
AcDbEntity
  8
0
100
AcDbLine
 10
199.2905805647
 20
102.2977091963997
 30
0.0
 11
199.4983100768999
 21
104.4639191666
 31
0.0
  0
LWPOLYLINE
  5
B06
330
1E
100
AcDbEntity
  8
0
100
AcDbPolyline
 90
        4
 70
     0
 43
0.0
 10
199.4420686974999
 20
104.5674033632999
 10
199.4816594987
 20
104.9310438480999
 10
199.5124312920999
 20
105.2882843571
 10
199.5345702438
 20
105.628949722
  0
LINE
  5
B0C
330
1E
100
AcDbEntity
  8
0
100
AcDbLine
 10
199.3939244444
 20
104.2057125702
 30
0.0
 11
199.4420686974999
 21
104.5674033632999
 31
0.0
  0
LWPOLYLINE
  5
B2E
330
1E
100
AcDbEntity
  8
0
100
AcDbPolyline
 90
        5
 70
     0
 43
0.0
 10
88.417930869
 20
148.9943575377
 10
88.26151869170002
 20
148.9582731530999
 10
88.1250914918
 20
148.8522397330999
 10
88.0310352715
 20
148.6871884414
 10
87.99859558500001
 20
148.4943575377
  0
LWPOLYLINE
  5
B35
330
1E
100
AcDbEntity
  8
0
100
AcDbPolyline
 90
        5
 70
     0
 43
0.0
 10
85.1500966589
 20
148.9943575377
 10
84.99368444069999
 20
148.9582731335
 10
84.85725727149999
 20
148.8522397212
 10
84.7632010699
 20
148.6871884654999
 10
84.7307613749
 20
148.4943575377
  0
LWPOLYLINE
  5
B48
330
1E
100
AcDbEntity
  8
0
100
AcDbPolyline
 90
        8
 70
     0
 43
0.0
 10
254.3733821347
 20
104.4639190224999
 10
254.574612365
 20
102.3657325757999
 10
254.7641857824
 20
100.3747877156998
 10
254.9290587423
 20
98.6317391891
 10
255.0669746731
 20
97.16530016230001
 10
255.1754969599
 20
96.0059451118
 10
255.2525857583999
 20
95.17944288530001
 10
255.2974998765999
 20
94.69675786409998
  0
LINE
  5
B52
330
1E
100
AcDbEntity
  8
0
100
AcDbLine
 10
255.2974998765999
 20
94.69675786409998
 30
0.0
 11
255.3117162429
 21
94.54380077280001
 31
0.0
  0
LWPOLYLINE
  5
B53
330
1E
100
AcDbEntity
  8
0
100
AcDbPolyline
 90
        6
 70
     0
 43
0.0
 10
254.4777702786999
 20
104.2057157352
 10
254.7350188193
 20
101.3959599919999
 10
254.9398187713999
 20
99.1341281234
 10
255.0978500212
 20
97.3731465638
 10
255.2143776938
 20
96.06564535270001
 10
255.294740169
 20
95.1593841034
  0
LINE
  5
B5B
330
1E
100
AcDbEntity
  8
0
100
AcDbLine
 10
255.294740169
 20
95.1593841034
 30
0.0
 11
255.3488457834
 21
94.547075748
 31
0.0
  0
LWPOLYLINE
  5
B5C
330
1E
100
AcDbEntity
  8
0
100
AcDbPolyline
 90
        3
 70
     0
 43
0.0
 10
255.3488457834
 20
94.547075748
 10
255.3692135891999
 20
94.3161588012
 10
255.3723834632
 20
94.2817573223
  0
LWPOLYLINE
  5
B61
330
1E
100
AcDbEntity
  8
0
100
AcDbPolyline
 90
        4
 70
     0
 43
0.0
 10
254.298263161
 20
105.4332464630999
 10
254.3227452275
 20
105.0639933917999
 10
254.3514550457
 20
104.7038556993
 10
254.3733795841
 20
104.4639372083
  0
LWPOLYLINE
  5
B67
330
1E
100
AcDbEntity
  8
0
100
AcDbPolyline
 90
        4
 70
     0
 43
0.0
 10
254.3371219592998
 20
105.6289497222999
 10
254.3592608283
 20
105.2882861002
 10
254.3900326536
 20
104.9310444047999
 10
254.429623588
 20
104.5674026612
  0
LINE
  5
B6D
330
1E
100
AcDbEntity
  8
0
100
AcDbLine
 10
254.2863457461
 20
105.6461530682999
 30
0.0
 11
254.298263161
 21
105.4332464630999
 31
0.0
  0
LWPOLYLINE
  5
B6E
330
1E
100
AcDbEntity
  8
0
100
AcDbPolyline
 90
        4
 70
     0
 43
0.0
 10
251.9152869152
 20
150.8943575377
 10
252.7561499570999
 20
134.8738341454998
 10
253.5520894623
 20
119.6827919915999
 10
254.2863437815999
 20
105.6461498501
  0
LWPOLYLINE
  5
B74
330
1E
100
AcDbEntity
  8
0
100
AcDbPolyline
 90
        3
 70
     0
 43
0.0
 10
251.9749781248
 20
150.8943575377
 10
252.7909663224999
 20
135.2862237445
 10
253.5776361773
 20
120.2104765480999
  0
LINE
  5
B79
330
1E
100
AcDbEntity
  8
0
100
AcDbLine
 10
253.5776361773
 20
120.2104765480999
 30
0.0
 11
254.3371219597999
 21
105.6289497222999
 31
0.0
  0
LINE
  5
B7A
330
1E
100
AcDbEntity
  8
0
100
AcDbLine
 10
255.3594326224
 20
94.31596709030001
 30
0.0
 11
256.5324871369999
 21
91.2173325236
 31
0.0
  0
LINE
  5
B7B
330
1E
100
AcDbEntity
  8
0
100
AcDbLine
 10
254.429623588
 20
104.5674026612
 30
0.0
 11
254.4777672111
 21
104.2057157352999
 31
0.0
  0
LINE
  5
B7C
330
1E
100
AcDbEntity
  8
0
100
AcDbLine
 10
264.4047562388
 20
150.8943575377
 30
0.0
 11
264.4047562388
 21
151.3943575377
 31
0.0
  0
LINE
  5
B7D
330
1E
100
AcDbEntity
  8
0
100
AcDbLine
 10
266.0317980334998
 20
150.8943575377
 30
0.0
 11
266.0317980334998
 21
151.3943575377
 31
0.0
  0
LWPOLYLINE
  5
B7E
330
1E
100
AcDbEntity
  8
0
100
AcDbPolyline
 90
        4
 70
     0
 43
0.0
 10
254.4777713772
 20
104.2056868112
 10
254.4187731455
 20
104.3019621875
 10
254.3829665555
 20
104.4045303449
 10
254.3733821347
 20
104.4639190224999
  0
LINE
  5
B84
330
1E
100
AcDbEntity
  8
0
100
AcDbLine
 10
277.8273529911999
 20
150.8943575377
 30
0.0
 11
277.8273529911999
 21
151.3943575377
 31
0.0
  0
LINE
  5
B85
330
1E
100
AcDbEntity
  8
0
100
AcDbLine
 10
287.1547562388
 20
150.8943575377
 30
0.0
 11
287.1547562388
 21
151.3943575377
 31
0.0
  0
LWPOLYLINE
  5
B86
330
1E
100
AcDbEntity
  8
0
100
AcDbPolyline
 90
        4
 70
     0
 43
0.0
 10
293.1816756002998
 20
105.628949722
 10
292.2535683781
 20
120.2104765475999
 10
291.3187508689
 20
135.2862237443
 10
290.3741615233
 20
150.8943575377
  0
LWPOLYLINE
  5
B8C
330
1E
100
AcDbEntity
  8
0
100
AcDbPolyline
 90
        4
 70
     0
 43
0.0
 10
293.5442172123
 20
105.6494974792
 10
292.62901297
 20
120.2246260874999
 10
291.7067473018
 20
135.2935324845
 10
290.7744080564
 20
150.8943575377
  0
LINE
  5
B92
330
1E
100
AcDbEntity
  8
0
100
AcDbLine
 10
295.3490611057
 20
150.8943575377
 30
0.0
 11
295.3490611057
 21
151.3943575377
 31
0.0
  0
LWPOLYLINE
  5
B93
330
1E
100
AcDbEntity
  8
0
100
AcDbPolyline
 90
        4
 70
     0
 43
0.0
 10
293.7598886001
 20
104.2056827848
 10
293.8678821386
 20
104.3019600268
 10
293.9801762139
 20
104.4045294653999
 10
294.094029692
 20
104.5108873715999
  0
LWPOLYLINE
  5
B99
330
1E
100
AcDbEntity
  8
0
100
AcDbPolyline
 90
        5
 70
     0
 43
0.0
 10
294.0940296834998
 20
104.5108873797998
 10
293.8582673241997
 20
104.800235974
 10
293.6903002070998
 20
105.0911752913998
 10
293.5876023493996
 20
105.3769757845999
 10
293.5442172123
 20
105.6494974792
  0
LWPOLYLINE
  5
BA0
330
1E
100
AcDbEntity
  8
0
100
AcDbPolyline
 90
        5
 70
     0
 43
0.0
 10
293.7598741829
 20
104.2057125702
 10
293.5127433936997
 20
104.5674033632999
 10
293.3363005995
 20
104.9310438480999
 10
293.2279682431
 20
105.2882843571
 10
293.1816756018996
 20
105.628949722
  0
LINE
  5
BA7
330
1E
100
AcDbEntity
  8
0
100
AcDbLine
 10
302.9019753764
 20
150.8943575377
 30
0.0
 11
302.9019753764
 21
151.3943575377
 31
0.0
  0
LINE
  5
BA8
330
1E
100
AcDbEntity
  8
0
100
AcDbLine
 10
306.1547562388
 20
150.8943575377
 30
0.0
 11
306.1547562388
 21
151.3943575377
 31
0.0
  0
LINE
  5
BA9
330
1E
100
AcDbEntity
  8
0
100
AcDbLine
 10
367.3094120983
 20
90.89435753770001
 30
0.0
 11
257.0001003904
 21
90.89435753770001
 31
0.0
  0
LINE
  5
BAA
330
1E
100
AcDbEntity
  8
0
100
AcDbLine
 10
256.5324871369999
 20
91.2173325236
 30
0.0
 11
367.7770253405999
 21
91.2173325236
 31
0.0
  0
LINE
  5
BAB
330
1E
100
AcDbEntity
  8
0
100
AcDbLine
 10
312.1547562388
 20
150.8943575377
 30
0.0
 11
312.1547562388
 21
151.3943575377
 31
0.0
  0
LWPOLYLINE
  5
BAC
330
1E
100
AcDbEntity
  8
0
100
AcDbPolyline
 90
        4
 70
     0
 43
0.0
 10
369.9723905194
 20
105.6289497472999
 10
370.0037764858
 20
105.6348767246997
 10
370.0203996975
 20
105.6417605610999
 10
370.0231686898
 20
105.6461497330999
  0
LWPOLYLINE
  5
BB2
330
1E
100
AcDbEntity
  8
0
100
AcDbPolyline
 90
        9
 70
     0
 43
0.0
 10
312.1547562388
 20
94.28223137739999
 10
310.1698970550998
 20
94.4016250457
 10
308.1507167592
 20
94.7674988974
 10
306.0600681732
 20
95.40411385749999
 10
303.8611940016998
 20
96.35299512389998
 10
301.5284354487
 20
97.6666856599
 10
299.0446801934997
 20
99.40377190440001
 10
296.4642079781
 20
101.5656632763999
 10
293.7598657752999
 20
104.2057125702
  0
LWPOLYLINE
  5
BBD
330
1E
100
AcDbEntity
  8
0
100
AcDbPolyline
 90
        9
 70
     0
 43
0.0
 10
312.1547562388
 20
94.58743163420001
 10
310.2078749065
 20
94.70683341549998
 10
308.2272466775998
 20
95.07271361879999
 10
306.1761792465
 20
95.7093315112
 10
304.0183912011
 20
96.6582091259
 10
301.7284142074
 20
97.9718854454
 10
299.2890761039
 20
99.70895226469998
 10
296.7533124897
 20
101.8708197315999
 10
294.0940296834998
 20
104.5108873797998
  0
LWPOLYLINE
  5
BC8
330
1E
100
AcDbEntity
  8
0
100
AcDbPolyline
 90
        4
 70
     0
 43
0.0
 10
254.3371426832
 20
105.6289512675
 10
254.3057482977999
 20
105.6348778322999
 10
254.2891181688
 20
105.6417611607
 10
254.2863459095999
 20
105.6461499582999
  0
LINE
  5
BCE
330
1E
100
AcDbEntity
  8
0
100
AcDbLine
 10
324.5133656424
 20
150.8943575377
 30
0.0
 11
324.5133656424
 21
151.3943575377
 31
0.0
  0
LWPOLYLINE
  5
BCF
330
1E
100
AcDbEntity
  8
0
100
AcDbPolyline
 90
        9
 70
     0
 43
0.0
 10
330.215482794
 20
104.5108873797998
 10
327.5564537266999
 20
101.8710536545999
 10
325.0209248960998
 20
99.70933425620001
 10
322.5820368158998
 20
97.97248764069999
 10
320.2924419783
 20
96.65887667799999
 10
318.1343121644998
 20
95.7096976591
 10
316.0828472064999
 20
95.0728569522
 10
314.1018207356
 20
94.70685579879999
 10
312.1547562388
 20
94.58743163420001
  0
LWPOLYLINE
  5
BDA
330
1E
100
AcDbEntity
  8
0
100
AcDbPolyline
 90
        9
 70
     0
 43
0.0
 10
330.5496464361
 20
104.2057123129
 10
327.8455636574
 20
101.5658981314
 10
325.2653320125998
 20
99.4041557607
 10
322.7820378097998
 20
97.66729093450001
 10
320.449669761
 20
96.35366548360002
 10
318.2504475582
 20
95.40448205409999
 10
316.1593935212
 20
94.7676435007
 10
314.1398070424
 20
94.4016480095
 10
312.1547562388
 20
94.28223137739999
  0
LWPOLYLINE
  5
BE5
330
1E
100
AcDbEntity
  8
0
100
AcDbPolyline
 90
        4
 70
     0
 43
0.0
 10
293.1816755986
 20
105.6289497472999
 10
293.3002312744998
 20
105.6348767246997
 10
293.4216888295998
 20
105.6417605610999
 10
293.5442172123
 20
105.6494974792
  0
LINE
  5
BEB
330
1E
100
AcDbEntity
  8
0
100
AcDbLine
 10
254.4777702786999
 20
104.2057157352
 30
0.0
 11
293.7598657752999
 21
104.2057125702
 31
0.0
  0
LINE
  5
BEC
330
1E
100
AcDbEntity
  8
0
100
AcDbLine
 10
330.5496464361
 20
104.2057123129
 30
0.0
 11
369.8317422178
 21
104.2057160374999
 31
0.0
  0
LINE
  5
BED
330
1E
100
AcDbEntity
  8
0
100
AcDbLine
 10
254.3371219597999
 20
105.6289497222999
 30
0.0
 11
293.1816756002998
 21
105.628949722
 31
0.0
  0
LINE
  5
BEE
330
1E
100
AcDbEntity
  8
0
100
AcDbLine
 10
331.1278368773
 20
105.6289497222999
 30
0.0
 11
369.9723905176998
 21
105.628949722
 31
0.0
  0
LWPOLYLINE
  5
BEF
330
1E
100
AcDbEntity
  8
0
100
AcDbPolyline
 90
        4
 70
     0
 43
0.0
 10
331.1278300763
 20
105.6289512675
 10
331.0092774304
 20
105.6348778322999
 10
330.8878220874
 20
105.6417611607
 10
330.7652952706
 20
105.6494974842999
  0
LINE
  5
BF5
330
1E
100
AcDbEntity
  8
0
100
AcDbLine
 10
328.9604513717999
 20
150.8943575377
 30
0.0
 11
328.9604513717999
 21
151.3943575377
 31
0.0
  0
LWPOLYLINE
  5
BF6
330
1E
100
AcDbEntity
  8
0
100
AcDbPolyline
 90
        5
 70
     0
 43
0.0
 10
331.1278368756997
 20
105.6289497222999
 10
331.0815447595
 20
105.2882861002
 10
330.9732121056998
 20
104.9310444046999
 10
330.7967686677
 20
104.5674026612
 10
330.5496381138
 20
104.2057123129997
  0
LWPOLYLINE
  5
BFD
330
1E
100
AcDbEntity
  8
0
100
AcDbPolyline
 90
        5
 70
     0
 43
0.0
 10
330.7652952651999
 20
105.6494974792
 10
330.7219105548
 20
105.3769771844
 10
330.6192124736998
 20
105.0911757412
 10
330.4512447366
 20
104.8002354279998
 10
330.215482794
 20
104.5108873797998
  0
LWPOLYLINE
  5
C04
330
1E
100
AcDbEntity
  8
0
100
AcDbPolyline
 90
        4
 70
     0
 43
0.0
 10
330.5496206191
 20
104.2056868461
 10
330.4416283783
 20
104.3019622071998
 10
330.329335337
 20
104.4045303529
 10
330.2154827988
 20
104.5108873845
  0
LWPOLYLINE
  5
C0A
330
1E
100
AcDbEntity
  8
0
100
AcDbPolyline
 90
        4
 70
     0
 43
0.0
 10
333.5351044212
 20
150.8943575377
 10
332.6027651756997
 20
135.2935324847998
 10
331.6804995074998
 20
120.2246260879
 10
330.7652952651999
 20
105.6494974792
  0
LWPOLYLINE
  5
C10
330
1E
100
AcDbEntity
  8
0
100
AcDbPolyline
 90
        4
 70
     0
 43
0.0
 10
333.9353509541997
 20
150.8943575377
 10
332.9907616085999
 20
135.2862237445
 10
332.0559440994998
 20
120.2104765480999
 10
331.1278368773
 20
105.6289497222999
  0
LINE
  5
C16
330
1E
100
AcDbEntity
  8
0
100
AcDbLine
 10
337.1547562388
 20
150.8943575377
 30
0.0
 11
337.1547562388
 21
151.3943575377
 31
0.0
  0
LINE
  5
C17
330
1E
100
AcDbEntity
  8
0
100
AcDbLine
 10
347.1547562387998
 20
150.8943575377
 30
0.0
 11
347.1547562387998
 21
151.3943575377
 31
0.0
  0
LINE
  5
C18
330
1E
100
AcDbEntity
  8
0
100
AcDbLine
 10
347.9047562387999
 20
150.8943575377
 30
0.0
 11
347.9047562387999
 21
151.3943575377
 31
0.0
  0
LINE
  5
C19
330
1E
100
AcDbEntity
  8
0
100
AcDbLine
 10
359.9047562387998
 20
150.8943575377
 30
0.0
 11
359.9047562387998
 21
151.3943575377
 31
0.0
  0
LWPOLYLINE
  5
C1A
330
1E
100
AcDbEntity
  8
0
100
AcDbPolyline
 90
        4
 70
     0
 43
0.0
 10
369.8317512322
 20
104.2056827848
 10
369.8907445112999
 20
104.3019600268
 10
369.9265477656998
 20
104.4045294653999
 10
369.9361311082
 20
104.4639189409
  0
LINE
  5
C20
330
1E
100
AcDbEntity
  8
0
100
AcDbLine
 10
368.9500798765
 20
94.3159671467
 30
0.0
 11
367.7770253405999
 21
91.2173325236
 31
0.0
  0
LINE
  5
C21
330
1E
100
AcDbEntity
  8
0
100
AcDbLine
 10
251.9153387720999
 20
150.8943575377
 30
0.0
 11
372.3941727106
 21
150.8943575377
 31
0.0
  0
LINE
  5
C22
330
1E
100
AcDbEntity
  8
0
100
AcDbLine
 10
264.4047562388
 20
151.3943575377
 30
0.0
 11
287.1547562388
 21
151.3943575377
 31
0.0
  0
LINE
  5
C23
330
1E
100
AcDbEntity
  8
0
100
AcDbLine
 10
295.3495571625998
 20
151.3943575377
 30
0.0
 11
328.9604513717999
 21
151.3943575377
 31
0.0
  0
LINE
  5
C24
330
1E
100
AcDbEntity
  8
0
100
AcDbLine
 10
337.1547562388
 20
151.3943575377
 30
0.0
 11
359.9047562387998
 21
151.3943575377
 31
0.0
  0
LWPOLYLINE
  5
C25
330
1E
100
AcDbEntity
  8
0
100
AcDbPolyline
 90
        4
 70
     0
 43
0.0
 10
369.9723905176998
 20
105.628949722
 10
370.7318737519
 20
120.2104276611
 10
371.5185446598999
 20
135.2861951116
 10
372.3345343526998
 20
150.8943575377
  0
LWPOLYLINE
  5
C2B
330
1E
100
AcDbEntity
  8
0
100
AcDbPolyline
 90
        4
 70
     0
 43
0.0
 10
370.0231686898
 20
105.6461497330999
 10
370.7567225728997
 20
119.6694122196998
 10
371.5526608258
 20
134.8604531681
 10
372.3942255623
 20
150.8943575377
  0
LINE
  5
C31
330
1E
100
AcDbEntity
  8
0
100
AcDbLine
 10
370.0105371777999
 20
105.4213620467999
 30
0.0
 11
370.0231667133
 21
105.6461528462
 31
0.0
  0
LINE
  5
C32
330
1E
100
AcDbEntity
  8
0
100
AcDbLine
 10
368.9403576419998
 20
94.316824684
 30
0.0
 11
368.9643727976
 21
94.58909386280001
 31
0.0
  0
LWPOLYLINE
  5
C33
330
1E
100
AcDbEntity
  8
0
100
AcDbPolyline
 90
        7
 70
     0
 43
0.0
 10
368.9643727976
 20
94.58909386280001
 10
369.0145942504
 20
95.15737194699999
 10
369.0948624544998
 20
96.06258059099999
 10
369.2112346387
 20
97.3683603283
 10
369.3692790818
 20
99.1295258875
 10
369.5742073171
 20
101.3928133385
 10
369.8317422178
 20
104.2057160374999
  0
LWPOLYLINE
  5
C3C
330
1E
100
AcDbEntity
  8
0
100
AcDbPolyline
 90
        4
 70
     0
 43
0.0
 10
369.9361330703
 20
104.463939332
 10
369.95719301
 20
104.6938959463999
 10
369.985954968
 20
105.0528923196998
 10
370.0105371777999
 20
105.4213620467999
  0
LINE
  5
C42
330
1E
100
AcDbEntity
  8
0
100
AcDbLine
 10
368.9371290311
 20
94.2817573665
 30
0.0
 11
368.9403576419998
 21
94.316824684
 31
0.0
  0
LWPOLYLINE
  5
C43
330
1E
100
AcDbEntity
  8
0
100
AcDbPolyline
 90
        7
 70
     0
 43
0.0
 10
368.9977962346
 20
94.5438007733
 10
369.0568589230999
 20
95.17871492549998
 10
369.1338674707
 20
96.004360199
 10
369.2422838894998
 20
97.1625932152
 10
369.3800705691
 20
98.62767566770001
 10
369.5447903639997
 20
100.3691350630999
 10
369.7341846268
 20
102.3582446897999
  0
LINE
  5
C4C
330
1E
100
AcDbEntity
  8
0
100
AcDbLine
 10
369.7341846268
 20
102.3582446897999
 30
0.0
 11
369.9361303387
 21
104.4639189866999
 31
0.0
  0
LWPOLYLINE
  5
C4D
330
1E
100
AcDbEntity
  8
0
100
AcDbPolyline
 90
        4
 70
     0
 43
0.0
 10
369.8798889718
 20
104.5674033632999
 10
369.919479773
 20
104.9310438480999
 10
369.9502515665
 20
105.2882843571
 10
369.9723905181998
 20
105.628949722
  0
LINE
  5
C53
330
1E
100
AcDbEntity
  8
0
100
AcDbLine
 10
369.8317453187998
 20
104.2057160376
 30
0.0
 11
369.8798889718
 21
104.5674033632999
 31
0.0
  0
LWPOLYLINE
  5
CCF
330
1E
100
AcDbEntity
  8
0
100
AcDbPolyline
 90
        3
 70
     0
 43
0.0
 10
81.53715785060001
 20
238.4821749135999
 10
81.4877838716
 20
238.285066263
 10
81.4792486482
 20
238.0819283794
  0
LWPOLYLINE
  5
CE1
330
1E
100
AcDbEntity
  8
0
100
AcDbPolyline
 90
        3
 70
     0
 43
0.0
 10
119.9363412480998
 20
156.5218020838998
 10
120.133449899
 20
156.4724281046999
 10
120.3365877829
 20
156.4638928814
  0
LINE
  5
CE6
330
1E
100
AcDbEntity
  8
0
100
AcDbLine
 10
84.7307613749
 20
183.2714155905
 30
0.0
 11
87.99859558500001
 21
178.2393921827999
 31
0.0
  0
LINE
  5
CE7
330
1E
100
AcDbEntity
  8
0
100
AcDbLine
 10
84.87777714139999
 20
183.963070392
 30
0.0
 11
88.69025038649999
 21
178.0923764163999
 31
0.0
  0
LINE
  5
CE8
330
1E
100
AcDbEntity
  8
0
100
AcDbLine
 10
86.13578299329999
 20
184.7800289445
 30
0.0
 11
89.9482562384
 21
178.9093349688999
 31
0.0
  0
LWPOLYLINE
  5
CF3
330
1E
100
AcDbEntity
  8
0
100
AcDbPolyline
 90
        3
 70
     0
 43
0.0
 10
81.4792486482
 20
195.3212320159
 10
81.4877809883
 20
195.1181140622
 10
81.53715785060001
 20
194.9209854816999
  0
LINE
  5
D0E
330
1E
100
AcDbEntity
  8
0
100
AcDbLine
 10
83.7169359644
 20
220.1015801975998
 30
0.0
 11
83.7169359644
 21
213.3015801975999
 31
0.0
  0
LWPOLYLINE
  5
D1B
330
1E
100
AcDbEntity
  8
0
100
AcDbPolyline
 90
        5
 70
     0
 43
0.0
 10
141.8169359644
 20
156.8015801976
 10
141.8932091061
 20
156.8168043947
 10
141.9580718237
 20
156.8602944762
 10
142.0016025612999
 20
156.9256689642
 10
142.0169359644
 20
157.0030230857
  0
LWPOLYLINE
  5
D22
330
1E
100
AcDbEntity
  8
0
100
AcDbPolyline
 90
        3
 70
     0
 43
0.0
 10
163.0972841458
 20
156.4638928814
 10
163.3004082054999
 20
156.4724261047
 10
163.4975306807
 20
156.5218020838998
  0
LINE
  5
D27
330
1E
100
AcDbEntity
  8
0
100
AcDbLine
 10
141.6169359643999
 20
156.8015801976
 30
0.0
 11
141.8169359644
 21
156.8015801976
 31
0.0
  0
LINE
  5
D28
330
1E
100
AcDbEntity
  8
0
100
AcDbLine
 10
138.3169359644
 20
158.7015801976
 30
0.0
 11
145.1169359644
 21
158.7015801976
 31
0.0
  0
LWPOLYLINE
  5
D3A
330
1E
100
AcDbEntity
  8
0
100
AcDbPolyline
 90
        7
 70
     0
 43
0.0
 10
86.38020676389999
 20
222.0299011827
 10
86.37453276829999
 20
222.2464093422999
 10
86.2889477767
 20
224.4584911283
 10
86.16678990690003
 20
226.8177878713
 10
86.00171455780001
 20
229.3361348318998
 10
85.78845383779999
 20
232.0041618308999
 10
85.5217857082
 20
234.8171061002999
  0
LINE
  5
D43
330
1E
100
AcDbEntity
  8
0
100
AcDbLine
 10
85.71693596439997
 20
211.7015801975998
 30
0.0
 11
85.71693596439997
 21
213.3015801975999
 31
0.0
  0
LINE
  5
D44
330
1E
100
AcDbEntity
  8
0
100
AcDbLine
 10
85.71693596439997
 20
220.1015801975998
 30
0.0
 11
85.71693596439997
 21
221.7015801975998
 31
0.0
  0
LINE
  5
D4D
330
1E
100
AcDbEntity
  8
0
100
AcDbLine
 10
86.21693596440001
 20
211.7015801975998
 30
0.0
 11
86.21693596440001
 21
221.7015801975998
 31
0.0
  0
LWPOLYLINE
  5
D4E
330
1E
100
AcDbEntity
  8
0
100
AcDbPolyline
 90
        3
 70
     0
 43
0.0
 10
85.5217857082
 20
198.586054295
 10
85.77893781569999
 20
201.2902740526
 10
85.91147619110001
 20
202.9306759301999
  0
LWPOLYLINE
  5
D70
330
1E
100
AcDbEntity
  8
0
100
AcDbPolyline
 90
        4
 70
     0
 43
0.0
 10
123.6014100617
 20
160.5064299414
 10
123.3515936787999
 20
160.4780391344
 10
123.1978732006
 20
160.4542480719
 10
123.1354898316999
 20
160.4354261776
  0
LWPOLYLINE
  5
D76
330
1E
100
AcDbEntity
  8
0
100
AcDbPolyline
 90
        7
 70
     0
 43
0.0
 10
136.3885783764
 20
161.3644708614
 10
136.0921565842
 20
161.3565753272999
 10
133.8729958865
 20
161.2696497775
 10
131.516036554
 20
161.1464615300999
 10
129.0139423021998
 20
160.9813784253
 10
126.3740061885
 20
160.7695741187
 10
123.6014100617
 20
160.5064299414
  0
LINE
  5
D7F
330
1E
100
AcDbEntity
  8
0
100
AcDbLine
 10
146.7169359643999
 20
160.7015801976
 30
0.0
 11
145.1169359644
 21
160.7015801976
 31
0.0
  0
LINE
  5
D80
330
1E
100
AcDbEntity
  8
0
100
AcDbLine
 10
138.3169359644
 20
160.7015801976
 30
0.0
 11
136.7169359643999
 21
160.7015801976
 31
0.0
  0
LINE
  5
D81
330
1E
100
AcDbEntity
  8
0
100
AcDbLine
 10
136.7169359643999
 20
161.2015801975998
 30
0.0
 11
146.7169359643999
 21
161.2015801975998
 31
0.0
  0
LWPOLYLINE
  5
D95
330
1E
100
AcDbEntity
  8
0
100
AcDbPolyline
 90
        3
 70
     0
 43
0.0
 10
159.832461867
 20
160.5064299414
 10
157.1349276225999
 20
160.7629948121
 10
155.5382206726
 20
160.8920628471
  0
LWPOLYLINE
  5
DA1
330
1E
100
AcDbEntity
  8
0
100
AcDbPolyline
 90
        4
 70
     0
 43
0.0
 10
85.5217857082
 20
234.8171061002999
 10
85.49339490079999
 20
235.0669224862
 10
85.4696038384
 20
235.2206429625999
 10
85.45078194430002
 20
235.2830263302999
  0
LWPOLYLINE
  5
DAE
330
1E
100
AcDbEntity
  8
0
100
AcDbPolyline
 90
        4
 70
     0
 43
0.0
 10
85.45078194430002
 20
198.120134065
 10
85.46960359839998
 20
198.1825162321
 10
85.49339475569999
 20
198.3362367925999
 10
85.5217857082
 20
198.586054295
  0
LWPOLYLINE
  5
DC4
330
1E
100
AcDbEntity
  8
0
100
AcDbPolyline
 90
        4
 70
     0
 43
0.0
 10
160.298382097
 20
160.4354261776
 10
160.2359999287999
 20
160.4542478319
 10
160.0822793665996
 20
160.4780389892999
 10
159.832461867
 20
160.5064299414
  0
LINE
  5
DCA
330
1E
100
AcDbEntity
  8
0
100
AcDbLine
 10
91.24340582850001
 20
213.2850387272998
 30
0.0
 11
93.11880614729998
 21
202.6491149947
 31
0.0
  0
LINE
  5
DCB
330
1E
100
AcDbEntity
  8
0
100
AcDbLine
 10
99.96693596440001
 20
216.7015801975999
 30
0.0
 11
99.96693596440001
 21
214.2014801975999
 31
0.0
  0
LINE
  5
DCC
330
1E
100
AcDbEntity
  8
0
100
AcDbLine
 10
99.96693596440001
 20
216.7015801975999
 30
0.0
 11
99.96693596440001
 21
219.2016801976
 31
0.0
  0
LINE
  5
DDD
330
1E
100
AcDbEntity
  8
0
100
AcDbLine
 10
168.2134406652999
 20
176.7233668640999
 30
0.0
 11
168.7169359644
 21
176.7277608009994
 31
0.0
  0
LINE
  5
DDE
330
1E
100
AcDbEntity
  8
0
100
AcDbLine
 10
141.7169359644
 20
174.9515801975999
 30
0.0
 11
139.2168359644
 21
174.9515801975999
 31
0.0
  0
LINE
  5
DDF
330
1E
100
AcDbEntity
  8
0
100
AcDbLine
 10
141.7169359644
 20
174.9515801975999
 30
0.0
 11
144.2170359644
 21
174.9515801975999
 31
0.0
  0
LINE
  5
DE0
330
1E
100
AcDbEntity
  8
0
100
AcDbLine
 10
169.5742812589998
 20
175.1015801975999
 30
0.0
 11
170.3928950035
 21
175.1015801975999
 31
0.0
  0
LINE
  5
DE1
330
1E
100
AcDbEntity
  8
0
100
AcDbLine
 10
170.0080330732999
 20
176.7626682722
 30
0.0
 11
168.7169359644
 21
176.7626682722
 31
0.0
  0
LINE
  5
DE2
330
1E
100
AcDbEntity
  8
0
100
AcDbLine
 10
171.9817670393996
 20
176.9015801975999
 30
0.0
 11
168.0639019228
 21
176.9015801975999
 31
0.0
  0
LINE
  5
DF2
330
1E
100
AcDbEntity
  8
0
100
AcDbLine
 10
107.133651791
 20
198.4162043827
 30
0.0
 11
110.9461250360999
 21
192.5455104071
 31
0.0
  0
LINE
  5
DF3
330
1E
100
AcDbEntity
  8
0
100
AcDbLine
 10
108.1926648512
 20
199.1039355053
 30
0.0
 11
112.0051380962999
 21
193.2332415297
 31
0.0
  0
LINE
  5
DFA
330
1E
100
AcDbEntity
  8
0
100
AcDbLine
 10
97.0937977061
 20
214.3166206629999
 30
0.0
 11
97.5065262692
 21
214.8301704127999
 31
0.0
  0
LWPOLYLINE
  5
DFB
330
1E
100
AcDbEntity
  8
0
100
AcDbPolyline
 90
        3
 70
     0
 43
0.0
 10
85.269189708
 20
197.8996348623
 10
85.36019179710001
 20
198.0099424500999
 10
85.45078194430002
 20
198.120134065
  0
LWPOLYLINE
  5
E00
330
1E
100
AcDbEntity
  8
0
100
AcDbPolyline
 90
        3
 70
     0
 43
0.0
 10
83.0859885175
 20
195.3546965397
 10
83.4188038157
 20
195.7313431356
 10
83.74690490049998
 20
196.1063253504
  0
LWPOLYLINE
  5
E05
330
1E
100
AcDbEntity
  8
0
100
AcDbPolyline
 90
        3
 70
     0
 43
0.0
 10
162.3121908116999
 20
274.6716112615
 10
162.6871530001
 20
274.9996947367999
 10
163.0638196223
 20
275.3325276445
  0
LWPOLYLINE
  5
E0A
330
1E
100
AcDbEntity
  8
0
100
AcDbPolyline
 90
        3
 70
     0
 43
0.0
 10
160.298382097
 20
272.9677342177
 10
160.4085715653
 20
273.0583225971
 10
160.5188812996999
 20
273.149326454
  0
LINE
  5
E0F
330
1E
100
AcDbEntity
  8
0
100
AcDbLine
 10
141.7169359644
 20
186.7015801975998
 30
0.0
 11
134.2169359643999
 21
186.7015801975998
 31
0.0
  0
LINE
  5
E10
330
1E
100
AcDbEntity
  8
0
100
AcDbLine
 10
141.7169359644
 20
186.7015801975998
 30
0.0
 11
149.2169359643999
 21
186.7015801975998
 31
0.0
  0
LWPOLYLINE
  5
E27
330
1E
100
AcDbEntity
  8
0
100
AcDbPolyline
 90
        3
 70
     0
 43
0.0
 10
160.5188812996999
 20
160.2538339412999
 10
160.4085737119
 20
160.3448360303
 10
160.298382097
 20
160.4354261776
  0
LWPOLYLINE
  5
E2C
330
1E
100
AcDbEntity
  8
0
100
AcDbPolyline
 90
        3
 70
     0
 43
0.0
 10
163.0638196223
 20
158.0706327507999
 10
162.6871730262
 20
158.4034480490998
 10
162.3121908116999
 20
158.7315491338
  0
LWPOLYLINE
  5
E31
330
1E
100
AcDbEntity
  8
0
100
AcDbPolyline
 90
        3
 70
     0
 43
0.0
 10
83.74690490049998
 20
237.2968350449
 10
83.4188214253
 20
237.6717972333
 10
83.0859885175
 20
238.0484638556
  0
LWPOLYLINE
  5
E36
330
1E
100
AcDbEntity
  8
0
100
AcDbPolyline
 90
        3
 70
     0
 43
0.0
 10
85.45078194430002
 20
235.2830263302999
 10
85.360193565
 20
235.3932157985
 10
85.269189708
 20
235.5035255329999
  0
LINE
  5
E3B
330
1E
100
AcDbEntity
  8
0
100
AcDbLine
 10
115.5021289245999
 20
195.5042139268999
 30
0.0
 11
111.6896556794999
 21
201.3749079025
 31
0.0
  0
LINE
  5
E3C
330
1E
100
AcDbEntity
  8
0
100
AcDbLine
 10
116.9131551683999
 20
196.4205450838
 30
0.0
 11
113.1006819231999
 21
202.2912390594
 31
0.0
  0
LINE
  5
E3D
330
1E
100
AcDbEntity
  8
0
100
AcDbLine
 10
121.2296747545
 20
196.8389990934999
 30
0.0
 11
115.2386453692999
 21
206.0643753408998
 31
0.0
  0
LINE
  5
E7E
330
1E
100
AcDbEntity
  8
0
100
AcDbLine
 10
121.1957273647998
 20
241.1578042704999
 30
0.0
 11
121.1957273647998
 21
228.6578042704999
 31
0.0
  0
LINE
  5
E7F
330
1E
100
AcDbEntity
  8
0
100
AcDbLine
 10
121.1957273647998
 20
241.1578042704999
 30
0.0
 11
121.1957273647998
 21
253.6578042704999
 31
0.0
  0
LWPOLYLINE
  5
E82
330
1E
100
AcDbEntity
  8
0
100
AcDbPolyline
 90
        5
 70
     0
 43
0.0
 10
141.4169359644
 20
157.0030230857
 10
141.4322693674999
 20
156.9256689642
 10
141.4758001051
 20
156.8602944762
 10
141.5406628226999
 20
156.8168043947
 10
141.6169359643999
 20
156.8015801976
  0
LINE
  5
E90
330
1E
100
AcDbEntity
  8
0
100
AcDbLine
 10
153.8462090213998
 20
265.8150277971
 30
0.0
 11
152.3413203908
 21
261.6803802657
 31
0.0
  0
LINE
  5
E91
330
1E
100
AcDbEntity
  8
0
100
AcDbLine
 10
93.11880614729998
 20
202.6491149947
 30
0.0
 11
97.61726636120002
 21
203.4423149020999
 31
0.0
  0
LINE
  5
E99
330
1E
100
AcDbEntity
  8
0
100
AcDbLine
 10
83.68415733399999
 20
211.7015801975998
 30
0.0
 11
86.21693596440001
 21
211.7015801975998
 31
0.0
  0
LINE
  5
E9A
330
1E
100
AcDbEntity
  8
0
100
AcDbLine
 10
197.2169359643999
 20
211.7015801975998
 30
0.0
 11
199.7497145947999
 21
211.7015801975998
 31
0.0
  0
LINE
  5
EAB
330
1E
100
AcDbEntity
  8
0
100
AcDbLine
 10
167.0842472562
 20
178.0690871661999
 30
0.0
 11
169.9125127387999
 21
174.6984916165
 31
0.0
  0
LINE
  5
EAC
330
1E
100
AcDbEntity
  8
0
100
AcDbLine
 10
136.3024992059999
 20
272.9326558994998
 30
0.0
 11
136.4070812749
 21
271.8465295871999
 31
0.0
  0
LINE
  5
EAD
330
1E
100
AcDbEntity
  8
0
100
AcDbLine
 10
147.1313727227
 20
160.4705044957999
 30
0.0
 11
147.0267906539
 21
161.5566308080999
 31
0.0
  0
LINE
  5
EAE
330
1E
100
AcDbEntity
  8
0
100
AcDbLine
 10
136.7169359643999
 20
158.6688015672999
 30
0.0
 11
136.7169359643999
 21
161.2015801975998
 31
0.0
  0
LINE
  5
EAF
330
1E
100
AcDbEntity
  8
0
100
AcDbLine
 10
136.7169359643999
 20
272.2015801975999
 30
0.0
 11
136.7169359643999
 21
274.7343588279999
 31
0.0
  0
LINE
  5
EB0
330
1E
100
AcDbEntity
  8
0
100
AcDbLine
 10
138.3169359644
 20
274.7015801976
 30
0.0
 11
138.3169359644
 21
272.2015801975999
 31
0.0
  0
LINE
  5
EB1
330
1E
100
AcDbEntity
  8
0
100
AcDbLine
 10
138.3169359644
 20
161.2015801975998
 30
0.0
 11
138.3169359644
 21
158.7015801976
 31
0.0
  0
LINE
  5
EB2
330
1E
100
AcDbEntity
  8
0
100
AcDbLine
 10
141.4169359644
 20
157.1014547581
 30
0.0
 11
141.4169359644
 21
157.0030230857
 31
0.0
  0
LINE
  5
EB3
330
1E
100
AcDbEntity
  8
0
100
AcDbLine
 10
141.7169359644
 20
258.4515801975999
 30
0.0
 11
141.7169359644
 21
255.9876968868996
 31
0.0
  0
LINE
  5
EB4
330
1E
100
AcDbEntity
  8
0
100
AcDbLine
 10
141.7169359644
 20
255.9515801976
 30
0.0
 11
141.7169359644
 21
255.9514801975999
 31
0.0
  0
LINE
  5
EB5
330
1E
100
AcDbEntity
  8
0
100
AcDbLine
 10
141.7169359644
 20
246.7015801975998
 30
0.0
 11
141.7169359644
 21
244.9015801975999
 31
0.0
  0
LINE
  5
EB6
330
1E
100
AcDbEntity
  8
0
100
AcDbLine
 10
141.7169359644
 20
244.7234926161999
 30
0.0
 11
141.7169359644
 21
239.2015801976
 31
0.0
  0
LINE
  5
EB7
330
1E
100
AcDbEntity
  8
0
100
AcDbLine
 10
141.7169359644
 20
244.9015801975999
 30
0.0
 11
141.7169359644
 21
244.7234926161999
 31
0.0
  0
LINE
  5
EB8
330
1E
100
AcDbEntity
  8
0
100
AcDbLine
 10
141.7169359644
 20
216.7015801975999
 30
0.0
 11
141.7169359644
 21
188.6796677790999
 31
0.0
  0
LINE
  5
EB9
330
1E
100
AcDbEntity
  8
0
100
AcDbLine
 10
141.7169359644
 20
184.7234926161999
 30
0.0
 11
141.7169359644
 21
177.4515801975999
 31
0.0
  0
LINE
  5
EBA
330
1E
100
AcDbEntity
  8
0
100
AcDbLine
 10
141.7169359644
 20
188.5015801975999
 30
0.0
 11
141.7169359644
 21
184.9015801975999
 31
0.0
  0
LINE
  5
EBB
330
1E
100
AcDbEntity
  8
0
100
AcDbLine
 10
141.7169359644
 20
177.3515801976
 30
0.0
 11
141.7169359644
 21
152.59160719
 31
0.0
  0
LINE
  5
EBC
330
1E
100
AcDbEntity
  8
0
100
AcDbLine
 10
141.7169359644
 20
184.9015801975999
 30
0.0
 11
141.7169359644
 21
184.7234926161999
 31
0.0
  0
LINE
  5
EBD
330
1E
100
AcDbEntity
  8
0
100
AcDbLine
 10
141.7169359644
 20
177.3515801976
 30
0.0
 11
141.7169359644
 21
177.4515801975999
 31
0.0
  0
LINE
  5
EBE
330
1E
100
AcDbEntity
  8
0
100
AcDbLine
 10
141.7169359644
 20
188.5015801975999
 30
0.0
 11
141.7169359644
 21
188.6796677790999
 31
0.0
  0
LINE
  5
EBF
330
1E
100
AcDbEntity
  8
0
100
AcDbLine
 10
141.7169359644
 20
248.5015801976
 30
0.0
 11
141.7169359644
 21
248.6796677790999
 31
0.0
  0
LINE
  5
EC0
330
1E
100
AcDbEntity
  8
0
100
AcDbLine
 10
141.7169359644
 20
246.7015801975998
 30
0.0
 11
141.7169359644
 21
248.5015801976
 31
0.0
  0
LINE
  5
EC1
330
1E
100
AcDbEntity
  8
0
100
AcDbLine
 10
141.7169359644
 20
248.6796677790999
 30
0.0
 11
141.7169359644
 21
254.2015801975999
 31
0.0
  0
LINE
  5
EC2
330
1E
100
AcDbEntity
  8
0
100
AcDbLine
 10
141.7169359644
 20
255.9515801976
 30
0.0
 11
141.7169359644
 21
255.9876968868996
 31
0.0
  0
LINE
  5
EC3
330
1E
100
AcDbEntity
  8
0
100
AcDbLine
 10
141.7169359644
 20
258.4515801975999
 30
0.0
 11
141.7169359644
 21
260.9516801975999
 31
0.0
  0
LINE
  5
EC4
330
1E
100
AcDbEntity
  8
0
100
AcDbLine
 10
141.7169359644
 20
216.7015801975999
 30
0.0
 11
141.7169359644
 21
239.2015801976
 31
0.0
  0
LINE
  5
EC5
330
1E
100
AcDbEntity
  8
0
100
AcDbLine
 10
141.7169359644
 20
260.9516801975999
 30
0.0
 11
141.7169359644
 21
280.8115532053
 31
0.0
  0
LINE
  5
EC6
330
1E
100
AcDbEntity
  8
0
100
AcDbLine
 10
141.7169359644
 20
254.2015801975999
 30
0.0
 11
141.7169359644
 21
255.9514801975999
 31
0.0
  0
LINE
  5
EC7
330
1E
100
AcDbEntity
  8
0
100
AcDbLine
 10
142.0169359644
 20
157.1014547581
 30
0.0
 11
142.0169359644
 21
157.0030230857
 31
0.0
  0
LINE
  5
EC8
330
1E
100
AcDbEntity
  8
0
100
AcDbLine
 10
136.4070812747999
 20
161.5566308080999
 30
0.0
 11
136.3024992059
 21
160.4705044957999
 31
0.0
  0
LINE
  5
EC9
330
1E
100
AcDbEntity
  8
0
100
AcDbLine
 10
147.0267906539999
 20
271.8465295871999
 30
0.0
 11
147.1313727227999
 21
272.9326558994998
 31
0.0
  0
LINE
  5
ECA
330
1E
100
AcDbEntity
  8
0
100
AcDbLine
 10
154.303694172
 20
265.6078529836999
 30
0.0
 11
153.3718964306999
 21
262.1303364708
 31
0.0
  0
LINE
  5
ECB
330
1E
100
AcDbEntity
  8
0
100
AcDbLine
 10
153.8555491797
 20
262.0035014506
 30
0.0
 11
154.3964278887
 21
264.0220882733
 31
0.0
  0
LINE
  5
ECC
330
1E
100
AcDbEntity
  8
0
100
AcDbLine
 10
125.9824858678
 20
163.582966886
 30
0.0
 11
125.6725825955999
 21
162.5367509726
 31
0.0
  0
LINE
  5
ECD
330
1E
100
AcDbEntity
  8
0
100
AcDbLine
 10
157.4513860609999
 20
269.8201935092999
 30
0.0
 11
157.7612893331999
 21
270.8664094227
 31
0.0
  0
LINE
  5
EDA
330
1E
100
AcDbEntity
  8
0
100
AcDbLine
 10
120.9049011580999
 20
158.1019744186
 30
0.0
 11
122.2015582295999
 21
161.8677399904
 31
0.0
  0
LINE
  5
EDB
330
1E
100
AcDbEntity
  8
0
100
AcDbLine
 10
160.0976914084
 20
271.9261021902
 30
0.0
 11
161.2348505196998
 21
275.2286520508
 31
0.0
  0
LINE
  5
EDC
330
1E
100
AcDbEntity
  8
0
100
AcDbLine
 10
154.9123153895
 20
264.6508048099
 30
0.0
 11
155.1617786905
 21
265.3361995965
 31
0.0
  0
LINE
  5
EDD
330
1E
100
AcDbEntity
  8
0
100
AcDbLine
 10
155.9606600961999
 20
264.6073038191
 30
0.0
 11
156.1014713113
 21
264.9941794531999
 31
0.0
  0
LINE
  5
EDE
330
1E
100
AcDbEntity
  8
0
100
AcDbLine
 10
163.0558354849999
 20
262.4629978956999
 30
0.0
 11
162.8478490514
 21
262.0169695495
 31
0.0
  0
LINE
  5
EDF
330
1E
100
AcDbEntity
  8
0
100
AcDbLine
 10
163.1797633240998
 20
261.8607104121
 30
0.0
 11
163.4018827234999
 21
262.3370470011999
 31
0.0
  0
LINE
  5
EE0
330
1E
100
AcDbEntity
  8
0
100
AcDbLine
 10
176.1093751261
 20
268.7634431006999
 30
0.0
 11
173.7645404028998
 21
265.2870826623999
 31
0.0
  0
LINE
  5
EE1
330
1E
100
AcDbEntity
  8
0
100
AcDbLine
 10
108.6744864388998
 20
168.7871092169999
 30
0.0
 11
106.3296517156
 21
165.3107487787998
 31
0.0
  0
LINE
  5
EE2
330
1E
100
AcDbEntity
  8
0
100
AcDbLine
 10
98.89257715740001
 20
169.1403113670999
 30
0.0
 11
100.0588699426999
 21
170.4356107304
 31
0.0
  0
LINE
  5
EE3
330
1E
100
AcDbEntity
  8
0
100
AcDbLine
 10
181.6667407425
 20
263.7224527876998
 30
0.0
 11
178.6644714997999
 21
260.720183545
 31
0.0
  0
LINE
  5
EE4
330
1E
100
AcDbEntity
  8
0
100
AcDbLine
 10
193.1077673833
 20
252.0888644463999
 30
0.0
 11
189.6314069449999
 21
249.7440297232
 31
0.0
  0
LINE
  5
EE5
330
1E
100
AcDbEntity
  8
0
100
AcDbLine
 10
115.2386453692999
 20
206.0643753408998
 30
0.0
 11
90.71897736149999
 21
190.141116754
 31
0.0
  0
LINE
  5
EE6
330
1E
100
AcDbEntity
  8
0
100
AcDbLine
 10
86.11662869940003
 20
185.0060626591
 30
0.0
 11
87.69783860750001
 21
186.0329123798998
 31
0.0
  0
LINE
  5
EE7
330
1E
100
AcDbEntity
  8
0
100
AcDbLine
 10
84.87777714139999
 20
183.963070392
 30
0.0
 11
116.3279234394
 21
204.3870342049999
 31
0.0
  0
LINE
  5
EE8
330
1E
100
AcDbEntity
  8
0
100
AcDbLine
 10
84.7307613749
 20
183.2714155905
 30
0.0
 11
86.40810251080003
 21
184.3606936605
 31
0.0
  0
LINE
  5
EE9
330
1E
100
AcDbEntity
  8
0
100
AcDbLine
 10
200.3165417434999
 20
237.5136150039999
 30
0.0
 11
196.5507761716
 21
236.2169579324
 31
0.0
  0
LINE
  5
EEA
330
1E
100
AcDbEntity
  8
0
100
AcDbLine
 10
86.4924139718
 20
198.3208247536
 30
0.0
 11
83.18986411119999
 21
197.1836656422999
 31
0.0
  0
LINE
  5
EEB
330
1E
100
AcDbEntity
  8
0
100
AcDbLine
 10
85.30026596890001
 20
206.1445431486
 30
0.0
 11
83.95838226390001
 21
205.9079328464
 31
0.0
  0
LINE
  5
EEC
330
1E
100
AcDbEntity
  8
0
100
AcDbLine
 10
198.3340115123
 20
226.0754422184
 30
0.0
 11
199.4409132419998
 21
226.2706188584
 31
0.0
  0
LINE
  5
EED
330
1E
100
AcDbEntity
  8
0
100
AcDbLine
 10
85.0916483878
 20
207.3262701747
 30
0.0
 11
83.9929586867
 21
207.1325415368999
 31
0.0
  0
LINE
  5
EEE
330
1E
100
AcDbEntity
  8
0
100
AcDbLine
 10
198.121991309
 20
227.2565692704
 30
0.0
 11
199.4754896649
 21
227.4952275488999
 31
0.0
  0
LINE
  5
EEF
330
1E
100
AcDbEntity
  8
0
100
AcDbLine
 10
197.9480116663
 20
222.116016956
 30
0.0
 11
196.8618853538996
 21
222.0114348872
 31
0.0
  0
LINE
  5
EF0
330
1E
100
AcDbEntity
  8
0
100
AcDbLine
 10
85.48586026249997
 20
211.2871434392999
 30
0.0
 11
86.5719865748
 21
211.3917255081
 31
0.0
  0
LINE
  5
EF1
330
1E
100
AcDbEntity
  8
0
100
AcDbLine
 10
83.7169359644
 20
213.3015801975999
 30
0.0
 11
86.21693596440001
 21
213.3015801975999
 31
0.0
  0
LINE
  5
EF2
330
1E
100
AcDbEntity
  8
0
100
AcDbLine
 10
197.2169359643999
 20
213.3015801975999
 30
0.0
 11
199.7169359643999
 21
213.3015801975999
 31
0.0
  0
LINE
  5
EFD
330
1E
100
AcDbEntity
  8
0
100
AcDbLine
 10
183.4669359643999
 20
216.7015801975999
 30
0.0
 11
180.9668359644
 21
216.7015801975999
 31
0.0
  0
LINE
  5
EFE
330
1E
100
AcDbEntity
  8
0
100
AcDbLine
 10
97.56693596440001
 20
216.7015801975999
 30
0.0
 11
97.46693596440001
 21
216.7015801975999
 31
0.0
  0
LINE
  5
EFF
330
1E
100
AcDbEntity
  8
0
100
AcDbLine
 10
99.96693596440001
 20
216.7015801975999
 30
0.0
 11
97.56693596440001
 21
216.7015801975999
 31
0.0
  0
LINE
  5
F00
330
1E
100
AcDbEntity
  8
0
100
AcDbLine
 10
97.46693596440001
 20
216.7015801975999
 30
0.0
 11
97.4668359644
 21
216.7015801975999
 31
0.0
  0
LINE
  5
F01
330
1E
100
AcDbEntity
  8
0
100
AcDbLine
 10
141.7169359644
 20
216.7015801975999
 30
0.0
 11
102.4669359644
 21
216.7015801975999
 31
0.0
  0
LINE
  5
F02
330
1E
100
AcDbEntity
  8
0
100
AcDbLine
 10
97.4668359644
 20
216.7015801975999
 30
0.0
 11
77.6069629568
 21
216.7015801975999
 31
0.0
  0
LINE
  5
F03
330
1E
100
AcDbEntity
  8
0
100
AcDbLine
 10
102.3669359644
 20
216.7015801975999
 30
0.0
 11
99.96693596440001
 21
216.7015801975999
 31
0.0
  0
LINE
  5
F04
330
1E
100
AcDbEntity
  8
0
100
AcDbLine
 10
102.3669359644
 20
216.7015801975999
 30
0.0
 11
102.4669359644
 21
216.7015801975999
 31
0.0
  0
LINE
  5
F05
330
1E
100
AcDbEntity
  8
0
100
AcDbLine
 10
141.7169359644
 20
216.7015801975999
 30
0.0
 11
180.9668359644
 21
216.7015801975999
 31
0.0
  0
LINE
  5
F06
330
1E
100
AcDbEntity
  8
0
100
AcDbLine
 10
183.4669359643999
 20
216.7015801975999
 30
0.0
 11
205.826908972
 21
216.7015801975999
 31
0.0
  0
LINE
  5
F07
330
1E
100
AcDbEntity
  8
0
100
AcDbLine
 10
86.5719865748
 20
222.0114348872999
 30
0.0
 11
85.48586026249997
 21
222.1160169561
 31
0.0
  0
LINE
  5
F08
330
1E
100
AcDbEntity
  8
0
100
AcDbLine
 10
196.8618853538996
 20
211.3917255079999
 30
0.0
 11
197.9480116663
 21
211.2871434391998
 31
0.0
  0
LINE
  5
F09
330
1E
100
AcDbEntity
  8
0
100
AcDbLine
 10
88.5983226527
 20
232.4360302941999
 30
0.0
 11
87.55210673929999
 21
232.7459335663998
 31
0.0
  0
LINE
  5
F0A
330
1E
100
AcDbEntity
  8
0
100
AcDbLine
 10
194.8355492761
 20
200.9671301011
 30
0.0
 11
195.8817651894
 21
200.6572268289
 31
0.0
  0
LINE
  5
F0B
330
1E
100
AcDbEntity
  8
0
100
AcDbLine
 10
200.3165417434999
 20
195.8895453913
 30
0.0
 11
196.5507761716
 21
197.1862024629
 31
0.0
  0
LINE
  5
F0C
330
1E
100
AcDbEntity
  8
0
100
AcDbLine
 10
86.4924139718
 20
235.0823356417
 30
0.0
 11
83.18986411119999
 21
236.2194947529999
 31
0.0
  0
LINE
  5
F0D
330
1E
100
AcDbEntity
  8
0
100
AcDbLine
 10
83.11733018529999
 20
237.5136150039999
 30
0.0
 11
86.88309575719999
 21
236.2169579324
 31
0.0
  0
LINE
  5
F0E
330
1E
100
AcDbEntity
  8
0
100
AcDbLine
 10
196.9414579568999
 20
198.3208247536
 30
0.0
 11
200.2440078175999
 21
197.1836656422999
 31
0.0
  0
LINE
  5
F0F
330
1E
100
AcDbEntity
  8
0
100
AcDbLine
 10
89.65507306139999
 20
251.0940193593
 30
0.0
 11
93.13143349959998
 21
248.7491846361
 31
0.0
  0
LINE
  5
F10
330
1E
100
AcDbEntity
  8
0
100
AcDbLine
 10
189.6314069449999
 20
183.6591306721
 30
0.0
 11
193.1077673833
 21
181.3142959489
 31
0.0
  0
LINE
  5
F11
330
1E
100
AcDbEntity
  8
0
100
AcDbLine
 10
193.7787988674
 20
182.3091410359999
 30
0.0
 11
190.3024384291999
 21
184.6539757591999
 31
0.0
  0
LINE
  5
F12
330
1E
100
AcDbEntity
  8
0
100
AcDbLine
 10
93.8024649838
 20
249.7440297232
 30
0.0
 11
90.32610454549999
 21
252.0888644463999
 31
0.0
  0
LINE
  5
F2D
330
1E
100
AcDbEntity
  8
0
100
AcDbLine
 10
174.880244002
 20
183.53827216
 30
0.0
 11
176.3579521158
 21
182.0605640463
 31
0.0
  0
LINE
  5
F2E
330
1E
100
AcDbEntity
  8
0
100
AcDbLine
 10
170.9849749590999
 20
175.59839427
 30
0.0
 11
169.8914721279
 21
176.9015801975999
 31
0.0
  0
LINE
  5
F2F
330
1E
100
AcDbEntity
  8
0
100
AcDbLine
 10
171.7510194023
 20
176.2411818797
 30
0.0
 11
171.1968794171999
 21
176.9015801975999
 31
0.0
  0
LINE
  5
F30
330
1E
100
AcDbEntity
  8
0
100
AcDbLine
 10
106.3296517156
 20
268.0924116164998
 30
0.0
 11
108.6744864388998
 21
264.6160511783
 31
0.0
  0
LINE
  5
F31
330
1E
100
AcDbEntity
  8
0
100
AcDbLine
 10
173.7645404028998
 20
168.1160777329
 30
0.0
 11
176.1093751261
 21
164.6397172945999
 31
0.0
  0
LINE
  5
F32
330
1E
100
AcDbEntity
  8
0
100
AcDbLine
 10
177.1042202131
 20
165.3107487787998
 30
0.0
 11
174.7593854899
 21
168.7871092169999
 31
0.0
  0
LINE
  5
F33
330
1E
100
AcDbEntity
  8
0
100
AcDbLine
 10
109.6693315259
 20
265.2870826623999
 30
0.0
 11
107.3244968027
 21
268.7634431006999
 31
0.0
  0
LINE
  5
F34
330
1E
100
AcDbEntity
  8
0
100
AcDbLine
 10
120.9049011580999
 20
275.3011859766999
 30
0.0
 11
122.2015582295999
 21
271.5354204049
 31
0.0
  0
LINE
  5
F35
330
1E
100
AcDbEntity
  8
0
100
AcDbLine
 10
160.0976914084
 20
161.4770582051
 30
0.0
 11
161.2348505196998
 21
158.1745083444999
 31
0.0
  0
LINE
  5
F36
330
1E
100
AcDbEntity
  8
0
100
AcDbLine
 10
162.5289707707
 20
158.1019744186
 30
0.0
 11
161.2323136992
 21
161.8677399904
 31
0.0
  0
LINE
  5
F37
330
1E
100
AcDbEntity
  8
0
100
AcDbLine
 10
123.3361805202999
 20
271.9261021902
 30
0.0
 11
122.1990214090999
 21
275.2286520508
 31
0.0
  0
LINE
  5
F38
330
1E
100
AcDbEntity
  8
0
100
AcDbLine
 10
151.0908004282998
 20
160.0844907942
 30
0.0
 11
151.2859746251
 21
158.97760292
 31
0.0
  0
LINE
  5
F39
330
1E
100
AcDbEntity
  8
0
100
AcDbLine
 10
131.1619434362
 20
273.1066551388
 30
0.0
 11
130.9232886131999
 21
274.4601338981
 31
0.0
  0
LINE
  5
F3A
330
1E
100
AcDbEntity
  8
0
100
AcDbLine
 10
152.2719284924999
 20
160.2965052564998
 30
0.0
 11
152.5105833156
 21
158.9430264971998
 31
0.0
  0
LINE
  5
F3B
330
1E
100
AcDbEntity
  8
0
100
AcDbLine
 10
132.3430715004997
 20
273.3186696010998
 30
0.0
 11
132.1478973037
 21
274.4255574752999
 31
0.0
  0
LINE
  5
F3C
330
1E
100
AcDbEntity
  8
0
100
AcDbLine
 10
145.1169359644
 20
158.7015801976
 30
0.0
 11
145.1169359644
 21
161.2015801975998
 31
0.0
  0
LINE
  5
F3D
330
1E
100
AcDbEntity
  8
0
100
AcDbLine
 10
145.1169359644
 20
272.2015801975999
 30
0.0
 11
145.1169359644
 21
274.7015801976
 31
0.0
  0
LINE
  5
F3E
330
1E
100
AcDbEntity
  8
0
100
AcDbLine
 10
146.7169359643999
 20
158.6688015672999
 30
0.0
 11
146.7169359643999
 21
161.2015801975998
 31
0.0
  0
LINE
  5
F3F
330
1E
100
AcDbEntity
  8
0
100
AcDbLine
 10
146.7169359643999
 20
272.2015801975999
 30
0.0
 11
146.7169359643999
 21
274.7343588279999
 31
0.0
  0
LINE
  5
F40
330
1E
100
AcDbEntity
  8
0
100
AcDbLine
 10
162.5289707707
 20
275.3011859766999
 30
0.0
 11
161.2323136992
 21
271.5354204049
 31
0.0
  0
LINE
  5
F41
330
1E
100
AcDbEntity
  8
0
100
AcDbLine
 10
123.3361805202999
 20
161.4770582051
 30
0.0
 11
122.1990214090999
 21
158.1745083444999
 31
0.0
  0
LINE
  5
F42
330
1E
100
AcDbEntity
  8
0
100
AcDbLine
 10
161.7396270359999
 20
262.9420585931999
 30
0.0
 11
161.6005082404
 21
262.5598328436
 31
0.0
  0
LINE
  5
F43
330
1E
100
AcDbEntity
  8
0
100
AcDbLine
 10
162.6793196568
 20
262.6000384499
 30
0.0
 11
162.5170128798
 21
262.154104245
 31
0.0
  0
LINE
  5
F44
330
1E
100
AcDbEntity
  8
0
100
AcDbLine
 10
162.4900006953
 20
257.9865627178
 30
0.0
 11
163.9948893259
 21
262.1212102491999
 31
0.0
  0
LINE
  5
F45
330
1E
100
AcDbEntity
  8
0
100
AcDbLine
 10
107.3244968027
 20
164.6397172945999
 30
0.0
 11
109.6693315259
 21
168.1160777329
 31
0.0
  0
LINE
  5
F46
330
1E
100
AcDbEntity
  8
0
100
AcDbLine
 10
174.7593854899
 20
264.6160511783
 30
0.0
 11
177.1042202131
 21
268.0924116164998
 31
0.0
  0
LINE
  5
F47
330
1E
100
AcDbEntity
  8
0
100
AcDbLine
 10
188.7378085543999
 20
256.6513849758
 30
0.0
 11
185.6751355916999
 21
253.5887120131
 31
0.0
  0
LINE
  5
F48
330
1E
100
AcDbEntity
  8
0
100
AcDbLine
 10
190.3024384291999
 20
248.7491846361
 30
0.0
 11
193.7787988674
 21
251.0940193593
 31
0.0
  0
LINE
  5
F49
330
1E
100
AcDbEntity
  8
0
100
AcDbLine
 10
89.6759367209
 20
179.3286702529
 30
0.0
 11
87.99859558500001
 21
178.2393921827999
 31
0.0
  0
LINE
  5
F4A
330
1E
100
AcDbEntity
  8
0
100
AcDbLine
 10
120.1403966845
 20
198.5163402293999
 30
0.0
 11
88.69025038649999
 21
178.0923764163999
 31
0.0
  0
LINE
  5
F4B
330
1E
100
AcDbEntity
  8
0
100
AcDbLine
 10
90.26383807299998
 20
178.8758035499
 30
0.0
 11
91.7281674666
 21
179.8267501770999
 31
0.0
  0
LINE
  5
F4C
330
1E
100
AcDbEntity
  8
0
100
AcDbLine
 10
96.71000674670001
 20
180.9157405066
 30
0.0
 11
121.2296747545
 21
196.8389990934999
 31
0.0
  0
LINE
  5
F4D
330
1E
100
AcDbEntity
  8
0
100
AcDbLine
 10
83.11733018529999
 20
195.8895453913
 30
0.0
 11
86.88309575719999
 21
197.1862024629
 31
0.0
  0
LINE
  5
F4E
330
1E
100
AcDbEntity
  8
0
100
AcDbLine
 10
196.9414579568999
 20
235.0823356417
 30
0.0
 11
200.2440078175999
 21
236.2194947529999
 31
0.0
  0
LINE
  5
F50
330
1E
100
AcDbEntity
  8
0
100
AcDbLine
 10
91.24340582850001
 20
213.2850387272998
 30
0.0
 11
97.0937977061
 21
214.3166206629999
 31
0.0
  0
LINE
  5
F51
330
1E
100
AcDbEntity
  8
0
100
AcDbLine
 10
169.7169359644
 20
218.7015801975999
 30
0.0
 11
170.7169359644
 21
218.7015801975999
 31
0.0
  0
LINE
  5
F52
330
1E
100
AcDbEntity
  8
0
100
AcDbLine
 10
199.7169359643999
 20
220.1015801975998
 30
0.0
 11
197.2169359643999
 21
220.1015801975998
 31
0.0
  0
LINE
  5
F53
330
1E
100
AcDbEntity
  8
0
100
AcDbLine
 10
86.21693596440001
 20
220.1015801975998
 30
0.0
 11
83.7169359644
 21
220.1015801975998
 31
0.0
  0
LINE
  5
F54
330
1E
100
AcDbEntity
  8
0
100
AcDbLine
 10
169.0574341557
 20
220.2015801975999
 30
0.0
 11
168.7169359644
 21
220.2015801975999
 31
0.0
  0
LINE
  5
F55
330
1E
100
AcDbEntity
  8
0
100
AcDbLine
 10
83.68415733399999
 20
221.7015801975998
 30
0.0
 11
86.21693596440001
 21
221.7015801975998
 31
0.0
  0
LINE
  5
F56
330
1E
100
AcDbEntity
  8
0
100
AcDbLine
 10
197.2169359643999
 20
221.7015801975998
 30
0.0
 11
199.7497145947999
 21
221.7015801975998
 31
0.0
  0
LINE
  5
F57
330
1E
100
AcDbEntity
  8
0
100
AcDbLine
 10
176.0826475414
 20
180.4132914443
 30
0.0
 11
176.3472860609999
 21
180.0979075377999
 31
0.0
  0
LINE
  5
F58
330
1E
100
AcDbEntity
  8
0
100
AcDbLine
 10
176.6457977688
 20
181.2978789645
 30
0.0
 11
177.1133305040999
 21
180.7406951475
 31
0.0
  0
LINE
  5
F59
330
1E
100
AcDbEntity
  8
0
100
AcDbLine
 10
178.1857927245
 20
181.6405978010998
 30
0.0
 11
175.3575272417998
 21
185.0111933508
 31
0.0
  0
LINE
  5
F7B
330
1E
100
AcDbEntity
  8
0
100
AcDbLine
 10
174.2169359643999
 20
224.7015801976
 30
0.0
 11
172.7169359643999
 21
224.7015801976
 31
0.0
  0
LINE
  5
F7C
330
1E
100
AcDbEntity
  8
0
100
AcDbLine
 10
171.7169359644
 20
225.2015801975999
 30
0.0
 11
171.0844804324
 21
225.2015801975999
 31
0.0
  0
LINE
  5
F7D
330
1E
100
AcDbEntity
  8
0
100
AcDbLine
 10
174.2169359643999
 20
225.7015801975998
 30
0.0
 11
173.4169359643999
 21
225.7015801975998
 31
0.0
  0
LINE
  5
F7E
330
1E
100
AcDbEntity
  8
0
100
AcDbLine
 10
171.0169359644
 20
225.7015801975998
 30
0.0
 11
168.7169359644
 21
225.7015801975998
 31
0.0
  0
LINE
  5
F7F
330
1E
100
AcDbEntity
  8
0
100
AcDbLine
 10
174.2169359643999
 20
226.2015801975998
 30
0.0
 11
172.9169359643996
 21
226.2015801975998
 31
0.0
  0
LINE
  5
F80
330
1E
100
AcDbEntity
  8
0
100
AcDbLine
 10
171.5169359644
 20
226.2015801975998
 30
0.0
 11
168.7169359644
 21
226.2015801975998
 31
0.0
  0
LINE
  5
F87
330
1E
100
AcDbEntity
  8
0
100
AcDbLine
 10
169.9169359644
 20
226.2015801975998
 30
0.0
 11
170.4169359644
 21
226.7015801976
 31
0.0
  0
LINE
  5
F88
330
1E
100
AcDbEntity
  8
0
100
AcDbLine
 10
171.0169359644
 20
225.7015801975998
 30
0.0
 11
171.5169359644
 21
226.2015801975998
 31
0.0
  0
LINE
  5
F89
330
1E
100
AcDbEntity
  8
0
100
AcDbLine
 10
169.4218509925
 20
231.2015801975999
 30
0.0
 11
171.5169359644
 21
231.2015801975999
 31
0.0
  0
LINE
  5
F8A
330
1E
100
AcDbEntity
  8
0
100
AcDbLine
 10
172.9169359643996
 20
231.2015801975999
 30
0.0
 11
175.0120209363
 21
231.2015801975999
 31
0.0
  0
LINE
  5
F9C
330
1E
100
AcDbEntity
  8
0
100
AcDbLine
 10
163.0595517794
 20
262.4616452751999
 30
0.0
 11
163.0853729941
 21
261.9054505950999
 31
0.0
  0
LINE
  5
F9E
330
1E
100
AcDbEntity
  8
0
100
AcDbLine
 10
121.1957273647998
 20
241.1578042704999
 30
0.0
 11
108.6957273647998
 21
241.1578042704999
 31
0.0
  0
LINE
  5
F9F
330
1E
100
AcDbEntity
  8
0
100
AcDbLine
 10
121.1957273647998
 20
241.1578042704999
 30
0.0
 11
133.6957273647998
 21
241.1578042704999
 31
0.0
  0
LINE
  5
FB3
330
1E
100
AcDbEntity
  8
0
100
AcDbLine
 10
168.7169359644
 20
226.2015801975998
 30
0.0
 11
168.7169359644
 21
220.2015801975999
 31
0.0
  0
LINE
  5
FB4
330
1E
100
AcDbEntity
  8
0
100
AcDbLine
 10
168.7169359644
 20
176.1233245325998
 30
0.0
 11
168.7169359644
 21
176.7626682722
 31
0.0
  0
LINE
  5
FB5
330
1E
100
AcDbEntity
  8
0
100
AcDbLine
 10
169.2169359643999
 20
235.9515801975998
 30
0.0
 11
169.2169359643999
 21
231.4515801975999
 31
0.0
  0
LINE
  5
FB6
330
1E
100
AcDbEntity
  8
0
100
AcDbLine
 10
169.7169359644
 20
218.7015801975999
 30
0.0
 11
169.7169359644
 21
219.2015801975998
 31
0.0
  0
LINE
  5
FB7
330
1E
100
AcDbEntity
  8
0
100
AcDbLine
 10
170.4169359644
 20
230.4118233677
 30
0.0
 11
170.4169359644
 21
226.7015801976
 31
0.0
  0
LINE
  5
FB8
330
1E
100
AcDbEntity
  8
0
100
AcDbLine
 10
171.0844804324
 20
225.2015801975999
 30
0.0
 11
169.5317758047
 21
220.5434663145999
 31
0.0
  0
LINE
  5
FB9
330
1E
100
AcDbEntity
  8
0
100
AcDbLine
 10
169.7169359644
 20
219.2015801975998
 30
0.0
 11
171.7169359644
 21
225.2015801975999
 31
0.0
  0
LINE
  5
FBA
330
1E
100
AcDbEntity
  8
0
100
AcDbLine
 10
172.7169359643999
 20
224.7015801976
 30
0.0
 11
170.7169359644
 21
218.7015801975999
 31
0.0
  0
LINE
  5
FBB
330
1E
100
AcDbEntity
  8
0
100
AcDbLine
 10
141.7169359644
 20
246.7015801975998
 30
0.0
 11
134.2169359643999
 21
246.7015801975998
 31
0.0
  0
LINE
  5
FBC
330
1E
100
AcDbEntity
  8
0
100
AcDbLine
 10
141.7169359644
 20
246.7015801975998
 30
0.0
 11
149.2169359643999
 21
246.7015801975998
 31
0.0
  0
LWPOLYLINE
  5
FBD
330
1E
100
AcDbEntity
  8
0
100
AcDbPolyline
 90
        3
 70
     0
 43
0.0
 10
120.3700523064
 20
275.3325276445
 10
120.7466989023999
 20
274.9997123462998
 10
121.1216811170999
 20
274.6716112615
  0
LINE
  5
FC2
330
1E
100
AcDbEntity
  8
0
100
AcDbLine
 10
172.9169359643996
 20
226.2015801975998
 30
0.0
 11
173.4169359643999
 21
225.7015801975998
 31
0.0
  0
LWPOLYLINE
  5
FC3
330
1E
100
AcDbEntity
  8
0
100
AcDbPolyline
 90
        3
 70
     0
 43
0.0
 10
199.6869670283
 20
196.1063253504
 10
200.0150505034
 20
195.7313631621
 10
200.3478834113
 20
195.3546965397
  0
LINE
  5
FC8
330
1E
100
AcDbEntity
  8
0
100
AcDbLine
 10
171.5169359644
 20
226.2015801975998
 30
0.0
 11
171.5169359644
 21
233.7015801975999
 31
0.0
  0
LINE
  5
FC9
330
1E
100
AcDbEntity
  8
0
100
AcDbLine
 10
172.9169359643996
 20
233.7015801975999
 30
0.0
 11
172.9169359643996
 21
226.2015801975998
 31
0.0
  0
LINE
  5
FCA
330
1E
100
AcDbEntity
  8
0
100
AcDbLine
 10
174.2169359643999
 20
224.7015801976
 30
0.0
 11
174.2169359643999
 21
230.5294358124999
 31
0.0
  0
LINE
  5
FCB
330
1E
100
AcDbEntity
  8
0
100
AcDbLine
 10
175.2169359644
 20
231.4515801975999
 30
0.0
 11
175.2169359644
 21
235.9515801975998
 31
0.0
  0
LWPOLYLINE
  5
FCC
330
1E
100
AcDbEntity
  8
0
100
AcDbPolyline
 90
        3
 70
     0
 43
0.0
 10
198.1646822208
 20
235.5035255329999
 10
198.0736801316999
 20
235.3932179452
 10
197.9830899843999
 20
235.2830263302999
  0
LWPOLYLINE
  5
FD1
330
1E
100
AcDbEntity
  8
0
100
AcDbPolyline
 90
        3
 70
     0
 43
0.0
 10
200.3478834113
 20
238.0484638556
 10
200.0150681128999
 20
237.6718172595
 10
199.6869670283
 20
237.2968350449
  0
LWPOLYLINE
  5
FD6
330
1E
100
AcDbEntity
  8
0
100
AcDbPolyline
 90
        3
 70
     0
 43
0.0
 10
121.1216811170999
 20
158.7315491338
 10
120.7467189288
 20
158.4034656587
 10
120.3700523064
 20
158.0706327507999
  0
LWPOLYLINE
  5
FDB
330
1E
100
AcDbEntity
  8
0
100
AcDbPolyline
 90
        3
 70
     0
 43
0.0
 10
123.1354898316999
 20
160.4354261776
 10
123.0253003635
 20
160.3448377981998
 10
122.9149906291
 20
160.2538339412999
  0
LWPOLYLINE
  5
FEC
330
1E
100
AcDbEntity
  8
0
100
AcDbPolyline
 90
        3
 70
     0
 43
0.0
 10
122.9149906291
 20
273.149326454
 10
123.0252982167999
 20
273.0583243649999
 10
123.1354898316999
 20
272.9677342177
  0
LWPOLYLINE
  5
1002
330
1E
100
AcDbEntity
  8
0
100
AcDbPolyline
 90
        3
 70
     0
 43
0.0
 10
197.9830899843999
 20
198.120134065
 10
198.0736783638
 20
198.0099445968
 10
198.1646822208
 20
197.8996348623
  0
LINE
  5
1013
330
1E
100
AcDbEntity
  8
0
100
AcDbLine
 10
141.9681330557
 20
255.9876968868996
 30
0.0
 11
141.7169359644
 21
255.9876968868996
 31
0.0
  0
LINE
  5
1015
330
1E
100
AcDbEntity
  8
0
100
AcDbLine
 10
141.7169359644
 20
258.4515801975999
 30
0.0
 11
139.2168359644
 21
258.4515801975999
 31
0.0
  0
LINE
  5
1016
330
1E
100
AcDbEntity
  8
0
100
AcDbLine
 10
141.7169359644
 20
258.4515801975999
 30
0.0
 11
144.2170359644
 21
258.4515801975999
 31
0.0
  0
LINE
  5
1021
330
1E
100
AcDbEntity
  8
0
100
AcDbLine
 10
183.4669359643999
 20
216.7015801975999
 30
0.0
 11
183.4669359643999
 21
214.2014801975999
 31
0.0
  0
LINE
  5
1022
330
1E
100
AcDbEntity
  8
0
100
AcDbLine
 10
183.4669359643999
 20
216.7015801975999
 30
0.0
 11
183.4669359643999
 21
219.2016801976
 31
0.0
  0
LINE
  5
1023
330
1E
100
AcDbEntity
  8
0
100
AcDbLine
 10
175.3575272417998
 20
185.0111933508
 30
0.0
 11
167.0842472562
 21
178.0690871661999
 31
0.0
  0
LINE
  5
1047
330
1E
100
AcDbEntity
  8
0
100
AcDbLine
 10
152.3413203908
 20
261.6803802657
 30
0.0
 11
162.4900006953
 21
257.9865627178
 31
0.0
  0
LWPOLYLINE
  5
104E
330
1E
100
AcDbEntity
  8
0
100
AcDbPolyline
 90
        4
 70
     0
 43
0.0
 10
197.9830899843999
 20
235.2830263302999
 10
197.9642683303
 20
235.2206441632
 10
197.9404771731
 20
235.0669236027
 10
197.9120862206
 20
234.8171061002999
  0
LINE
  5
1054
330
1E
100
AcDbEntity
  8
0
100
AcDbLine
 10
169.9125127387999
 20
174.6984916165
 30
0.0
 11
178.1857927245
 21
181.6405978010998
 31
0.0
  0
LWPOLYLINE
  5
105A
330
1E
100
AcDbEntity
  8
0
100
AcDbPolyline
 90
        4
 70
     0
 43
0.0
 10
159.832461867
 20
272.8967304538999
 10
160.08227825
 20
272.9251212609
 10
160.2359987280999
 20
272.9489123233999
 10
160.298382097
 20
272.9677342177
  0
LWPOLYLINE
  5
1076
330
1E
100
AcDbEntity
  8
0
100
AcDbPolyline
 90
        4
 70
     0
 43
0.0
 10
123.1354898316999
 20
272.9677342177
 10
123.197872
 20
272.9489125634
 10
123.3515925622
 20
272.9251214059999
 10
123.6014100617
 20
272.8967304538999
  0
LINE
  5
107C
330
1E
100
AcDbEntity
  8
0
100
AcDbLine
 10
163.9948893259
 20
262.1212102491999
 30
0.0
 11
153.8462090213998
 21
265.8150277971
 31
0.0
  0
LWPOLYLINE
  5
107D
330
1E
100
AcDbEntity
  8
0
100
AcDbPolyline
 90
        7
 70
     0
 43
0.0
 10
197.0536786187
 20
211.3732579170999
 10
197.0594244337
 20
211.1541124499999
 10
197.1450682584999
 20
208.9414710079999
 10
197.2672704121
 20
206.5821513018998
 10
197.4323258645999
 20
204.0647043118998
 10
197.6455223851998
 20
201.3978029738999
 10
197.9120862206
 20
198.586054295
  0
LINE
  5
1086
330
1E
100
AcDbEntity
  8
0
100
AcDbLine
 10
197.2169359643999
 20
211.7015801975998
 30
0.0
 11
197.2169359643999
 21
221.7015801975998
 31
0.0
  0
LINE
  5
1087
330
1E
100
AcDbEntity
  8
0
100
AcDbLine
 10
197.7169359644
 20
221.7015801975998
 30
0.0
 11
197.7169359644
 21
220.1015801975998
 31
0.0
  0
LINE
  5
1088
330
1E
100
AcDbEntity
  8
0
100
AcDbLine
 10
197.7169359644
 20
213.3015801975999
 30
0.0
 11
197.7169359644
 21
211.7015801975998
 31
0.0
  0
LINE
  5
1089
330
1E
100
AcDbEntity
  8
0
100
AcDbLine
 10
199.7169359643999
 20
213.3015801975999
 30
0.0
 11
199.7169359643999
 21
220.1015801975998
 31
0.0
  0
LWPOLYLINE
  5
108A
330
1E
100
AcDbEntity
  8
0
100
AcDbPolyline
 90
        4
 70
     0
 43
0.0
 10
197.9120862206
 20
234.8171061002999
 10
197.7731475496
 20
233.4074382829
 10
197.6380224616
 20
231.919152979
 10
197.5235658579999
 20
230.5321346971
  0
LWPOLYLINE
  5
109B
330
1E
100
AcDbEntity
  8
0
100
AcDbPolyline
 90
        7
 70
     0
 43
0.0
 10
147.0453373111
 20
272.0391439855998
 10
148.5093837663
 20
272.0887893650999
 10
150.5487961879
 20
272.1812968297999
 10
152.702758214
 20
272.3047093234999
 10
154.9715465861
 20
272.4628710054
 10
157.3492898053
 20
272.6591229688
 10
159.832461867
 20
272.8967304538999
  0
LINE
  5
10A4
330
1E
100
AcDbEntity
  8
0
100
AcDbLine
 10
136.7169359643999
 20
272.2015801975999
 30
0.0
 11
146.7169359643999
 21
272.2015801975999
 31
0.0
  0
LINE
  5
10A5
330
1E
100
AcDbEntity
  8
0
100
AcDbLine
 10
136.7169359643999
 20
272.7015801976
 30
0.0
 11
138.3169359644
 21
272.7015801976
 31
0.0
  0
LINE
  5
10A6
330
1E
100
AcDbEntity
  8
0
100
AcDbLine
 10
145.1169359644
 20
272.7015801976
 30
0.0
 11
146.7169359643999
 21
272.7015801976
 31
0.0
  0
LINE
  5
10A7
330
1E
100
AcDbEntity
  8
0
100
AcDbLine
 10
145.1169359644
 20
274.7015801976
 30
0.0
 11
138.3169359644
 21
274.7015801976
 31
0.0
  0
LWPOLYLINE
  5
10A8
330
1E
100
AcDbEntity
  8
0
100
AcDbPolyline
 90
        3
 70
     0
 43
0.0
 10
123.6014100617
 20
272.8967304538999
 10
126.2989443062999
 20
272.6401655831999
 10
127.8956512562
 20
272.5110975481999
  0
LWPOLYLINE
  5
10B9
330
1E
100
AcDbEntity
  8
0
100
AcDbPolyline
 90
        4
 70
     0
 43
0.0
 10
197.9120862206
 20
198.586054295
 10
197.940477028
 20
198.3362379090999
 10
197.9642680902999
 20
198.1825174326998
 10
197.9830899843999
 20
198.120134065
  0
LWPOLYLINE
  5
10BF
330
1E
100
AcDbEntity
  8
0
100
AcDbPolyline
 90
        3
 70
     0
 43
0.0
 10
201.9546232805998
 20
238.0819283790999
 10
201.9460900574
 20
238.2850524386999
 10
201.8967140781
 20
238.4821749138999
  0
LWPOLYLINE
  5
10C4
330
1E
100
AcDbEntity
  8
0
100
AcDbPolyline
 90
        3
 70
     0
 43
0.0
 10
201.8967140781
 20
194.9209854813999
 10
201.9460880573999
 20
195.1180941323
 10
201.9546232805998
 20
195.3212320161999
  0
LWPOLYLINE
  5
10DF
330
1E
100
AcDbEntity
  8
0
100
AcDbPolyline
 90
        3
 70
     0
 43
0.0
 10
120.3365877826
 20
276.9392675139
 10
120.1334698289999
 20
276.9307351736999
 10
119.9363412484
 20
276.8813583113999
  0
LWPOLYLINE
  5
10E4
330
1E
100
AcDbEntity
  8
0
100
AcDbPolyline
 90
        3
 70
     0
 43
0.0
 10
163.4975306802999
 20
276.8813583115
 10
163.3004220297
 20
276.9307322904999
 10
163.0972841461999
 20
276.9392675139
  0
ARC
  5
1160
330
1E
100
AcDbEntity
  8
0
100
AcDbCircle
 10
141.7169359644
 20
90.89435753770001
 30
0.0
 40
47.5
100
AcDbArc
 50
180.0
 51
0.0
  0
ARC
  5
1161
330
1E
100
AcDbEntity
  8
0
100
AcDbCircle
 10
196.8715918238999
 20
91.39435753769999
 30
0.0
 40
0.5
100
AcDbArc
 50
270.0
 51
339.264766062
  0
ARC
  5
1162
330
1E
100
AcDbEntity
  8
0
100
AcDbCircle
 10
86.5622801049
 20
91.39435753769999
 30
0.0
 40
0.5
100
AcDbArc
 50
200.735233938
 51
270.0
  0
ARC
  5
1163
330
1E
100
AcDbEntity
  8
0
100
AcDbCircle
 10
85.86960976550001
 20
94.63628630459998
 30
0.0
 40
0.9999999993999999
100
AcDbArc
 50
185.3135932699
 51
200.7355013766999
  0
ARC
  5
1164
330
1E
100
AcDbEntity
  8
0
100
AcDbCircle
 10
197.5642621635
 20
94.6362863068
 30
0.0
 40
0.9999999993999999
100
AcDbArc
 50
339.2644985061997
 51
354.6864067487998
  0
ARC
  5
1165
330
1E
100
AcDbEntity
  8
0
100
AcDbCircle
 10
312.1547562388
 20
90.89435753770001
 30
0.0
 40
47.5
100
AcDbArc
 50
180.0
 51
0.0
  0
ARC
  5
1166
330
1E
100
AcDbEntity
  8
0
100
AcDbCircle
 10
367.3094120983
 20
91.39435753769999
 30
0.0
 40
0.5
100
AcDbArc
 50
270.0
 51
339.2647659647
  0
ARC
  5
1167
330
1E
100
AcDbEntity
  8
0
100
AcDbCircle
 10
257.0001003792999
 20
91.39435753769999
 30
0.0
 40
0.5
100
AcDbArc
 50
200.7352340353
 51
270.0
  0
ARC
  5
1168
330
1E
100
AcDbEntity
  8
0
100
AcDbCircle
 10
368.0020871139
 20
94.63633878899999
 30
0.0
 40
0.9999999937
100
AcDbArc
 50
339.2652030450999
 51
354.6903656341
  0
ARC
  5
1169
330
1E
100
AcDbEntity
  8
0
100
AcDbCircle
 10
256.3074253636
 20
94.6363387885
 30
0.0
 40
0.9999999937
100
AcDbArc
 50
185.3096343622999
 51
200.7347969572999
  0
ARC
  5
116A
330
1E
100
AcDbEntity
  8
0
100
AcDbCircle
 10
155.362353715
 20
263.7632692282
 30
0.0
 40
1.0
100
AcDbArc
 50
73.83061719439999
 51
165.0
  0
ARC
  5
116B
330
1E
100
AcDbEntity
  8
0
100
AcDbCircle
 10
141.7169359644
 20
216.7015801975999
 30
0.0
 40
50.0
100
AcDbArc
 50
64.57961198879999
 51
73.83061719439999
  0
ARC
  5
116C
330
1E
100
AcDbEntity
  8
0
100
AcDbCircle
 10
141.7169359644
 20
216.7015801975999
 30
0.0
 40
46.9
100
AcDbArc
 50
315.0
 51
316.6169154779
  0
ARC
  5
116D
330
1E
100
AcDbEntity
  8
0
100
AcDbCircle
 10
175.6508453345999
 20
181.3534572650999
 30
0.0
 40
1.0
100
AcDbArc
 50
313.8306171943998
 51
45.0
  0
ARC
  5
116E
330
1E
100
AcDbEntity
  8
0
100
AcDbCircle
 10
141.7169359644
 20
216.7015801975999
 30
0.0
 40
50.0
100
AcDbArc
 50
307.2501895550999
 51
313.8306171943998
  0
ARC
  5
116F
330
1E
100
AcDbEntity
  8
0
100
AcDbCircle
 10
141.7169359644
 20
216.7015801975999
 30
0.0
 40
46.9
100
AcDbArc
 50
75.0
 51
76.6173398918
  0
ARC
  5
1170
330
1E
100
AcDbEntity
  8
0
100
AcDbCircle
 10
141.7169359644
 20
216.7015801975999
 30
0.0
 40
50.5
100
AcDbArc
 50
74.9134685836
 51
75.5672942145
  0
ARC
  5
1171
330
1E
100
AcDbEntity
  8
0
100
AcDbCircle
 10
141.7169359644
 20
241.3015801975999
 30
0.0
 40
14.6861166892
100
AcDbArc
 50
90.0
 51
93.36333601579999
  0
CIRCLE
  5
1172
330
1E
100
AcDbEntity
  8
0
100
AcDbCircle
 10
121.1957273647998
 20
241.1578042704999
 30
0.0
 40
10.0
  0
ARC
  5
1173
330
1E
100
AcDbEntity
  8
0
100
AcDbCircle
 10
169.0574341557
 20
220.7015801976
 30
0.0
 40
0.5
100
AcDbArc
 50
270.0
 51
341.5650511770998
  0
ARC
  5
1174
330
1E
100
AcDbEntity
  8
0
100
AcDbCircle
 10
88.417930869
 20
178.5117117002999
 30
0.0
 40
0.5
100
AcDbArc
 50
213.0
 51
303.0
  0
ARC
  5
1175
330
1E
100
AcDbEntity
  8
0
100
AcDbCircle
 10
85.1500966589
 20
183.5437351079999
 30
0.0
 40
0.5
100
AcDbArc
 50
123.0
 51
213.0
  0
ARC
  5
1176
330
1E
100
AcDbEntity
  8
0
100
AcDbCircle
 10
85.581706015
 20
210.2917472409
 30
0.0
 40
1.0
100
AcDbArc
 50
95.49999999989999
 51
186.5141375456
  0
ARC
  5
1177
330
1E
100
AcDbEntity
  8
0
100
AcDbCircle
 10
87.8361220841
 20
233.7047533013
 30
0.0
 40
1.0
100
AcDbArc
 50
162.4858624542999
 51
253.5
  0
ARC
  5
1178
330
1E
100
AcDbEntity
  8
0
100
AcDbCircle
 10
135.3071030076999
 20
272.836810147
 30
0.0
 40
1.0
100
AcDbArc
 50
5.499999999899999
 51
96.5141375456
  0
ARC
  5
1179
330
1E
100
AcDbEntity
  8
0
100
AcDbCircle
 10
158.7201090679998
 20
270.5823940779999
 30
0.0
 40
1.0
100
AcDbArc
 50
72.48586245430002
 51
163.4999999999999
  0
ARC
  5
117A
330
1E
100
AcDbEntity
  8
0
100
AcDbCircle
 10
197.8521659137
 20
223.1114131543999
 30
0.0
 40
1.0
100
AcDbArc
 50
275.4999999999
 51
6.514137545599997
  0
ARC
  5
117B
330
1E
100
AcDbEntity
  8
0
100
AcDbCircle
 10
195.5977498447
 20
199.698407094
 30
0.0
 40
1.0
100
AcDbArc
 50
342.4858624542999
 51
73.5
  0
ARC
  5
117C
330
1E
100
AcDbEntity
  8
0
100
AcDbCircle
 10
148.1267689210999
 20
160.5663502483
 30
0.0
 40
1.0
100
AcDbArc
 50
185.4999999999
 51
276.5141375456
  0
ARC
  5
117D
330
1E
100
AcDbEntity
  8
0
100
AcDbCircle
 10
124.7137628606999
 20
162.8207663172998
 30
0.0
 40
1.0
100
AcDbArc
 50
252.4858624543
 51
343.5
  0
ARC
  5
117E
330
1E
100
AcDbEntity
  8
0
100
AcDbCircle
 10
172.2169359643999
 20
233.7015801975999
 30
0.0
 40
3.75
100
AcDbArc
 50
302.2309526354998
 51
323.1301023542
  0
ARC
  5
117F
330
1E
100
AcDbEntity
  8
0
100
AcDbCircle
 10
172.2169359643999
 20
233.7015801975999
 30
0.0
 40
3.75
100
AcDbArc
 50
36.8698976458
 51
143.1301023542
  0
ARC
  5
1180
330
1E
100
AcDbEntity
  8
0
100
AcDbCircle
 10
172.2169359643999
 20
233.7015801975999
 30
0.0
 40
3.75
100
AcDbArc
 50
216.8698976458
 51
241.3145979859
  0
ARC
  5
1181
330
1E
100
AcDbEntity
  8
0
100
AcDbCircle
 10
172.2169359643999
 20
233.7015801975999
 30
0.0
 40
0.7
100
AcDbArc
 50
0.0
 51
180.0
  0
ARC
  5
1182
330
1E
100
AcDbEntity
  8
0
100
AcDbCircle
 10
141.7169359644
 20
216.7015801975999
 30
0.0
 40
55.4
100
AcDbArc
 50
163.4999999999999
 51
185.4999999999
  0
ARC
  5
1183
330
1E
100
AcDbEntity
  8
0
100
AcDbCircle
 10
141.7169359644
 20
216.7015801975999
 30
0.0
 40
55.4
100
AcDbArc
 50
73.5
 51
95.49999999989999
  0
ARC
  5
1184
330
1E
100
AcDbEntity
  8
0
100
AcDbCircle
 10
141.7169359644
 20
216.7015801975999
 30
0.0
 40
55.4
100
AcDbArc
 50
343.5
 51
5.499999999899999
  0
ARC
  5
1185
330
1E
100
AcDbEntity
  8
0
100
AcDbCircle
 10
141.7169359644
 20
216.7015801975999
 30
0.0
 40
55.4
100
AcDbArc
 50
253.5
 51
275.4999999999
  0
ARC
  5
1186
330
1E
100
AcDbEntity
  8
0
100
AcDbCircle
 10
137.2978954042999
 20
160.3746587432999
 30
0.0
 40
1.0
100
AcDbArc
 50
174.5
 51
234.0676178984999
  0
ARC
  5
1187
330
1E
100
AcDbEntity
  8
0
100
AcDbCircle
 10
141.7169359644
 20
216.7015801975999
 30
0.0
 40
57.5
100
AcDbArc
 50
274.9899797875999
 51
342.4858624542999
  0
ARC
  5
1188
330
1E
100
AcDbEntity
  8
0
100
AcDbCircle
 10
198.0438574187998
 20
212.2825396376
 30
0.0
 40
1.0
100
AcDbArc
 50
264.5
 51
324.0676178984999
  0
ARC
  5
1189
330
1E
100
AcDbEntity
  8
0
100
AcDbCircle
 10
146.1359765244999
 20
273.0285016519998
 30
0.0
 40
1.0
100
AcDbArc
 50
354.4999999999998
 51
54.0676178985
  0
ARC
  5
118A
330
1E
100
AcDbEntity
  8
0
100
AcDbCircle
 10
141.7169359644
 20
216.7015801975999
 30
0.0
 40
57.5
100
AcDbArc
 50
94.9899797876
 51
162.4858624542999
  0
ARC
  5
118B
330
1E
100
AcDbEntity
  8
0
100
AcDbCircle
 10
85.39001451
 20
221.1206207577
 30
0.0
 40
1.0
100
AcDbArc
 50
84.50000000000001
 51
144.0676178985
  0
CIRCLE
  5
118C
330
1E
100
AcDbEntity
  8
0
100
AcDbCircle
 10
141.7169359644
 20
246.7015801975998
 30
0.0
 40
2.0
  0
CIRCLE
  5
118D
330
1E
100
AcDbEntity
  8
0
100
AcDbCircle
 10
141.7169359644
 20
186.7015801975998
 30
0.0
 40
2.0
  0
CIRCLE
  5
118E
330
1E
100
AcDbEntity
  8
0
100
AcDbCircle
 10
141.7169359644
 20
246.7015801975998
 30
0.0
 40
5.0
  0
CIRCLE
  5
118F
330
1E
100
AcDbEntity
  8
0
100
AcDbCircle
 10
141.7169359644
 20
186.7015801975998
 30
0.0
 40
5.0
  0
ARC
  5
1190
330
1E
100
AcDbEntity
  8
0
100
AcDbCircle
 10
141.7169359644
 20
216.7015801975999
 30
0.0
 40
57.5
100
AcDbArc
 50
4.9899798076
 51
72.48586245430002
  0
ARC
  5
1191
330
1E
100
AcDbEntity
  8
0
100
AcDbCircle
 10
141.7169359644
 20
216.7015801975999
 30
0.0
 40
39.25
100
AcDbArc
 50
0.0
 51
9.702227563899999
  0
ARC
  5
1192
330
1E
100
AcDbEntity
  8
0
100
AcDbCircle
 10
141.7169359644
 20
216.7015801975999
 30
0.0
 40
44.24999999999999
100
AcDbArc
 50
0.0
 51
10.0107071279
  0
ARC
  5
1193
330
1E
100
AcDbEntity
  8
0
100
AcDbCircle
 10
183.4669359643999
 20
216.7015801975999
 30
0.0
 40
2.5
100
AcDbArc
 50
180.0
 51
0.0
  0
ARC
  5
1194
330
1E
100
AcDbEntity
  8
0
100
AcDbCircle
 10
182.0443392119998
 20
227.5072753307
 30
0.0
 40
6.0
100
AcDbArc
 50
15.0
 51
195.0
  0
ARC
  5
1195
330
1E
100
AcDbEntity
  8
0
100
AcDbCircle
 10
141.7169359644
 20
216.7015801975999
 30
0.0
 40
35.75
100
AcDbArc
 50
0.0
 51
15.0
  0
ARC
  5
1196
330
1E
100
AcDbEntity
  8
0
100
AcDbCircle
 10
183.4669359643999
 20
216.7015801975999
 30
0.0
 40
6.0
100
AcDbArc
 50
180.0
 51
0.0
  0
ARC
  5
1197
330
1E
100
AcDbEntity
  8
0
100
AcDbCircle
 10
141.7169359644
 20
216.7015801975999
 30
0.0
 40
47.75
100
AcDbArc
 50
0.0
 51
15.0
  0
ARC
  5
1198
330
1E
100
AcDbEntity
  8
0
100
AcDbCircle
 10
141.7169359644
 20
216.7015801975999
 30
0.0
 40
57.5
100
AcDbArc
 50
184.9899797875998
 51
209.5088529345999
  0
ARC
  5
1199
330
1E
100
AcDbEntity
  8
0
100
AcDbCircle
 10
141.7169359644
 20
216.7015801975999
 30
0.0
 40
39.25
100
AcDbArc
 50
270.0
 51
279.7022275639
  0
ARC
  5
119A
330
1E
100
AcDbEntity
  8
0
100
AcDbCircle
 10
141.7169359644
 20
216.7015801975999
 30
0.0
 40
57.5
100
AcDbArc
 50
216.4911470654
 51
252.4858624543
  0
ARC
  5
119B
330
1E
100
AcDbEntity
  8
0
100
AcDbCircle
 10
141.7169359644
 20
216.7015801975999
 30
0.0
 40
44.24999999999999
100
AcDbArc
 50
270.0
 51
280.0107071279
  0
ARC
  5
119C
330
1E
100
AcDbEntity
  8
0
100
AcDbCircle
 10
141.7169359644
 20
174.9515801975999
 30
0.0
 40
2.5
100
AcDbArc
 50
90.0
 51
270.0
  0
ARC
  5
119D
330
1E
100
AcDbEntity
  8
0
100
AcDbCircle
 10
152.5226310974
 20
176.3741769500998
 30
0.0
 40
6.0
100
AcDbArc
 50
285.0
 51
105.0
  0
ARC
  5
119E
330
1E
100
AcDbEntity
  8
0
100
AcDbCircle
 10
141.7169359644
 20
216.7015801975999
 30
0.0
 40
35.75
100
AcDbArc
 50
270.0
 51
285.0
  0
ARC
  5
119F
330
1E
100
AcDbEntity
  8
0
100
AcDbCircle
 10
141.7169359644
 20
174.9515801975999
 30
0.0
 40
6.0
100
AcDbArc
 50
90.0
 51
270.0
  0
ARC
  5
11A0
330
1E
100
AcDbEntity
  8
0
100
AcDbCircle
 10
141.7169359644
 20
216.7015801975999
 30
0.0
 40
47.75
100
AcDbArc
 50
270.0
 51
285.0
  0
ARC
  5
11A1
330
1E
100
AcDbEntity
  8
0
100
AcDbCircle
 10
141.7169359644
 20
216.7015801975999
 30
0.0
 40
44.24999999999999
100
AcDbArc
 50
180.0
 51
182.4238615018999
  0
ARC
  5
11A2
330
1E
100
AcDbEntity
  8
0
100
AcDbCircle
 10
99.96693596440001
 20
216.7015801975999
 30
0.0
 40
2.5
100
AcDbArc
 50
0.0
 51
180.0
  0
ARC
  5
11A3
330
1E
100
AcDbEntity
  8
0
100
AcDbCircle
 10
141.7169359644
 20
216.7015801975999
 30
0.0
 40
39.25
100
AcDbArc
 50
180.0
 51
189.7022275638999
  0
ARC
  5
11A4
330
1E
100
AcDbEntity
  8
0
100
AcDbCircle
 10
101.3895327168
 20
205.8958850645999
 30
0.0
 40
6.0
100
AcDbArc
 50
207.0700873360999
 51
15.0
  0
ARC
  5
11A5
330
1E
100
AcDbEntity
  8
0
100
AcDbCircle
 10
141.7169359644
 20
216.7015801975999
 30
0.0
 40
35.75
100
AcDbArc
 50
180.0
 51
195.0
  0
ARC
  5
11A6
330
1E
100
AcDbEntity
  8
0
100
AcDbCircle
 10
99.96693596440001
 20
216.7015801975999
 30
0.0
 40
6.0
100
AcDbArc
 50
0.0
 51
180.0
  0
ARC
  5
11A7
330
1E
100
AcDbEntity
  8
0
100
AcDbCircle
 10
141.7169359644
 20
216.7015801975999
 30
0.0
 40
47.75
100
AcDbArc
 50
180.0
 51
183.5065859594998
  0
ARC
  5
11A8
330
1E
100
AcDbEntity
  8
0
100
AcDbCircle
 10
141.7169359644
 20
216.7015801975999
 30
0.0
 40
39.25
100
AcDbArc
 50
90.0
 51
99.7022275639
  0
ARC
  5
11A9
330
1E
100
AcDbEntity
  8
0
100
AcDbCircle
 10
141.7169359644
 20
216.7015801975999
 30
0.0
 40
44.24999999999999
100
AcDbArc
 50
90.0
 51
100.0107071279
  0
ARC
  5
11AA
330
1E
100
AcDbEntity
  8
0
100
AcDbCircle
 10
141.7169359644
 20
258.4515801975999
 30
0.0
 40
2.5
100
AcDbArc
 50
270.0
 51
90.0
  0
ARC
  5
11AB
330
1E
100
AcDbEntity
  8
0
100
AcDbCircle
 10
130.9112408313999
 20
257.0289834452
 30
0.0
 40
6.0
100
AcDbArc
 50
105.0
 51
285.0
  0
ARC
  5
11AC
330
1E
100
AcDbEntity
  8
0
100
AcDbCircle
 10
141.7169359644
 20
216.7015801975999
 30
0.0
 40
35.75
100
AcDbArc
 50
90.0
 51
105.0
  0
ARC
  5
11AD
330
1E
100
AcDbEntity
  8
0
100
AcDbCircle
 10
141.7169359644
 20
258.4515801975999
 30
0.0
 40
6.0
100
AcDbArc
 50
270.0
 51
90.0
  0
ARC
  5
11AE
330
1E
100
AcDbEntity
  8
0
100
AcDbCircle
 10
141.7169359644
 20
216.7015801975999
 30
0.0
 40
47.75
100
AcDbArc
 50
90.0
 51
105.0
  0
ARC
  5
11AF
330
1E
100
AcDbEntity
  8
0
100
AcDbCircle
 10
182.0443392119998
 20
227.5072753307
 30
0.0
 40
4.5
100
AcDbArc
 50
316.2180693713
 51
248.643020082
  0
ARC
  5
11B0
330
1E
100
AcDbEntity
  8
0
100
AcDbCircle
 10
152.5226310974
 20
176.3741769500998
 30
0.0
 40
4.5
100
AcDbArc
 50
226.2180693713
 51
158.643020082
  0
ARC
  5
11B1
330
1E
100
AcDbEntity
  8
0
100
AcDbCircle
 10
101.3895327168
 20
205.8958850645999
 30
0.0
 40
4.5
100
AcDbArc
 50
213.040916498
 51
68.64302008199999
  0
ARC
  5
11B2
330
1E
100
AcDbEntity
  8
0
100
AcDbCircle
 10
130.9112408313999
 20
257.0289834452
 30
0.0
 40
4.5
100
AcDbArc
 50
46.21806937130001
 51
338.643020082
  0
ARC
  5
11B3
330
1E
100
AcDbEntity
  8
0
100
AcDbCircle
 10
141.7169359644
 20
216.7015801975999
 30
0.0
 40
64.0
100
AcDbArc
 50
289.8964806109
 51
340.1035193890998
  0
ARC
  5
11B4
330
1E
100
AcDbEntity
  8
0
100
AcDbCircle
 10
141.7169359644
 20
216.7015801975999
 30
0.0
 40
64.0
100
AcDbArc
 50
19.89648061089998
 51
70.10351938939999
  0
ARC
  5
11B5
330
1E
100
AcDbEntity
  8
0
100
AcDbCircle
 10
141.7169359644
 20
216.7015801975999
 30
0.0
 40
64.0
100
AcDbArc
 50
109.8964806106
 51
160.1035193893999
  0
ARC
  5
11B6
330
1E
100
AcDbEntity
  8
0
100
AcDbCircle
 10
141.7169359644
 20
216.7015801975999
 30
0.0
 40
63.8608695652
100
AcDbArc
 50
216.3214889059998
 51
228.0
  0
ARC
  5
11B7
330
1E
100
AcDbEntity
  8
0
100
AcDbCircle
 10
141.7169359644
 20
216.7015801975999
 30
0.0
 40
64.0
100
AcDbArc
 50
228.0
 51
250.1035193891
  0
ARC
  5
11B8
330
1E
100
AcDbEntity
  8
0
100
AcDbCircle
 10
141.7169359644
 20
216.7015801975999
 30
0.0
 40
64.0
100
AcDbArc
 50
199.8964806106
 51
209.6857397950999
  0
ARC
  5
11B9
330
1E
100
AcDbEntity
  8
0
100
AcDbCircle
 10
141.7169359644
 20
216.7015801975999
 30
0.0
 40
63.72173913040001
100
AcDbArc
 50
216.1487223881
 51
216.3287492268
  0
ARC
  5
11BA
330
1E
100
AcDbEntity
  8
0
100
AcDbCircle
 10
141.7169359644
 20
216.7015801975999
 30
0.0
 40
63.72173913040001
100
AcDbArc
 50
209.6712507732
 51
209.8512776118999
  0
ARC
  5
11BB
330
1E
100
AcDbEntity
  8
0
100
AcDbCircle
 10
93.4669492417
 20
249.2466071795999
 30
0.0
 40
0.6
100
AcDbArc
 50
236.0
 51
56.0
  0
ARC
  5
11BC
330
1E
100
AcDbEntity
  8
0
100
AcDbCircle
 10
86.6877548645
 20
235.6496467871
 30
0.0
 40
0.6
100
AcDbArc
 50
251.0
 51
71.0
  0
ARC
  5
11BD
330
1E
100
AcDbEntity
  8
0
100
AcDbCircle
 10
86.6877548645
 20
197.7535136082
 30
0.0
 40
0.6
100
AcDbArc
 50
289.0
 51
108.9999999999996
  0
ARC
  5
11BE
330
1E
100
AcDbEntity
  8
0
100
AcDbCircle
 10
-276.6215255741
 20
216.7015801975999
 30
0.0
 40
358.7384615384999
100
AcDbArc
 50
356.5832208928
 51
3.4167791072
  0
ARC
  5
11BF
330
1E
100
AcDbEntity
  8
0
100
AcDbCircle
 10
141.7169359644
 20
635.0400417360997
 30
0.0
 40
358.7384615384999
100
AcDbArc
 50
266.5832208928
 51
273.4167791072
  0
ARC
  5
11C0
330
1E
100
AcDbEntity
  8
0
100
AcDbCircle
 10
560.0553975029
 20
216.7015801975999
 30
0.0
 40
358.7384615384999
100
AcDbArc
 50
176.5832208928
 51
183.4167791071998
  0
ARC
  5
11C1
330
1E
100
AcDbEntity
  8
0
100
AcDbCircle
 10
141.7169359644
 20
-201.6368813408
 30
0.0
 40
358.7384615384999
100
AcDbArc
 50
86.5832208928
 51
89.95208561469999
  0
ARC
  5
11C2
330
1E
100
AcDbEntity
  8
0
100
AcDbCircle
 10
141.7169359644
 20
-201.6368813408
 30
0.0
 40
358.7384615384999
100
AcDbArc
 50
90.0479143853
 51
93.41677910719999
  0
ARC
  5
11C3
330
1E
100
AcDbEntity
  8
0
100
AcDbCircle
 10
109.1719089823999
 20
168.4515934749
 30
0.0
 40
0.6
100
AcDbArc
 50
326.0
 51
146.0
  0
ARC
  5
11C4
330
1E
100
AcDbEntity
  8
0
100
AcDbCircle
 10
122.768869375
 20
161.6723990978
 30
0.0
 40
0.6
100
AcDbArc
 50
341.0
 51
161.0
  0
ARC
  5
11C5
330
1E
100
AcDbEntity
  8
0
100
AcDbCircle
 10
160.6650025537999
 20
161.6723990978
 30
0.0
 40
0.6
100
AcDbArc
 50
19.0
 51
199.0
  0
ARC
  5
11C6
330
1E
100
AcDbEntity
  8
0
100
AcDbCircle
 10
174.2619629463999
 20
168.4515934749
 30
0.0
 40
0.6
100
AcDbArc
 50
34.0
 51
214.0
  0
ARC
  5
11C7
330
1E
100
AcDbEntity
  8
0
100
AcDbCircle
 10
189.9669226870999
 20
184.1565532157
 30
0.0
 40
0.6
100
AcDbArc
 50
56.0
 51
236.0
  0
ARC
  5
11C8
330
1E
100
AcDbEntity
  8
0
100
AcDbCircle
 10
196.7461170643
 20
197.7535136082
 30
0.0
 40
0.6
100
AcDbArc
 50
71.0
 51
251.0
  0
ARC
  5
11C9
330
1E
100
AcDbEntity
  8
0
100
AcDbCircle
 10
196.7461170643
 20
235.6496467871
 30
0.0
 40
0.6
100
AcDbArc
 50
108.9999999999996
 51
289.0
  0
ARC
  5
11CA
330
1E
100
AcDbEntity
  8
0
100
AcDbCircle
 10
189.9669226870999
 20
249.2466071795999
 30
0.0
 40
0.6
100
AcDbArc
 50
124.0
 51
304.0
  0
ARC
  5
11CB
330
1E
100
AcDbEntity
  8
0
100
AcDbCircle
 10
174.2619629463999
 20
264.9515669204
 30
0.0
 40
0.6
100
AcDbArc
 50
146.0
 51
326.0
  0
ARC
  5
11CC
330
1E
100
AcDbEntity
  8
0
100
AcDbCircle
 10
160.6650025537999
 20
271.7307612975
 30
0.0
 40
0.6
100
AcDbArc
 50
161.0
 51
341.0
  0
ARC
  5
11CD
330
1E
100
AcDbEntity
  8
0
100
AcDbCircle
 10
122.768869375
 20
271.7307612975
 30
0.0
 40
0.6
100
AcDbArc
 50
199.0
 51
19.0
  0
ARC
  5
11CE
330
1E
100
AcDbEntity
  8
0
100
AcDbCircle
 10
109.1719089823999
 20
264.9515669204
 30
0.0
 40
0.6
100
AcDbArc
 50
214.0
 51
34.0
  0
CIRCLE
  5
11CF
330
1E
100
AcDbEntity
  8
0
100
AcDbCircle
 10
184.1433428356
 20
259.1279870688
 30
0.0
 40
1.5
  0
ARC
  5
11D0
330
1E
100
AcDbEntity
  8
0
100
AcDbCircle
 10
-276.6215255741
 20
216.7015801975999
 30
0.0
 40
360.3403740019
100
AcDbArc
 50
356.8950421473999
 51
359.2049514515
  0
ARC
  5
11D1
330
1E
100
AcDbEntity
  8
0
100
AcDbCircle
 10
141.7169359644
 20
635.0400417360997
 30
0.0
 40
360.3403740019
100
AcDbArc
 50
266.8950421474
 51
269.2049514514998
  0
ARC
  5
11D2
330
1E
100
AcDbEntity
  8
0
100
AcDbCircle
 10
560.0553975029
 20
216.7015801975999
 30
0.0
 40
360.3403740019
100
AcDbArc
 50
180.7950485484999
 51
183.1049578525998
  0
ARC
  5
11D3
330
1E
100
AcDbEntity
  8
0
100
AcDbCircle
 10
-276.6215255741
 20
216.7015801975999
 30
0.0
 40
360.3403740019
100
AcDbArc
 50
3.311052003999995
 51
3.3962413317
  0
ARC
  5
11D4
330
1E
100
AcDbEntity
  8
0
100
AcDbCircle
 10
141.7169359644
 20
635.0400417360997
 30
0.0
 40
360.3403740019
100
AcDbArc
 50
266.6037586683
 51
266.688947996
  0
ARC
  5
11D5
330
1E
100
AcDbEntity
  8
0
100
AcDbCircle
 10
141.7169359644
 20
216.7015801975999
 30
0.0
 40
62.3961332169
100
AcDbArc
 50
110.0060090853
 51
123.4490364104999
  0
ARC
  5
11D6
330
1E
100
AcDbEntity
  8
0
100
AcDbCircle
 10
141.7169359644
 20
216.7015801975999
 30
0.0
 40
62.3961332169
100
AcDbArc
 50
228.0
 51
235.4490364105
  0
ARC
  5
11D7
330
1E
100
AcDbEntity
  8
0
100
AcDbCircle
 10
141.7169359644
 20
-201.6368813408
 30
0.0
 40
360.3403740019
100
AcDbArc
 50
86.89504214739995
 51
89.20495145149997
  0
ARC
  5
11D8
330
1E
100
AcDbEntity
  8
0
100
AcDbCircle
 10
560.0553975029
 20
216.7015801975999
 30
0.0
 40
360.3403740019
100
AcDbArc
 50
176.8950421474
 51
179.2049514515
  0
ARC
  5
11D9
330
1E
100
AcDbEntity
  8
0
100
AcDbCircle
 10
141.7169359644
 20
216.7015801975999
 30
0.0
 40
62.3961332169
100
AcDbArc
 50
124.5509635895
 51
145.4490364105
  0
ARC
  5
11DA
330
1E
100
AcDbEntity
  8
0
100
AcDbCircle
 10
-276.6215255741
 20
216.7015801975999
 30
0.0
 40
360.3403740019
100
AcDbArc
 50
356.6037586683999
 51
356.6889479959999
  0
ARC
  5
11DB
330
1E
100
AcDbEntity
  8
0
100
AcDbCircle
 10
141.7169359644
 20
216.7015801975999
 30
0.0
 40
62.3961332169
100
AcDbArc
 50
200.0060090849999
 51
209.6004492555
  0
ARC
  5
11DC
330
1E
100
AcDbEntity
  8
0
100
AcDbCircle
 10
560.0553975029
 20
216.7015801975999
 30
0.0
 40
360.3403740019
100
AcDbArc
 50
176.6037586683
 51
176.6889479959999
  0
ARC
  5
11DD
330
1E
100
AcDbEntity
  8
0
100
AcDbCircle
 10
141.7169359644
 20
216.7015801975999
 30
0.0
 40
62.3961332169
100
AcDbArc
 50
20.0060090853
 51
33.4490364105
  0
ARC
  5
11DE
330
1E
100
AcDbEntity
  8
0
100
AcDbCircle
 10
141.7169359644
 20
-201.6368813408
 30
0.0
 40
360.3403740019
100
AcDbArc
 50
86.6037586684
 51
86.68894799600002
  0
ARC
  5
11DF
330
1E
100
AcDbEntity
  8
0
100
AcDbCircle
 10
141.7169359644
 20
216.7015801975999
 30
0.0
 40
62.3961332169
100
AcDbArc
 50
290.0060090847
 51
303.4490364105
  0
ARC
  5
11E0
330
1E
100
AcDbEntity
  8
0
100
AcDbCircle
 10
141.7169359644
 20
216.7015801975999
 30
0.0
 40
62.3961332169
100
AcDbArc
 50
236.5509635895
 51
249.9939909152999
  0
ARC
  5
11E1
330
1E
100
AcDbEntity
  8
0
100
AcDbCircle
 10
141.7169359644
 20
216.7015801975999
 30
0.0
 40
62.3961332169
100
AcDbArc
 50
34.5509635895
 51
55.44903641050002
  0
ARC
  5
11E2
330
1E
100
AcDbEntity
  8
0
100
AcDbCircle
 10
-276.6215255741
 20
216.7015801975999
 30
0.0
 40
360.7414209091999
100
AcDbArc
 50
358.2854124447
 51
358.4799920001
  0
ARC
  5
11E3
330
1E
100
AcDbEntity
  8
0
100
AcDbCircle
 10
141.7169359644
 20
-201.6368813408
 30
0.0
 40
360.3403740019
100
AcDbArc
 50
93.31105200399999
 51
93.39624133159999
  0
ARC
  5
11E4
330
1E
100
AcDbEntity
  8
0
100
AcDbCircle
 10
141.7169359644
 20
635.0400417360997
 30
0.0
 40
360.7414209091999
100
AcDbArc
 50
268.2854124447
 51
268.4799920000999
  0
ARC
  5
11E5
330
1E
100
AcDbEntity
  8
0
100
AcDbCircle
 10
560.0553975029
 20
216.7015801975999
 30
0.0
 40
360.7414209091999
100
AcDbArc
 50
178.2854124446998
 51
178.4799920000999
  0
ARC
  5
11E6
330
1E
100
AcDbEntity
  8
0
100
AcDbCircle
 10
141.7169359644
 20
-201.6368813408
 30
0.0
 40
360.7414209091999
100
AcDbArc
 50
88.28541244469999
 51
88.47999200009999
  0
ARC
  5
11E7
330
1E
100
AcDbEntity
  8
0
100
AcDbCircle
 10
141.7169359644
 20
216.7015801975999
 30
0.0
 40
59.0429266809
100
AcDbArc
 50
146.5822553412
 51
160.4177446587998
  0
ARC
  5
11E8
330
1E
100
AcDbEntity
  8
0
100
AcDbCircle
 10
141.7169359644
 20
216.7015801975999
 30
0.0
 40
59.0429266809
100
AcDbArc
 50
161.5822553412
 51
162.1323323242
  0
ARC
  5
11E9
330
1E
100
AcDbEntity
  8
0
100
AcDbCircle
 10
141.7169359644
 20
216.7015801975999
 30
0.0
 40
62.3961332169
100
AcDbArc
 50
304.5509635894998
 51
325.4490364105
  0
ARC
  5
11EA
330
1E
100
AcDbEntity
  8
0
100
AcDbCircle
 10
141.7169359644
 20
216.7015801975999
 30
0.0
 40
62.3961332169
100
AcDbArc
 50
56.5509635895
 51
69.9939909147
  0
ARC
  5
11EB
330
1E
100
AcDbEntity
  8
0
100
AcDbCircle
 10
141.7169359644
 20
216.7015801975999
 30
0.0
 40
59.0429266809
100
AcDbArc
 50
107.8676676758
 51
108.4177446587999
  0
ARC
  5
11EC
330
1E
100
AcDbEntity
  8
0
100
AcDbCircle
 10
141.7169359644
 20
216.7015801975999
 30
0.0
 40
59.0429266809
100
AcDbArc
 50
109.5822553412
 51
123.4177446587999
  0
ARC
  5
11ED
330
1E
100
AcDbEntity
  8
0
100
AcDbCircle
 10
141.7169359644
 20
216.7015801975999
 30
0.0
 40
59.0429266809
100
AcDbArc
 50
124.5822553412
 51
145.4177446587999
  0
ARC
  5
11EE
330
1E
100
AcDbEntity
  8
0
100
AcDbCircle
 10
141.7169359644
 20
216.7015801975999
 30
0.0
 40
59.0429266809
100
AcDbArc
 50
236.5822553412
 51
250.4177446588
  0
ARC
  5
11EF
330
1E
100
AcDbEntity
  8
0
100
AcDbCircle
 10
141.7169359644
 20
216.7015801975999
 30
0.0
 40
61.70048104300001
100
AcDbArc
 50
40.3518453808
 51
49.6481546192
  0
ARC
  5
11F0
330
1E
100
AcDbEntity
  8
0
100
AcDbCircle
 10
141.7169359644
 20
216.7015801975999
 30
0.0
 40
59.25495952729999
100
AcDbArc
 50
18.2753919322
 51
18.4198282226
  0
ARC
  5
11F1
330
1E
100
AcDbEntity
  8
0
100
AcDbCircle
 10
141.7169359644
 20
216.7015801975999
 30
0.0
 40
59.0429266809
100
AcDbArc
 50
251.5822553411999
 51
252.1323323242
  0
ARC
  5
11F2
330
1E
100
AcDbEntity
  8
0
100
AcDbCircle
 10
141.7169359644
 20
216.7015801975999
 30
0.0
 40
59.25495952729999
100
AcDbArc
 50
341.5801717774
 51
341.7246080677998
  0
ARC
  5
11F3
330
1E
100
AcDbEntity
  8
0
100
AcDbCircle
 10
141.7169359644
 20
635.0400417360997
 30
0.0
 40
360.3403740019
100
AcDbArc
 50
273.311052004
 51
273.3962413316999
  0
ARC
  5
11F4
330
1E
100
AcDbEntity
  8
0
100
AcDbCircle
 10
141.7169359644
 20
216.7015801975999
 30
0.0
 40
59.25495952729999
100
AcDbArc
 50
288.2753919322
 51
288.4198282225998
  0
ARC
  5
11F5
330
1E
100
AcDbEntity
  8
0
100
AcDbCircle
 10
141.7169359644
 20
216.7015801975999
 30
0.0
 40
59.25495952729999
100
AcDbArc
 50
251.5801717773999
 51
251.7246080677999
  0
ARC
  5
11F6
330
1E
100
AcDbEntity
  8
0
100
AcDbCircle
 10
141.7169359644
 20
216.7015801975999
 30
0.0
 40
62.3961332169
100
AcDbArc
 50
146.5509635895
 51
159.9939909146999
  0
ARC
  5
11F7
330
1E
100
AcDbEntity
  8
0
100
AcDbCircle
 10
141.7169359644
 20
216.7015801975999
 30
0.0
 40
59.25495952729999
100
AcDbArc
 50
198.2753919322
 51
198.4198282226
  0
ARC
  5
11F8
330
1E
100
AcDbEntity
  8
0
100
AcDbCircle
 10
141.7169359644
 20
216.7015801975999
 30
0.0
 40
59.25495952729999
100
AcDbArc
 50
161.5801717774
 51
161.7246080678
  0
ARC
  5
11F9
330
1E
100
AcDbEntity
  8
0
100
AcDbCircle
 10
141.7169359644
 20
216.7015801975999
 30
0.0
 40
59.0429266809
100
AcDbArc
 50
197.8676676758
 51
198.4177446588
  0
ARC
  5
11FA
330
1E
100
AcDbEntity
  8
0
100
AcDbCircle
 10
141.7169359644
 20
216.7015801975999
 30
0.0
 40
59.25495952729999
100
AcDbArc
 50
108.2753919321999
 51
108.4198282226
  0
ARC
  5
11FB
330
1E
100
AcDbEntity
  8
0
100
AcDbCircle
 10
141.7169359644
 20
216.7015801975999
 30
0.0
 40
59.0429266809
100
AcDbArc
 50
199.5822553412
 51
209.6004108606
  0
ARC
  5
11FC
330
1E
100
AcDbEntity
  8
0
100
AcDbCircle
 10
141.7169359644
 20
216.7015801975999
 30
0.0
 40
59.25495952729999
100
AcDbArc
 50
71.58017177739998
 51
71.72460806779999
  0
ARC
  5
11FD
330
1E
100
AcDbEntity
  8
0
100
AcDbCircle
 10
141.7169359644
 20
216.7015801975999
 30
0.0
 40
59.0429266809
100
AcDbArc
 50
216.4007228802999
 51
235.4177446588
  0
ARC
  5
11FE
330
1E
100
AcDbEntity
  8
0
100
AcDbCircle
 10
141.7169359644
 20
216.7015801975999
 30
0.0
 40
59.0429266809
100
AcDbArc
 50
326.5822553411998
 51
340.4177446588
  0
ARC
  5
11FF
330
1E
100
AcDbEntity
  8
0
100
AcDbCircle
 10
141.7169359644
 20
216.7015801975999
 30
0.0
 40
59.25495952729999
100
AcDbArc
 50
19.5801717774
 51
33.4198282226
  0
ARC
  5
1200
330
1E
100
AcDbEntity
  8
0
100
AcDbCircle
 10
141.7169359644
 20
216.7015801975999
 30
0.0
 40
59.0429266809
100
AcDbArc
 50
341.5822553411998
 51
342.1323323241998
  0
ARC
  5
1201
330
1E
100
AcDbEntity
  8
0
100
AcDbCircle
 10
141.7169359644
 20
216.7015801975999
 30
0.0
 40
59.25495952729999
100
AcDbArc
 50
56.58017177739999
 51
70.4198282226
  0
ARC
  5
1202
330
1E
100
AcDbEntity
  8
0
100
AcDbCircle
 10
141.7169359644
 20
216.7015801975999
 30
0.0
 40
59.25495952729999
100
AcDbArc
 50
34.58017177739999
 51
40.1569416032
  0
ARC
  5
1203
330
1E
100
AcDbEntity
  8
0
100
AcDbCircle
 10
141.7169359644
 20
216.7015801975999
 30
0.0
 40
59.25495952729999
100
AcDbArc
 50
43.7756716513
 51
46.2352797214
  0
ARC
  5
1204
330
1E
100
AcDbEntity
  8
0
100
AcDbCircle
 10
141.7169359644
 20
216.7015801975999
 30
0.0
 40
59.25495952729999
100
AcDbArc
 50
49.8430563283
 51
55.41982822260001
  0
ARC
  5
1205
330
1E
100
AcDbEntity
  8
0
100
AcDbCircle
 10
141.7169359644
 20
-201.6368813408
 30
0.0
 40
360.3403740019
100
AcDbArc
 50
90.79504854850002
 51
93.1049578526
  0
ARC
  5
1206
330
1E
100
AcDbEntity
  8
0
100
AcDbCircle
 10
141.7169359644
 20
216.7015801975999
 30
0.0
 40
59.25495952729999
100
AcDbArc
 50
289.5801717774
 51
303.4198282225998
  0
ARC
  5
1207
330
1E
100
AcDbEntity
  8
0
100
AcDbCircle
 10
141.7169359644
 20
216.7015801975999
 30
0.0
 40
59.0429266809
100
AcDbArc
 50
287.8676676758
 51
288.4177446588
  0
ARC
  5
1208
330
1E
100
AcDbEntity
  8
0
100
AcDbCircle
 10
141.7169359644
 20
216.7015801975999
 30
0.0
 40
59.25495952729999
100
AcDbArc
 50
326.5801717774
 51
340.4198282225998
  0
ARC
  5
1209
330
1E
100
AcDbEntity
  8
0
100
AcDbCircle
 10
141.7169359644
 20
216.7015801975999
 30
0.0
 40
59.0429266809
100
AcDbArc
 50
289.5822553411998
 51
303.4177446588
  0
ARC
  5
120A
330
1E
100
AcDbEntity
  8
0
100
AcDbCircle
 10
141.7169359644
 20
216.7015801975999
 30
0.0
 40
59.0429266809
100
AcDbArc
 50
304.5822553412
 51
325.4177446588
  0
ARC
  5
120B
330
1E
100
AcDbEntity
  8
0
100
AcDbCircle
 10
141.7169359644
 20
216.7015801975999
 30
0.0
 40
59.0429266809
100
AcDbArc
 50
56.58225534119999
 51
70.4177446588
  0
ARC
  5
120C
330
1E
100
AcDbEntity
  8
0
100
AcDbCircle
 10
141.7169359644
 20
216.7015801975999
 30
0.0
 40
59.25495952729999
100
AcDbArc
 50
304.5801717774
 51
325.4198282225998
  0
ARC
  5
120D
330
1E
100
AcDbEntity
  8
0
100
AcDbCircle
 10
141.7169359644
 20
216.7015801975999
 30
0.0
 40
59.0429266809
100
AcDbArc
 50
71.58225534119998
 51
72.13233232420002
  0
ARC
  5
120E
330
1E
100
AcDbEntity
  8
0
100
AcDbCircle
 10
141.7169359644
 20
216.7015801975999
 30
0.0
 40
59.25495952729999
100
AcDbArc
 50
236.5801717774
 51
250.4198282226
  0
ARC
  5
120F
330
1E
100
AcDbEntity
  8
0
100
AcDbCircle
 10
141.7169359644
 20
635.0400417360997
 30
0.0
 40
360.3403740019
100
AcDbArc
 50
270.7950485485
 51
273.1049578525999
  0
ARC
  5
1210
330
1E
100
AcDbEntity
  8
0
100
AcDbCircle
 10
141.7169359644
 20
216.7015801975999
 30
0.0
 40
59.25495952729999
100
AcDbArc
 50
109.5801717774
 51
123.4198282226
  0
ARC
  5
1211
330
1E
100
AcDbEntity
  8
0
100
AcDbCircle
 10
141.7169359644
 20
216.7015801975999
 30
0.0
 40
59.25495952729999
100
AcDbArc
 50
146.5801717774
 51
160.4198282225999
  0
ARC
  5
1212
330
1E
100
AcDbEntity
  8
0
100
AcDbCircle
 10
141.7169359644
 20
216.7015801975999
 30
0.0
 40
59.0429266809
100
AcDbArc
 50
17.8676676758
 51
18.4177446588
  0
ARC
  5
1213
330
1E
100
AcDbEntity
  8
0
100
AcDbCircle
 10
141.7169359644
 20
216.7015801975999
 30
0.0
 40
59.0429266809
100
AcDbArc
 50
19.5822553412
 51
33.4177446588
  0
ARC
  5
1214
330
1E
100
AcDbEntity
  8
0
100
AcDbCircle
 10
141.7169359644
 20
216.7015801975999
 30
0.0
 40
59.0429266809
100
AcDbArc
 50
34.58225534119999
 51
40.13952899809999
  0
ARC
  5
1215
330
1E
100
AcDbEntity
  8
0
100
AcDbCircle
 10
141.7169359644
 20
216.7015801975999
 30
0.0
 40
59.0429266809
100
AcDbArc
 50
43.92286581359999
 51
46.07859785689999
  0
ARC
  5
1216
330
1E
100
AcDbEntity
  8
0
100
AcDbCircle
 10
141.7169359644
 20
216.7015801975999
 30
0.0
 40
59.0429266809
100
AcDbArc
 50
49.86046383319999
 51
55.41774465880001
  0
ARC
  5
1217
330
1E
100
AcDbEntity
  8
0
100
AcDbCircle
 10
141.7169359644
 20
216.7015801975999
 30
0.0
 40
59.25495952729999
100
AcDbArc
 50
124.5801717774
 51
145.4198282225999
  0
ARC
  5
1218
330
1E
100
AcDbEntity
  8
0
100
AcDbCircle
 10
141.7169359644
 20
216.7015801975999
 30
0.0
 40
59.25495952729999
100
AcDbArc
 50
216.3885440836999
 51
235.4198282226
  0
ARC
  5
1219
330
1E
100
AcDbEntity
  8
0
100
AcDbCircle
 10
141.7169359644
 20
216.7015801975999
 30
0.0
 40
62.3961332169
100
AcDbArc
 50
326.5509635894998
 51
339.9939909149998
  0
ARC
  5
121A
330
1E
100
AcDbEntity
  8
0
100
AcDbCircle
 10
141.7169359644
 20
216.7015801975999
 30
0.0
 40
62.2570027821
100
AcDbArc
 50
216.4071569355999
 51
228.0
  0
ARC
  5
121B
330
1E
100
AcDbEntity
  8
0
100
AcDbCircle
 10
560.0553975029
 20
216.7015801975999
 30
0.0
 40
360.3403740019
100
AcDbArc
 50
183.3110520039998
 51
183.3962413316
  0
ARC
  5
121C
330
1E
100
AcDbEntity
  8
0
100
AcDbCircle
 10
141.7169359644
 20
216.7015801975999
 30
0.0
 40
62.1178723474
100
AcDbArc
 50
216.2300477206999
 51
216.4147972596
  0
ARC
  5
121D
330
1E
100
AcDbEntity
  8
0
100
AcDbCircle
 10
141.7169359644
 20
216.7015801975999
 30
0.0
 40
62.1178723474
100
AcDbArc
 50
209.5852027404
 51
209.7698878001
  0
ARC
  5
121E
330
1E
100
AcDbEntity
  8
0
100
AcDbCircle
 10
-276.6215255741
 20
216.7015801975999
 30
0.0
 40
360.3403740019
100
AcDbArc
 50
0.7950485485000001
 51
3.1049578526
  0
ARC
  5
121F
330
1E
100
AcDbEntity
  8
0
100
AcDbCircle
 10
141.7169359644
 20
216.7015801975999
 30
0.0
 40
59.25495952729999
100
AcDbArc
 50
199.5801717774
 51
209.6125817366998
  0
LINE
  5
1292
330
1E
100
AcDbEntity
  8
0
100
AcDbLine
 10
410.0
 20
10.0
 30
0.0
 11
334.0
 21
10.0
 31
0.0
  0
LINE
  5
1293
330
1E
100
AcDbEntity
  8
0
100
AcDbLine
 10
410.0
 20
18.0
 30
0.0
 11
334.0
 21
18.0
 31
0.0
  0
LINE
  5
1294
330
1E
100
AcDbEntity
  8
0
100
AcDbLine
 10
410.0
 20
26.0
 30
0.0
 11
334.0
 21
26.0
 31
0.0
  0
LINE
  5
1295
330
1E
100
AcDbEntity
  8
0
100
AcDbLine
 10
334.0
 20
26.0
 30
0.0
 11
334.0
 21
10.0
 31
0.0
  0
LINE
  5
1296
330
1E
100
AcDbEntity
  8
0
100
AcDbLine
 10
354.0
 20
26.0
 30
0.0
 11
354.0
 21
10.0
 31
0.0
  0
TEXT
  5
1297
330
1E
100
AcDbEntity
  8
0
100
AcDbText
 10
339.93529
 20
19.6716860000001
 30
0.0
 40
4.0
  1
品名
  7
STANDARD1
100
AcDbText
  0
TEXT
  5
1298
330
1E
100
AcDbEntity
  8
0
100
AcDbText
 10
339.93529
 20
11.67168599999999
 30
0.0
 40
4.0
  1
型名
  7
STANDARD1
100
AcDbText
  0
TEXT
  5
1299
330
1E
100
AcDbEntity
  8
0
100
AcDbText
 10
355.93529
 20
19.6716860000001
 30
0.0
 40
4.0
  1
ネットワークカメラ
  7
STANDARD1
100
AcDbText
  0
TEXT
  5
129A
330
1E
100
AcDbEntity
  8
0
100
AcDbText
 10
355.93529
 20
11.67168599999999
 30
0.0
 40
4.0
  1
NC-6700
  7
STANDARD1
100
AcDbText
  0
LINE
  5
129B
330
1E
100
AcDbEntity
  8
0
100
AcDbLine
 10
410.0
 20
26.0
 30
0.0
 11
410.0
 21
10.0
 31
0.0
  0
LINE
  5
1429
330
1E
100
AcDbEntity
  8
0
100
AcDbLine
 10
145.7170359643999
 20
258.4515801975999
 30
0.0
 11
235.949912149
 21
258.4515801975999
 31
0.0
  0
LINE
  5
142A
330
1E
100
AcDbEntity
  8
0
100
AcDbLine
 10
145.7170359643999
 20
174.9515801975999
 30
0.0
 11
235.949912149
 21
174.9515801975998
 31
0.0
  0
LINE
  5
142B
330
1E
100
AcDbEntity
  8
0
100
AcDbLine
 10
234.949912149
 20
256.4515801975999
 30
0.0
 11
234.949912149
 21
176.9515801975998
 31
0.0
  0
INSERT
  5
142C
330
1E
100
AcDbEntity
  8
0
100
AcDbBlockReference
  2
_OPEN
 10
234.949912149
 20
258.4515801975999
 30
0.0
 41
2.0
 42
2.0
 43
2.0
 50
90.0
  0
INSERT
  5
142D
330
1E
100
AcDbEntity
  8
0
100
AcDbBlockReference
  2
_OPEN
 10
234.949912149
 20
174.9515801975998
 30
0.0
 41
2.0
 42
2.0
 43
2.0
 50
270.0
  0
LINE
  5
142F
330
1E
100
AcDbEntity
  8
0
100
AcDbLine
 10
150.7169359643999
 20
246.7015801975998
 30
0.0
 11
228.1278397208999
 21
246.7015801975998
 31
0.0
  0
LINE
  5
1430
330
1E
100
AcDbEntity
  8
0
100
AcDbLine
 10
150.7169359643999
 20
186.7015801975998
 30
0.0
 11
228.1278397208999
 21
186.7015801975998
 31
0.0
  0
LINE
  5
1431
330
1E
100
AcDbEntity
  8
0
100
AcDbLine
 10
227.1278397209
 20
244.7015801975996
 30
0.0
 11
227.1278397209
 21
214.9898643496999
 31
0.0
  0
LINE
  5
1432
330
1E
100
AcDbEntity
  8
0
100
AcDbLine
 10
227.1278397209
 20
188.7015801975998
 30
0.0
 11
227.1278397209
 21
216.099872752743
 31
0.0
  0
INSERT
  5
1433
330
1E
100
AcDbEntity
  8
0
100
AcDbBlockReference
  2
_OPEN
 10
227.1278397209
 20
246.7015801975998
 30
0.0
 41
2.0
 42
2.0
 43
2.0
 50
90.0
  0
INSERT
  5
1434
330
1E
100
AcDbEntity
  8
0
100
AcDbBlockReference
  2
_OPEN
 10
227.1278397209
 20
186.7015801975998
 30
0.0
 41
2.0
 42
2.0
 43
2.0
 50
270.0
  0
LINE
  5
1436
330
1E
100
AcDbEntity
  8
0
100
AcDbLine
 10
205.3492546393901
 20
231.6851860365819
 30
0.0
 11
179.5835690259858
 21
227.0661289924237
 31
0.0
  0
INSERT
  5
1438
330
1E
100
AcDbEntity
  8
0
100
AcDbBlockReference
  2
_OPEN
 10
177.6149528771999
 20
226.7132119218
 30
0.0
 41
1.999999999999999
 42
2.0
 43
2.0
 50
190.1635470299973
  0
LINE
  5
1439
330
1E
100
AcDbEntity
  8
0
100
AcDbLine
 10
204.277103227288
 20
210.6266115851
 30
0.0
 11
202.277103227288
 21
210.6266115851
 31
0.0
  0
LINE
  5
143A
330
1E
100
AcDbEntity
  8
0
100
AcDbLine
 10
202.277103227288
 20
210.6266115851
 30
0.0
 11
182.9911346945813
 21
216.855245911493
 31
0.0
  0
INSERT
  5
143C
330
1E
100
AcDbEntity
  8
0
100
AcDbBlockReference
  2
_OPEN
 10
181.0879296152
 20
217.4699087668999
 30
0.0
 41
2.0
 42
2.0
 43
2.0
 50
162.101516696643
  0
LINE
  5
143D
330
1E
100
AcDbEntity
  8
0
100
AcDbLine
 10
99.96693596440001
 20
212.7014801975999
 30
0.0
 11
99.96693596440001
 21
208.1584095171999
 31
0.0
  0
LINE
  5
143E
330
1E
100
AcDbEntity
  8
0
100
AcDbLine
 10
183.4669359643999
 20
212.7014801975999
 30
0.0
 11
183.4669359643999
 21
208.1584095171999
 31
0.0
  0
LINE
  5
143F
330
1E
100
AcDbEntity
  8
0
100
AcDbLine
 10
101.9669359644
 20
209.1584095172
 30
0.0
 11
183.4669359643998
 21
209.1584095171998
 31
0.0
  0
LINE
  5
1440
330
1E
100
AcDbEntity
  8
0
100
AcDbLine
 10
181.4669359643999
 20
209.1584095172
 30
0.0
 11
149.7847276306663
 21
209.1584095172
 31
0.0
  0
INSERT
  5
1441
330
1E
100
AcDbEntity
  8
0
100
AcDbBlockReference
  2
_OPEN
 10
99.96693596440001
 20
209.1584095172
 30
0.0
 41
2.0
 42
2.0
 43
2.0
 50
180.0
  0
INSERT
  5
1442
330
1E
100
AcDbEntity
  8
0
100
AcDbBlockReference
  2
_OPEN
 10
183.4669359643999
 20
209.1584095172
 30
0.0
 41
2.0
 42
2.0
 43
2.0
  0
LINE
  5
1445
330
1E
100
AcDbEntity
  8
0
100
AcDbLine
 10
123.735615952574
 20
175.2933706778998
 30
0.0
 11
141.7169359644159
 21
186.70158019766
 31
0.0
  0
INSERT
  5
1447
330
1E
100
AcDbEntity
  8
0
100
AcDbBlockReference
  2
_OPEN
 10
143.4057228067
 20
187.7730273505
 30
0.0
 41
2.0
 42
2.0
 43
2.0
 50
32.39299589857461
  0
LINE
  5
1449
330
1E
100
AcDbEntity
  8
0
100
AcDbLine
 10
85.24578889929678
 20
162.3840635439998
 30
0.0
 11
186.3010626292393
 21
259.5854097012165
 31
0.0
  0
INSERT
  5
144B
330
1E
100
AcDbEntity
  8
0
100
AcDbBlockReference
  2
_OPEN
 10
187.7424948941996
 20
260.9718703120999
 30
0.0
 41
2.0
 42
2.0
 43
2.0
 50
43.88636264789935
  0
LINE
  5
144C
330
1E
100
AcDbEntity
  8
0
100
AcDbLine
 10
107.1957273647998
 20
241.1578042704999
 30
0.0
 11
66.22301984720005
 21
241.1578042704999
 31
0.0
  0
LINE
  5
144D
330
1E
100
AcDbEntity
  8
0
100
AcDbLine
 10
76.1069629568
 20
216.7015801975999
 30
0.0
 11
66.22301984720003
 21
216.7015801975999
 31
0.0
  0
LINE
  5
144E
330
1E
100
AcDbEntity
  8
0
100
AcDbLine
 10
67.22301984720004
 20
239.1578042704999
 30
0.0
 11
67.22301984720004
 21
227.0375655133999
 31
0.0
  0
LINE
  5
144F
330
1E
100
AcDbEntity
  8
0
100
AcDbLine
 10
67.22301984720004
 20
218.7015801975999
 30
0.0
 11
67.22301984720004
 21
241.1578042704999
 31
0.0
  0
INSERT
  5
1450
330
1E
100
AcDbEntity
  8
0
100
AcDbBlockReference
  2
_OPEN
 10
67.22301984720004
 20
241.1578042704999
 30
0.0
 41
2.0
 42
2.0
 43
2.0
 50
90.0
  0
INSERT
  5
1451
330
1E
100
AcDbEntity
  8
0
100
AcDbBlockReference
  2
_OPEN
 10
67.22301984720004
 20
216.7015801975999
 30
0.0
 41
2.0
 42
2.0
 43
2.0
 50
270.0
  0
LINE
  5
1454
330
1E
100
AcDbEntity
  8
0
100
AcDbLine
 10
101.9624005558231
 20
257.2699831196998
 30
0.0
 11
127.3282412384854
 21
236.0204631693834
 31
0.0
  0
INSERT
  5
1456
330
1E
100
AcDbEntity
  8
0
100
AcDbBlockReference
  2
_OPEN
 10
128.8613697068999
 20
234.7361278940998
 30
0.0
 41
2.0
 42
2.0
 43
2.0
 50
320.0463546633503
  0
LINE
  5
1457
330
1E
100
AcDbEntity
  8
0
100
AcDbLine
 10
141.7169359644
 20
266.8910537566999
 30
0.0
 11
141.7169359644
 21
268.6244655668999
 31
0.0
  0
LINE
  5
1458
330
1E
100
AcDbEntity
  8
0
100
AcDbLine
 10
121.1957273647998
 20
255.1578042704999
 30
0.0
 11
121.1957273647998
 21
268.6244655668999
 31
0.0
  0
LINE
  5
1459
330
1E
100
AcDbEntity
  8
0
100
AcDbLine
 10
139.7169359644
 20
267.6244655668999
 30
0.0
 11
129.0023666591332
 21
267.6244655668999
 31
0.0
  0
LINE
  5
145A
330
1E
100
AcDbEntity
  8
0
100
AcDbLine
 10
123.1957273647998
 20
267.6244655668999
 30
0.0
 11
141.7169359644
 21
267.6244655668999
 31
0.0
  0
INSERT
  5
145B
330
1E
100
AcDbEntity
  8
0
100
AcDbBlockReference
  2
_OPEN
 10
141.7169359644
 20
267.6244655668999
 30
0.0
 41
2.0
 42
2.0
 43
2.0
  0
INSERT
  5
145C
330
1E
100
AcDbEntity
  8
0
100
AcDbBlockReference
  2
_OPEN
 10
121.1957273647998
 20
267.6244655668999
 30
0.0
 41
2.0
 42
2.0
 43
2.0
 50
180.0
  0
LINE
  5
145E
330
1E
100
AcDbEntity
  8
0
100
AcDbLine
 10
93.8895327168
 20
151.3943575377
 30
0.0
 11
69.64960934050002
 21
151.3943575377
 31
0.0
  0
LINE
  5
145F
330
1E
100
AcDbEntity
  8
0
100
AcDbLine
 10
85.06228024870003
 20
90.89435753770001
 30
0.0
 11
69.64960934050001
 21
90.89435753770001
 31
0.0
  0
LINE
  5
1460
330
1E
100
AcDbEntity
  8
0
100
AcDbLine
 10
70.64960934050001
 20
149.3943575377
 30
0.0
 11
70.64960934050001
 21
90.89435753769993
 31
0.0
  0
LINE
  5
1461
330
1E
100
AcDbEntity
  8
0
100
AcDbLine
 10
70.64960934050001
 20
92.8943575377
 30
0.0
 11
70.64960934050001
 21
115.6358299366999
 31
0.0
  0
INSERT
  5
1462
330
1E
100
AcDbEntity
  8
0
100
AcDbBlockReference
  2
_OPEN
 10
70.64960934050001
 20
151.3943575377
 30
0.0
 41
2.0
 42
2.0
 43
2.0
 50
90.0
  0
INSERT
  5
1463
330
1E
100
AcDbEntity
  8
0
100
AcDbBlockReference
  2
_OPEN
 10
70.64960934050001
 20
90.89435753770001
 30
0.0
 41
2.0
 42
2.0
 43
2.0
 50
270.0
  0
LINE
  5
1465
330
1E
100
AcDbEntity
  8
0
100
AcDbLine
 10
93.8895327168
 20
151.3943575377
 30
0.0
 11
59.28672074580003
 21
151.3943575377
 31
0.0
  0
LINE
  5
1466
330
1E
100
AcDbEntity
  8
0
100
AcDbLine
 10
140.2169359643997
 20
43.3943575377
 30
0.0
 11
59.28672074579999
 21
43.39435753770002
 31
0.0
  0
LINE
  5
1467
330
1E
100
AcDbEntity
  8
0
100
AcDbLine
 10
60.28672074580002
 20
149.3943575377
 30
0.0
 11
60.28672074580001
 21
43.39435753770004
 31
0.0
  0
LINE
  5
1468
330
1E
100
AcDbEntity
  8
0
100
AcDbLine
 10
60.2867207458
 20
45.39435753770002
 30
0.0
 11
60.28672074580001
 21
88.22053695319999
 31
0.0
  0
INSERT
  5
1469
330
1E
100
AcDbEntity
  8
0
100
AcDbBlockReference
  2
_OPEN
 10
60.28672074580002
 20
151.3943575377
 30
0.0
 41
2.0
 42
2.0
 43
2.0
 50
90.0
  0
INSERT
  5
146A
330
1E
100
AcDbEntity
  8
0
100
AcDbBlockReference
  2
_OPEN
 10
60.2867207458
 20
43.39435753770002
 30
0.0
 41
2.0
 42
2.0
 43
2.0
 50
270.0
  0
LINE
  5
146D
330
1E
100
AcDbEntity
  8
0
100
AcDbLine
 10
186.7840247128321
 20
56.67049917049999
 30
0.0
 11
181.1383937750704
 21
60.95778017695643
 31
0.0
  0
INSERT
  5
146F
330
1E
100
AcDbEntity
  8
0
100
AcDbBlockReference
  2
_OPEN
 10
179.5456076009
 20
62.1673388582
 30
0.0
 41
2.0
 42
2.0
 43
2.0
 50
142.7870349347744
  0
LINE
  5
1470
330
1E
100
AcDbEntity
  8
0
100
AcDbLine
 10
139.7169359644
 20
90.89435753770002
 30
0.0
 11
143.7169359644
 21
90.89435753770002
 31
0.0
  0
LINE
  5
1471
330
1E
100
AcDbEntity
  8
0
100
AcDbLine
 10
141.7169359644
 20
88.89435753770001
 30
0.0
 11
141.7169359644
 21
92.89435753770002
 31
0.0
  0
TEXT
  5
147A
330
1E
100
AcDbEntity
  8
0
100
AcDbText
 10
200.9352899999999
 20
79.67168600000011
 30
0.0
 40
3.2
  1
フロントマーク
  7
STANDARD1
100
AcDbText
  0
TEXT
  5
147B
330
1E
100
AcDbEntity
  8
0
100
AcDbText
 10
39.93529
 20
163.6716860000001
 30
0.0
 40
3.2
  1
カバー着脱ロック
  7
STANDARD1
100
AcDbText
  0
TEXT
  5
147C
330
1E
100
AcDbEntity
  8
0
100
AcDbText
 10
58.93529
 20
256.6716859999999
 30
0.0
 40
3.2
  1
ケーブル導入孔
  7
STANDARD1
100
AcDbText
  0
TEXT
  5
147D
330
1E
100
AcDbEntity
  8
0
100
AcDbText
 10
127.9352899999999
 20
268.1716859999998
 30
0.0
 40
2.799999999999998
  1
20.5
 41
0.8
  7
STANDARD1
100
AcDbText
  0
TEXT
  5
147E
330
1E
100
AcDbEntity
  8
0
100
AcDbText
 10
104.501950712931
 20
256.2888938649015
 30
0.0
 40
2.799999999999998
  1
φ20
 50
320.0463546633503
 41
0.8
  7
STANDARD1
100
AcDbText
  0
TEXT
  5
147F
330
1E
100
AcDbEntity
  8
0
100
AcDbText
 10
146.9352899999998
 20
210.1716859999999
 30
0.0
 40
2.799999999999998
  1
83.5
 41
0.8
  7
STANDARD1
100
AcDbText
  0
TEXT
  5
1480
330
1E
100
AcDbEntity
  8
0
100
AcDbText
 10
84.17724821453871
 20
162.802513907154
 30
0.0
 40
2.799999999999998
  1
φ128
 50
43.88636264789933
 41
0.8
  7
STANDARD1
100
AcDbText
  0
TEXT
  5
1481
330
1E
100
AcDbEntity
  8
0
100
AcDbText
 10
123.9259294619441
 20
176.2185139394108
 30
0.0
 40
2.799999999999998
  1
2-(φ4）
 50
32.39299589857465
 41
0.8
  7
STANDARD1
100
AcDbText
  0
TEXT
  5
1482
330
1E
100
AcDbEntity
  8
0
100
AcDbText
 10
206.4933362820887
 20
230.7946588109055
 30
0.0
 40
2.799999999999998
  1
4-(φ9）
 50
10.16354702999781
 41
0.8
  7
STANDARD1
100
AcDbText
  0
TEXT
  5
1484
330
1E
100
AcDbEntity
  8
0
100
AcDbText
 10
204.9352899999999
 20
209.171686
 30
0.0
 40
2.799999999999998
  1
φ4-（φ5）
 41
0.8
  7
STANDARD1
100
AcDbText
  0
TEXT
  5
1485
330
1E
100
AcDbEntity
  8
0
100
AcDbText
 10
225.8283139999998
 20
212.9352899999999
 30
0.0
 40
2.799999999999998
  1
60
 50
90.0
 41
0.8
  7
STANDARD1
100
AcDbText
  0
TEXT
  5
1486
330
1E
100
AcDbEntity
  8
0
100
AcDbText
 10
233.8283139999997
 20
210.9352899999999
 30
0.0
 40
2.799999999999998
  1
83.5
 50
90.0
 41
0.8
  7
STANDARD1
100
AcDbText
  0
TEXT
  5
1487
330
1E
100
AcDbEntity
  8
0
100
AcDbText
 10
65.82831399999986
 20
224.9352899999999
 30
0.0
 40
2.799999999999998
  1
24.5
 50
90.0
 41
0.8
  7
STANDARD1
100
AcDbText
  0
TEXT
  5
1488
330
1E
100
AcDbEntity
  8
0
100
AcDbText
 10
69.82831399999986
 20
115.93529
 30
0.0
 40
2.799999999999998
  1
60.5
 50
90.0
 41
0.8
  7
STANDARD1
100
AcDbText
  0
TEXT
  5
1489
330
1E
100
AcDbEntity
  8
0
100
AcDbText
 10
58.82831399999986
 20
92.93528999999999
 30
0.0
 40
2.799999999999998
  1
108
 50
90.0
 41
0.8
  7
STANDARD1
100
AcDbText
  0
TEXT
  5
148A
330
1E
100
AcDbEntity
  8
0
100
AcDbText
 10
186.7136106435065
 20
54.88714853332026
 30
0.0
 40
2.799999999999998
  1
(SR47.5)
 50
322.7870349347746
 41
0.8
  7
STANDARD1
100
AcDbText
  0
ENDSEC
  0
SECTION
  2
OBJECTS
  0
DICTIONARY
  5
C
330
0
100
AcDbDictionary
281
     1
  3
ACAD_GROUP
350
D
  3
ACAD_LAYOUT
350
19
  3
ACAD_MLINESTYLE
350
16
  3
ACAD_PLOTSETTINGS
350
18
  3
ACAD_PLOTSTYLENAME
350
E
  3
AcDbVariableDictionary
350
129D
  0
DICTIONARY
  5
1222
330
2
100
AcDbDictionary
280
     1
281
     1
  3
ACAD_LAYERFILTERS
360
1223
  3
ACAD_LAYERSTATES
360
1280
  0
DICTIONARY
  5
D
102
{ACAD_REACTORS
330
C
102
}
330
C
100
AcDbDictionary
281
     1
  0
DICTIONARY
  5
19
102
{ACAD_REACTORS
330
C
102
}
330
C
100
AcDbDictionary
281
     1
  3
Model
350
21
  3
ﾚｲｱｳﾄ1
350
1D
  0
DICTIONARY
  5
16
102
{ACAD_REACTORS
330
C
102
}
330
C
100
AcDbDictionary
281
     1
  3
Standard
350
17
  0
DICTIONARY
  5
18
102
{ACAD_REACTORS
330
C
102
}
330
C
100
AcDbDictionary
281
     1
  0
ACDBDICTIONARYWDFLT
  5
E
102
{ACAD_REACTORS
330
C
102
}
330
C
100
AcDbDictionary
281
     1
  3
Normal
350
F
100
AcDbDictionaryWithDefault
340
F
  0
DICTIONARY
  5
129D
102
{ACAD_REACTORS
330
C
102
}
330
C
100
AcDbDictionary
281
     1
  3
DIMASSOC
350
129E
  0
DICTIONARY
  5
1223
102
{ACAD_REACTORS
330
1222
102
}
330
1222
100
AcDbDictionary
280
     1
281
     1
  3
0
360
1224
  3
01全体計画平面図
360
1225
  3
02現況平面図
360
1226
  3
03撤去平面図
360
1227
  3
04造成平面図
360
1228
  3
05施設平面図
360
1229
  3
06排水平面図
360
122A
  3
07給水平面図
360
122B
  3
08電気平面図
360
122C
  3
09植栽平面図-1
360
122D
  3
1
360
122E
  3
1-交差点処理図（最新1案）
360
122F
  3
10植栽平面図-2
360
1230
  3
11寸法図
360
1231
  3
1次施工
360
1232
  3
2
360
1233
  3
2-線形図1
360
1234
  3
2次施工
360
1235
  3
3
360
1236
  3
3-線形図2
360
1237
  3
3次施工
360
1238
  3
4
360
1239
  3
4次施工
360
123A
  3
5
360
123B
  3
50
360
123C
  3
6
360
123D
  3
7
360
123E
  3
7-専用部北行
360
123F
  3
8-ONﾗﾝﾌﾟ
360
1240
  3
9-OFFﾗﾝﾌﾟ
360
1241
  3
a
360
1242
  3
b
360
1243
  3
B北
360
1244
  3
c
360
1245
  3
CAR
360
1246
  3
d
360
1247
  3
DIM
360
1248
  3
DIM2
360
1249
  3
DIM3
360
124A
  3
e
360
124B
  3
E南
360
124C
  3
GENKYOU
360
124D
  3
HTXT
360
124E
  3
HTXT2
360
124F
  3
KAN
360
1250
  3
LAND
360
1251
  3
MASU
360
1252
  3
OFF
360
1253
  3
OFST
360
1254
  3
ON
360
1255
  3
ｼｭｳｾｲ
360
1256
  3
ｾﾒﾝﾄ注入量上半円
360
1257
  3
ﾌﾘｰｽﾞ解除
360
1258
  3
ﾙｼﾞｵﾝ値下半円
360
1259
  3
ｓ
360
125A
  3
その他
360
125B
  3
セメント注入量
360
125C
  3
フリーズ以外
360
125D
  3
ランプ
360
125E
  3
ルジオン値
360
125F
  3
ロック
360
1260
  3
ロック解除
360
1261
  3
案1
360
1262
  3
案2
360
1263
  3
一般
360
1264
  3
外部参照の非表示画層
360
1265
  3
形状
360
1266
  3
形状以外
360
1267
  3
計画
360
1268
  3
現況
360
1269
  3
暫定形
360
126A
  3
縦断セット
360
126B
  3
縦断計画
360
126C
  3
縦断埋設
360
126D
  3
数量用
360
126E
  3
専北
360
126F
  3
専用
360
1270
  3
線形
360
1271
  3
全帯
360
1272
  3
断面
360
1273
  3
東西線
360
1274
  3
道路詳細設計　平面図
360
1275
  3
南北線
360
1276
  3
非表示
360
1277
  3
非表示を表示
360
1278
  3
非表示画層を表示
360
1279
  3
表示レイヤ－を表示
360
127A
  3
副道
360
127B
  3
平面図
360
127C
  3
埋設
360
127D
  0
DICTIONARY
  5
1280
102
{ACAD_REACTORS
330
1222
102
}
330
1222
100
AcDbDictionary
281
     1
  0
LAYOUT
  5
21
102
{ACAD_REACTORS
330
19
102
}
330
19
100
AcDbPlotSettings
  1

  2
RICOH IPSiO SP 6210 RPCS
  4
A4
  6

 40
5.873749732971191
 41
5.873747825622557
 42
5.873748779296875
 43
5.873748779296875
 44
209.9733276367186
 45
296.9259948730469
 46
0.0
 47
0.0
 48
0.0
 49
0.0
140
420.0
141
297.0
142
1.0
143
1.498291122361943
 70
 11952
 72
     1
 73
     1
 74
     4
  7
A3.ctb
 75
     0
147
0.6674270340890596
148
0.0
149
0.0
100
AcDbLayout
  1
Model
 70
     1
 71
     0
 10
0.0
 20
0.0
 11
12.0
 21
9.0
 12
0.0
 22
0.0
 32
0.0
 14
0.0
 24
0.0
 34
0.0
 15
0.0
 25
0.0
 35
0.0
146
0.0
 13
0.0
 23
0.0
 33
0.0
 16
1.0
 26
0.0
 36
0.0
 17
0.0
 27
1.0
 37
0.0
 76
     0
330
1E
  0
LAYOUT
  5
1D
102
{ACAD_REACTORS
330
19
102
}
330
19
100
AcDbPlotSettings
  1

  2
なし
  4

  6

 40
0.0
 41
0.0
 42
0.0
 43
0.0
 44
0.0
 45
0.0
 46
0.0
 47
0.0
 48
0.0
 49
0.0
140
0.0
141
0.0
142
1.0
143
1.0
 70
   688
 72
     0
 73
     0
 74
     5
  7
A3.ctb
 75
    16
147
1.0
148
0.0
149
0.0
100
AcDbLayout
  1
ﾚｲｱｳﾄ1
 70
     1
 71
     1
 10
0.0
 20
0.0
 11
12.0
 21
9.0
 12
0.0
 22
0.0
 32
0.0
 14
1.000000000000000E+20
 24
1.000000000000000E+20
 34
1.000000000000000E+20
 15
-1.000000000000000E+20
 25
-1.000000000000000E+20
 35
-1.000000000000000E+20
146
0.0
 13
0.0
 23
0.0
 33
0.0
 16
1.0
 26
0.0
 36
0.0
 17
0.0
 27
1.0
 37
0.0
 76
     0
330
1A
  0
MLINESTYLE
  5
17
102
{ACAD_REACTORS
330
16
102
}
330
16
100
AcDbMlineStyle
  2
STANDARD
 70
     0
  3

 62
   256
 51
90.0
 52
90.0
 71
     2
 49
0.5
 62
   256
  6
BYLAYER
 49
-0.5
 62
   256
  6
BYLAYER
  0
ACDBPLACEHOLDER
  5
F
102
{ACAD_REACTORS
330
E
102
}
330
E
  0
DICTIONARYVAR
  5
129E
102
{ACAD_REACTORS
330
129D
102
}
330
129D
100
DictionaryVariables
280
     0
  1
1
  0
XRECORD
  5
1224
102
{ACAD_REACTORS
330
1223
102
}
330
1223
100
AcDbXrecord
280
     1
  1
0
  1
0*
  1
*
  1
*
 70
     0
  1
*
  1
*
  0
XRECORD
  5
1225
102
{ACAD_REACTORS
330
1223
102
}
330
1223
100
AcDbXrecord
280
     1
  1
01全体計画平面図
  1
00*,01*,0A*,0E-2*
  1
*
  1
*
 70
     0
  1
*
  1
*
  0
XRECORD
  5
1226
102
{ACAD_REACTORS
330
1223
102
}
330
1223
100
AcDbXrecord
280
     1
  1
02現況平面図
  1
00*,02*,0B*
  1
*
  1
*
 70
     0
  1
*
  1
*
  0
XRECORD
  5
1227
102
{ACAD_REACTORS
330
1223
102
}
330
1223
100
AcDbXrecord
280
     1
  1
03撤去平面図
  1
00*,01*,0C*
  1
*
  1
*
 70
     0
  1
*
  1
*
  0
XRECORD
  5
1228
102
{ACAD_REACTORS
330
1223
102
}
330
1223
100
AcDbXrecord
280
     1
  1
04造成平面図
  1
00*,02*,0D*,03*
  1
*
  1
*
 70
     0
  1
*
  1
*
  0
XRECORD
  5
1229
102
{ACAD_REACTORS
330
1223
102
}
330
1223
100
AcDbXrecord
280
     1
  1
05施設平面図
  1
00*,02*,0E*
  1
*
  1
*
 70
     0
  1
*
  1
*
  0
XRECORD
  5
122A
102
{ACAD_REACTORS
330
1223
102
}
330
1223
100
AcDbXrecord
280
     1
  1
06排水平面図
  1
00*,02*,0F*
  1
*
  1
*
 70
     0
  1
*
  1
*
  0
XRECORD
  5
122B
102
{ACAD_REACTORS
330
1223
102
}
330
1223
100
AcDbXrecord
280
     1
  1
07給水平面図
  1
00*,02*,0G*
  1
*
  1
*
 70
     0
  1
*
  1
*
  0
XRECORD
  5
122C
102
{ACAD_REACTORS
330
1223
102
}
330
1223
100
AcDbXrecord
280
     1
  1
08電気平面図
  1
00*,02*,0H*
  1
*
  1
*
 70
     0
  1
*
  1
*
  0
XRECORD
  5
122D
102
{ACAD_REACTORS
330
1223
102
}
330
1223
100
AcDbXrecord
280
     1
  1
09植栽平面図-1
  1
00*,02*,0I*
  1
*
  1
*
 70
     0
  1
*
  1
*
  0
XRECORD
  5
122E
102
{ACAD_REACTORS
330
1223
102
}
330
1223
100
AcDbXrecord
280
     1
  1
1
  1
*計画*
  1
*
  1
*
 70
     0
  1
*
  1
*
  0
XRECORD
  5
122F
102
{ACAD_REACTORS
330
1223
102
}
330
1223
100
AcDbXrecord
280
     1
  1
1-交差点処理図（最新1案）
  1
*交差点処理図（最新1案）*
  1
*
  1
*
 70
     0
  1
*
  1
*
  0
XRECORD
  5
1230
102
{ACAD_REACTORS
330
1223
102
}
330
1223
100
AcDbXrecord
280
     1
  1
10植栽平面図-2
  1
00*,02*,0J*
  1
*
  1
*
 70
     0
  1
*
  1
*
  0
XRECORD
  5
1231
102
{ACAD_REACTORS
330
1223
102
}
330
1223
100
AcDbXrecord
280
     1
  1
11寸法図
  1
00*,02*,0K*,03*
  1
*
  1
*
 70
     0
  1
*
  1
*
  0
XRECORD
  5
1232
102
{ACAD_REACTORS
330
1223
102
}
330
1223
100
AcDbXrecord
280
     1
  1
1次施工
  1
*1次*
  1
*
  1
*
 70
     0
  1
*
  1
*
  0
XRECORD
  5
1233
102
{ACAD_REACTORS
330
1223
102
}
330
1223
100
AcDbXrecord
280
     1
  1
2
  1
*SOKUTENME
  1
*
  1
*
 70
     0
  1
*
  1
*
  0
XRECORD
  5
1234
102
{ACAD_REACTORS
330
1223
102
}
330
1223
100
AcDbXrecord
280
     1
  1
2-線形図1
  1
*線形図1*
  1
*
  1
*
 70
     0
  1
*
  1
*
  0
XRECORD
  5
1235
102
{ACAD_REACTORS
330
1223
102
}
330
1223
100
AcDbXrecord
280
     1
  1
2次施工
  1
*2次*
  1
*
  1
*
 70
     0
  1
*
  1
*
  0
XRECORD
  5
1236
102
{ACAD_REACTORS
330
1223
102
}
330
1223
100
AcDbXrecord
280
     1
  1
3
  1
*下部工*
  1
*
  1
*
 70
     0
  1
*
  1
*
  0
XRECORD
  5
1237
102
{ACAD_REACTORS
330
1223
102
}
330
1223
100
AcDbXrecord
280
     1
  1
3-線形図2
  1
*線形図2*
  1
*
  1
*
 70
     0
  1
*
  1
*
  0
XRECORD
  5
1238
102
{ACAD_REACTORS
330
1223
102
}
330
1223
100
AcDbXrecord
280
     1
  1
3次施工
  1
*3次*
  1
*
  1
*
 70
     0
  1
*
  1
*
  0
XRECORD
  5
1239
102
{ACAD_REACTORS
330
1223
102
}
330
1223
100
AcDbXrecord
280
     1
  1
4
  1
*
  1
4
  1
*
 70
     0
  1
*
  1
*
  0
XRECORD
  5
123A
102
{ACAD_REACTORS
330
1223
102
}
330
1223
100
AcDbXrecord
280
     1
  1
4次施工
  1
*4次*
  1
*
  1
*
 70
     0
  1
*
  1
*
  0
XRECORD
  5
123B
102
{ACAD_REACTORS
330
1223
102
}
330
1223
100
AcDbXrecord
280
     1
  1
5
  1
*
  1
5
  1
*
 70
     0
  1
*
  1
*
  0
XRECORD
  5
123C
102
{ACAD_REACTORS
330
1223
102
}
330
1223
100
AcDbXrecord
280
     1
  1
50
  1
*-50
  1
*
  1
*
 70
     0
  1
*
  1
*
  0
XRECORD
  5
123D
102
{ACAD_REACTORS
330
1223
102
}
330
1223
100
AcDbXrecord
280
     1
  1
6
  1
*
  1
6
  1
*
 70
     0
  1
*
  1
*
  0
XRECORD
  5
123E
102
{ACAD_REACTORS
330
1223
102
}
330
1223
100
AcDbXrecord
280
     1
  1
7
  1
*
  1
7
  1
*
 70
     0
  1
*
  1
*
  0
XRECORD
  5
123F
102
{ACAD_REACTORS
330
1223
102
}
330
1223
100
AcDbXrecord
280
     1
  1
7-専用部北行
  1
80*,90*,A0*,B0*,
  1
*
  1
*
 70
     0
  1
*
  1
*
  0
XRECORD
  5
1240
102
{ACAD_REACTORS
330
1223
102
}
330
1223
100
AcDbXrecord
280
     1
  1
8-ONﾗﾝﾌﾟ
  1
70*,90*,A0*,B0*,
  1
*
  1
*
 70
     0
  1
*
  1
*
  0
XRECORD
  5
1241
102
{ACAD_REACTORS
330
1223
102
}
330
1223
100
AcDbXrecord
280
     1
  1
9-OFFﾗﾝﾌﾟ
  1
70*,80*,A0*B0*,
  1
*
  1
*
 70
     0
  1
*
  1
*
  0
XRECORD
  5
1242
102
{ACAD_REACTORS
330
1223
102
}
330
1223
100
AcDbXrecord
280
     1
  1
a
  1
*A_*
  1
*
  1
*
 70
    12
  1
*
  1
*
  0
XRECORD
  5
1243
102
{ACAD_REACTORS
330
1223
102
}
330
1223
100
AcDbXrecord
280
     1
  1
b
  1
*b_*
  1
*
  1
*
 70
    12
  1
*
  1
*
  0
XRECORD
  5
1244
102
{ACAD_REACTORS
330
1223
102
}
330
1223
100
AcDbXrecord
280
     1
  1
B北
  1
*B北*
  1
*
  1
*
 70
     0
  1
*
  1
*
  0
XRECORD
  5
1245
102
{ACAD_REACTORS
330
1223
102
}
330
1223
100
AcDbXrecord
280
     1
  1
c
  1
*c_*
  1
*
  1
*
 70
    12
  1
*
  1
*
  0
XRECORD
  5
1246
102
{ACAD_REACTORS
330
1223
102
}
330
1223
100
AcDbXrecord
280
     1
  1
CAR
  1
CAR*
  1
*
  1
*
 70
     0
  1
*
  1
*
  0
XRECORD
  5
1247
102
{ACAD_REACTORS
330
1223
102
}
330
1223
100
AcDbXrecord
280
     1
  1
d
  1
*d_*
  1
*
  1
*
 70
    12
  1
*
  1
*
  0
XRECORD
  5
1248
102
{ACAD_REACTORS
330
1223
102
}
330
1223
100
AcDbXrecord
280
     1
  1
DIM
  1
*DIM
  1
*
  1
*
 70
     0
  1
*
  1
*
  0
XRECORD
  5
1249
102
{ACAD_REACTORS
330
1223
102
}
330
1223
100
AcDbXrecord
280
     1
  1
DIM2
  1
*DIM2
  1
*
  1
*
 70
     0
  1
*
  1
*
  0
XRECORD
  5
124A
102
{ACAD_REACTORS
330
1223
102
}
330
1223
100
AcDbXrecord
280
     1
  1
DIM3
  1
*DIM3
  1
*
  1
*
 70
     0
  1
*
  1
*
  0
XRECORD
  5
124B
102
{ACAD_REACTORS
330
1223
102
}
330
1223
100
AcDbXrecord
280
     1
  1
e
  1
*e_*
  1
*
  1
*
 70
    12
  1
*
  1
*
  0
XRECORD
  5
124C
102
{ACAD_REACTORS
330
1223
102
}
330
1223
100
AcDbXrecord
280
     1
  1
E南
  1
*E*南*
  1
*
  1
*
 70
     0
  1
*
  1
*
  0
XRECORD
  5
124D
102
{ACAD_REACTORS
330
1223
102
}
330
1223
100
AcDbXrecord
280
     1
  1
GENKYOU
  1
*G*
  1
*
  1
*
 70
     0
  1
*
  1
*
  0
XRECORD
  5
124E
102
{ACAD_REACTORS
330
1223
102
}
330
1223
100
AcDbXrecord
280
     1
  1
HTXT
  1
*HTXT
  1
*
  1
*
 70
     0
  1
*
  1
*
  0
XRECORD
  5
124F
102
{ACAD_REACTORS
330
1223
102
}
330
1223
100
AcDbXrecord
280
     1
  1
HTXT2
  1
*HTXT2
  1
*
  1
*
 70
     0
  1
*
  1
*
  0
XRECORD
  5
1250
102
{ACAD_REACTORS
330
1223
102
}
330
1223
100
AcDbXrecord
280
     1
  1
KAN
  1
W,S,T,G,E,
  1
*
  1
*
 70
     0
  1
*
  1
*
  0
XRECORD
  5
1251
102
{ACAD_REACTORS
330
1223
102
}
330
1223
100
AcDbXrecord
280
     1
  1
LAND
  1
*
  1
*
  1
*
 70
     0
  1
*
  1
*
  0
XRECORD
  5
1252
102
{ACAD_REACTORS
330
1223
102
}
330
1223
100
AcDbXrecord
280
     1
  1
MASU
  1
*MASU
  1
*
  1
*
 70
     0
  1
*
  1
*
  0
XRECORD
  5
1253
102
{ACAD_REACTORS
330
1223
102
}
330
1223
100
AcDbXrecord
280
     1
  1
OFF
  1
*OFF*
  1
*
  1
*
 70
     0
  1
*
  1
*
  0
XRECORD
  5
1254
102
{ACAD_REACTORS
330
1223
102
}
330
1223
100
AcDbXrecord
280
     1
  1
OFST
  1
*OFST
  1
*
  1
*
 70
     0
  1
*
  1
*
  0
XRECORD
  5
1255
102
{ACAD_REACTORS
330
1223
102
}
330
1223
100
AcDbXrecord
280
     1
  1
ON
  1
*ON*
  1
*
  1
*
 70
     0
  1
*
  1
*
  0
XRECORD
  5
1256
102
{ACAD_REACTORS
330
1223
102
}
330
1223
100
AcDbXrecord
280
     1
  1
ｼｭｳｾｲ
  1
*
  1
*
  1
*
 70
     0
  1
*
  1
*
  0
XRECORD
  5
1257
102
{ACAD_REACTORS
330
1223
102
}
330
1223
100
AcDbXrecord
280
     1
  1
ｾﾒﾝﾄ注入量上半円
  1
CE-?-T-?
  1
*
  1
*
 70
     0
  1
*
  1
*
  0
XRECORD
  5
1258
102
{ACAD_REACTORS
330
1223
102
}
330
1223
100
AcDbXrecord
280
     1
  1
ﾌﾘｰｽﾞ解除
  1
*
  1
*
  1
*
 70
    12
  1
*
  1
*
  0
XRECORD
  5
1259
102
{ACAD_REACTORS
330
1223
102
}
330
1223
100
AcDbXrecord
280
     1
  1
ﾙｼﾞｵﾝ値下半円
  1
LU-?-B-?
  1
*
  1
*
 70
     0
  1
*
  1
*
  0
XRECORD
  5
125A
102
{ACAD_REACTORS
330
1223
102
}
330
1223
100
AcDbXrecord
280
     1
  1
ｓ
  1
*SOKUTENME
  1
*
  1
*
 70
     0
  1
*
  1
*
  0
XRECORD
  5
125B
102
{ACAD_REACTORS
330
1223
102
}
330
1223
100
AcDbXrecord
280
     1
  1
その他
  1
O*
  1
*
  1
*
 70
     0
  1
*
  1
*
  0
XRECORD
  5
125C
102
{ACAD_REACTORS
330
1223
102
}
330
1223
100
AcDbXrecord
280
     1
  1
セメント注入量
  1
CE-*
  1
*
  1
*
 70
     0
  1
*
  1
*
  0
XRECORD
  5
125D
102
{ACAD_REACTORS
330
1223
102
}
330
1223
100
AcDbXrecord
280
     1
  1
フリーズ以外
  1
*
  1
*
  1
*
 70
    12
  1
*
  1
*
  0
XRECORD
  5
125E
102
{ACAD_REACTORS
330
1223
102
}
330
1223
100
AcDbXrecord
280
     1
  1
ランプ
  1
*ランプ*
  1
*
  1
*
 70
     0
  1
*
  1
*
  0
XRECORD
  5
125F
102
{ACAD_REACTORS
330
1223
102
}
330
1223
100
AcDbXrecord
280
     1
  1
ルジオン値
  1
LU-*
  1
*
  1
*
 70
     0
  1
*
  1
*
  0
XRECORD
  5
1260
102
{ACAD_REACTORS
330
1223
102
}
330
1223
100
AcDbXrecord
280
     1
  1
ロック
  1
*
  1
*
  1
*
 70
   256
  1
*
  1
*
  0
XRECORD
  5
1261
102
{ACAD_REACTORS
330
1223
102
}
330
1223
100
AcDbXrecord
280
     1
  1
ロック解除
  1
*
  1
*
  1
*
 70
   768
  1
*
  1
*
  0
XRECORD
  5
1262
102
{ACAD_REACTORS
330
1223
102
}
330
1223
100
AcDbXrecord
280
     1
  1
案1
  1
*案1
  1
*
  1
*
 70
     0
  1
*
  1
*
  0
XRECORD
  5
1263
102
{ACAD_REACTORS
330
1223
102
}
330
1223
100
AcDbXrecord
280
     1
  1
案2
  1
*案2
  1
*
  1
*
 70
     0
  1
*
  1
*
  0
XRECORD
  5
1264
102
{ACAD_REACTORS
330
1223
102
}
330
1223
100
AcDbXrecord
280
     1
  1
一般
  1
*般*
  1
*
  1
*
 70
     0
  1
*
  1
*
  0
XRECORD
  5
1265
102
{ACAD_REACTORS
330
1223
102
}
330
1223
100
AcDbXrecord
280
     1
  1
外部参照の非表示画層
  1
*
  1
*
  1
*
 70
     0
  1
*
  1
*
  0
XRECORD
  5
1266
102
{ACAD_REACTORS
330
1223
102
}
330
1223
100
AcDbXrecord
280
     1
  1
形状
  1
pen1,pen3,pen4,up,dia,low
  1
*
  1
*
 70
     0
  1
*
  1
*
  0
XRECORD
  5
1267
102
{ACAD_REACTORS
330
1223
102
}
330
1223
100
AcDbXrecord
280
     1
  1
形状以外
  1
dim,cen,text,sakuzu1,sakuzu2,siten,defpoints,0
  1
*
  1
*
 70
     0
  1
*
  1
*
  0
XRECORD
  5
1268
102
{ACAD_REACTORS
330
1223
102
}
330
1223
100
AcDbXrecord
280
     1
  1
計画
  1
K*
  1
*
  1
*
 70
     0
  1
*
  1
*
  0
XRECORD
  5
1269
102
{ACAD_REACTORS
330
1223
102
}
330
1223
100
AcDbXrecord
280
     1
  1
現況
  1
G*
  1
*
  1
*
 70
     0
  1
*
  1
*
  0
XRECORD
  5
126A
102
{ACAD_REACTORS
330
1223
102
}
330
1223
100
AcDbXrecord
280
     1
  1
暫定形
  1
*暫*
  1
*
  1
*
 70
     0
  1
*
  1
*
  0
XRECORD
  5
126B
102
{ACAD_REACTORS
330
1223
102
}
330
1223
100
AcDbXrecord
280
     1
  1
縦断セット
  1
JO*
  1
*
  1
*
 70
     0
  1
*
  1
*
  0
XRECORD
  5
126C
102
{ACAD_REACTORS
330
1223
102
}
330
1223
100
AcDbXrecord
280
     1
  1
縦断計画
  1
JK*
  1
*
  1
*
 70
     0
  1
*
  1
*
  0
XRECORD
  5
126D
102
{ACAD_REACTORS
330
1223
102
}
330
1223
100
AcDbXrecord
280
     1
  1
縦断埋設
  1
JM*
  1
*
  1
*
 70
     0
  1
*
  1
*
  0
XRECORD
  5
126E
102
{ACAD_REACTORS
330
1223
102
}
330
1223
100
AcDbXrecord
280
     1
  1
数量用
  1
*数量用*
  1
*
  1
*
 70
     0
  1
*
  1
*
  0
XRECORD
  5
126F
102
{ACAD_REACTORS
330
1223
102
}
330
1223
100
AcDbXrecord
280
     1
  1
専北
  1
*専北*
  1
*
  1
*
 70
     0
  1
*
  1
*
  0
XRECORD
  5
1270
102
{ACAD_REACTORS
330
1223
102
}
330
1223
100
AcDbXrecord
280
     1
  1
専用
  1
*専*
  1
*
  1
*
 70
     0
  1
*
  1
*
  0
XRECORD
  5
1271
102
{ACAD_REACTORS
330
1223
102
}
330
1223
100
AcDbXrecord
280
     1
  1
線形
  1
*線形*
  1
*
  1
*
 70
     0
  1
*
  1
*
  0
XRECORD
  5
1272
102
{ACAD_REACTORS
330
1223
102
}
330
1223
100
AcDbXrecord
280
     1
  1
全帯
  1
*帯*
  1
*
  1
*
 70
     0
  1
*
  1
*
  0
XRECORD
  5
1273
102
{ACAD_REACTORS
330
1223
102
}
330
1223
100
AcDbXrecord
280
     1
  1
断面
  1
*断面*
  1
*
  1
*
 70
     0
  1
*
  1
*
  0
XRECORD
  5
1274
102
{ACAD_REACTORS
330
1223
102
}
330
1223
100
AcDbXrecord
280
     1
  1
東西線
  1
*A
  1
*
  1
*
 70
     0
  1
*
  1
*
  0
XRECORD
  5
1275
102
{ACAD_REACTORS
330
1223
102
}
330
1223
100
AcDbXrecord
280
     1
  1
道路詳細設計　平面図
  1
道路中心線
  1
*
  1
*
 70
     0
  1
*
  1
*
  0
XRECORD
  5
1276
102
{ACAD_REACTORS
330
1223
102
}
330
1223
100
AcDbXrecord
280
     1
  1
南北線
  1
*B
  1
*
  1
*
 70
     0
  1
*
  1
*
  0
XRECORD
  5
1277
102
{ACAD_REACTORS
330
1223
102
}
330
1223
100
AcDbXrecord
280
     1
  1
非表示
  1
z*
  1
*
  1
*
 70
     0
  1
*
  1
*
  0
XRECORD
  5
1278
102
{ACAD_REACTORS
330
1223
102
}
330
1223
100
AcDbXrecord
280
     1
  1
非表示を表示
  1
*
  1
*
  1
*
 70
     3
  1
*
  1
*
  0
XRECORD
  5
1279
102
{ACAD_REACTORS
330
1223
102
}
330
1223
100
AcDbXrecord
280
     1
  1
非表示画層を表示
  1
*
  1
*
  1
*
 70
     3
  1
*
  1
*
  0
XRECORD
  5
127A
102
{ACAD_REACTORS
330
1223
102
}
330
1223
100
AcDbXrecord
280
     1
  1
表示レイヤ－を表示
  1
*
  1
*
  1
*
 70
     1
  1
*
  1
*
  0
XRECORD
  5
127B
102
{ACAD_REACTORS
330
1223
102
}
330
1223
100
AcDbXrecord
280
     1
  1
副道
  1
*副*
  1
*
  1
*
 70
     0
  1
*
  1
*
  0
XRECORD
  5
127C
102
{ACAD_REACTORS
330
1223
102
}
330
1223
100
AcDbXrecord
280
     1
  1
平面図
  1
*平*
  1
*
  1
*
 70
     0
  1
*
  1
*
  0
XRECORD
  5
127D
102
{ACAD_REACTORS
330
1223
102
}
330
1223
100
AcDbXrecord
280
     1
  1
埋設
  1
M*
  1
*
  1
*
 70
     0
  1
*
  1
*
  0
ENDSEC
  0
EOF
